Menu:

 

Search:

 

marduk - azrael:

 



/---------------------------------------------------------------------------
/ The following is the author's own interpretation of the song, to be used -
/ for studying or private use only, removal of any part of this ten line   -
/ header is illegal!!!  Removal of the transcribers name or anything       -
/ relevant to the transcriber is also illegal, as so is the removal of the -
/ place inwhich the tab was downloaded. Publishing as well as printing of  -
/ the tab is illegal without permission of the transcriber and copyright   -
/ owner of the song. Failure to apply to these laws result will in legal   -
/ action from the appropriate parties.                                     -
/---------------------------------------------------------------------------

downloaded from Displacer's Tablature Site at
        http://www.dsrmusic.com/metaltab
join the death/black tab emailing list by filling out the free
subscription form at http://www.dsrmusic.com/metaltab/join.htm


#----------------------------------PLEASE NOTE---------------------------------#
#This file is the author's own work and represents their interpretation of the #
#song. You may only use this file for private study, scholarship, or research. #
#------------------------------------------------------------------------------#

  Visit MetalTabs.com for more metal tablature
  
Azrael
From " La Grande Danse Macabre " Marduk
By the count Von Vaillancour

Riff 1  (play very fast)

D |3------7------6------7---6---4---3------7------6------7---10--|
A |3------7------6------7---6---4---3------7------6------7---10--|
E |1------5------4------5---4---2---1------5------4------5---8---|


Riff 2

D |9------12---10---12---7---9------12---10---12---7|
A |9------12---10---12---7---9------12---10---12---7|
E |7------10--- 8---10---5---7------10--- 8---10---5|


There's a solo here so if you know it, e-mail it to me please...

Riff 3

D |9------8---9---12---7---9------8---9---11---12---11---7|
A |9------8---9---12---7---9------8---9---11---12---11---7|
E |7------6---7---10---5---7------6---7--- 9---10--- 9---5|

In order :  Riff 1 x 4
                Riff 2 x 2
                Riff 1 x 4
                Solo
                Riff 2 x 2
                Riff 3 x 4

That's it... please e-mail me at : vaip_8706_19@hotmail.com

  Visit MetalTabs.com for more metal tablature