Menu:

 

Search:

 

magnetic fields - acoustic guitar:

 



Title: Acoustic Guitar
Artist: 
Album: 69 Love Songs
Author: 


Track 1: Untitled

E|---------------------------------|---------------------|---------------------|---------------------|
B|---------------------------------|-----------3----2----|---------------------|-----------0---------|
G|---------------------------------|------2--------------|-----------2----0----|----------------2----|
D|-------------------------0---2---|-0-------------------|------2--------------|------0--------------|
A|-------------0---2---4-----------|---------------------|-0-------------------|---------------------|
E|-0---2---3-----------------------|---------------------|---------------------|-3-------------------|


E|-----------0---------|---------------------|---------------------|---------------------|
B|----------------3----|-----------3----2----|---------------------|---------------------|
G|------2--------------|------2--------------|-----------2----0----|----------------0----|
D|-0-------------------|-0-------------------|------2--------------|-----------0---------|
A|---------------------|---------------------|-0-------------------|------2--------------|
E|---------------------|---------------------|---------------------|-3-------------------|


E|-----------3----2----|---------------------|---------------------|---------------------|
B|-0----3--------------|-----------3----2----|---------------------|-----------0---------|
G|---------------------|------2--------------|-----------2----0----|----------------2----|
D|---------------------|-0-------------------|------2--------------|------0--------------|
A|---------------------|---------------------|-0-------------------|---------------------|
E|---------------------|---------------------|---------------------|-3-------------------|


E|-----------0---------|---------------------|---------------------|---------------------|
B|----------------3----|-----------3----2----|-----------3----2----|---------------------|
G|------2--------------|------2--------------|------2--------------|-----------2----0----|
D|-0-------------------|-0-------------------|-0-------------------|------2--------------|
A|---------------------|---------------------|---------------------|-0-------------------|
E|---------------------|---------------------|---------------------|---------------------|


E|---------------------|---------------------|---------------------|---------------------|
B|---------------------|-----------3----2----|---------------------|-----------0---------|
G|-----------2----0----|------2--------------|-----------2----0----|----------------2----|
D|------2--------------|-0-------------------|------2--------------|------0--------------|
A|-0-------------------|---------------------|-0-------------------|---------------------|
E|---------------------|---------------------|---------------------|-3-------------------|


E|---------------------|---------------------|---------------------|---------------------|
B|-----------3----2----|-----------3----2----|---------------------|---------------------|
G|------2--------------|------2--------------|-----------2----0----|----------------0----|
D|-0-------------------|-0-------------------|------2--------------|-----------0---------|
A|---------------------|---------------------|-0-------------------|------2--------------|
E|---------------------|---------------------|---------------------|-3-------------------|


E|-----------3----2----|-2-----2----2----|-2-----2----2----|-3-----3----3----|-2-----2----2----|
B|-0----3--------------|-3-----3----3----|-2-----2----2----|-3-----3----3----|-3-----3----3----|
G|---------------------|-2-----2----2----|-2-----2----2----|-0-----0----0----|-2-----2----2----|
D|---------------------|-0-----0----0----|-2-----2----2----|-0-----0----0----|-0-----0----0----|
A|---------------------|-----------------|-0-----0----0----|-2-----2----2----|-----------------|
E|---------------------|-----------------|-----------------|-3-----3----3----|-----------------|


E|-2-----2----2----|-2-----2----3----|-3-----3----3----|-0-----0----0----|-2-----2----2----|
B|-3-----3----3----|-3-----3----3----|-3-----3----3----|-2-----2----2----|-3-----3----3----|
G|-2-----2----2----|-2-----2----0----|-0-----0----0----|-2-----2----2----|-2-----2----2----|
D|-0-----0----0----|-0-----0----0----|-0-----0----0----|-2-----2----2----|-0-----0----0----|
A|-----------------|-----------------|-2-----2----2----|-0-----0----0----|-----------------|
E|-----------------|-----------------|-3-----3----3----|-----------------|-----------------|


E|-2-----2----2----|-3-----3----3----|-2-----2----2----|---------------------|---------------------|
B|-2-----2----2----|-3-----3----3----|-3-----3----3----|-----------0---------|-----------0---------|
G|-2-----2----2----|-0-----0----0----|-2-----2----2----|----------------2----|----------------2----|
D|-2-----2----2----|-0-----0----0----|-0-----0----0----|------0--------------|------2--------------|
A|-0-----0----0----|-2-----2----2----|-----------------|---------------------|-0-------------------|
E|-----------------|-3-----3----3----|-----------------|-3-------------------|---------------------|


E|---------------------|---------------------|---------------------|---------------------|
B|-----------0---------|-----------0---------|-----------3----2----|---------------------|
G|----------------2----|----------------2----|------2--------------|-----------2----0----|
D|------0--------------|------2--------------|-0-------------------|------2--------------|
A|---------------------|-0-------------------|---------------------|-0-------------------|
E|-3-------------------|---------------------|---------------------|---------------------|


E|---------------------|-----------0---------|---------------------|---------------------|
B|-----------0---------|----------------3----|-----------3----2----|-----------3----2----|
G|----------------2----|------2--------------|------2--------------|------2--------------|
D|------0--------------|-0-------------------|-0-------------------|-0-------------------|
A|---------------------|---------------------|---------------------|---------------------|
E|-3-------------------|---------------------|---------------------|---------------------|


E|---------------------|---------------------|---------------------|---------------------|
B|---------------------|---------------------|-----------3----2----|---------------------|
G|-----------2----0----|-----------2----0----|------2--------------|-----------2----0----|
D|------2--------------|------2--------------|-0-------------------|------2--------------|
A|-0-------------------|-0-------------------|---------------------|-0-------------------|
E|---------------------|---------------------|---------------------|---------------------|


E|---------------------|---------------------|---------------------|---------------------|
B|-----------0---------|-----------3----2----|-----------3----2----|---------------------|
G|----------------2----|------2--------------|------2--------------|-----------2----0----|
D|------0--------------|-0-------------------|-0-------------------|------2--------------|
A|---------------------|---------------------|---------------------|-0-------------------|
E|-3-------------------|---------------------|---------------------|---------------------|


E|---------------------|-----------3----2----|-2-----2----2----|-2-----2----2----|
B|---------------------|-0----3--------------|-3-----3----3----|-2-----2----2----|
G|----------------0----|---------------------|-2-----2----2----|-2-----2----2----|
D|-----------0---------|---------------------|-0-----0----0----|-2-----2----2----|
A|------2--------------|---------------------|-----------------|-0-----0----0----|
E|-3-------------------|---------------------|-----------------|-----------------|


E|-3-----3----3----|-2-----2----2----|-2-----2----2----|-2-----2----3----|-3-----3----3----|
B|-3-----3----3----|-3-----3----3----|-3-----3----3----|-3-----3----3----|-3-----3----3----|
G|-0-----0----0----|-2-----2----2----|-2-----2----2----|-2-----2----0----|-0-----0----0----|
D|-0-----0----0----|-0-----0----0----|-0-----0----0----|-0-----0----0----|-0-----0----0----|
A|-2-----2----2----|-----------------|-----------------|-----------------|-2-----2----2----|
E|-3-----3----3----|-----------------|-----------------|-----------------|-3-----3----3----|


E|-0-----0----0----|-2-----2----2----|-2-----2----2----|-3-----3----3----|-2-----2----2----|
B|-2-----2----2----|-3-----3----3----|-2-----2----2----|-3-----3----3----|-3-----3----3----|
G|-2-----2----2----|-2-----2----2----|-2-----2----2----|-0-----0----0----|-2-----2----2----|
D|-2-----2----2----|-0-----0----0----|-2-----2----2----|-0-----0----0----|-0-----0----0----|
A|-0-----0----0----|-----------------|-0-----0----0----|-2-----2----2----|-----------------|
E|-----------------|-----------------|-----------------|-3-----3----3----|-----------------|


E|---------------------|---------------------|---------------------|---------------------|
B|-----------0---------|-----------0---------|-----------0---------|-----------0---------|
G|----------------2----|----------------2----|----------------2----|----------------2----|
D|------0--------------|------2--------------|------0--------------|------2--------------|
A|---------------------|-0-------------------|---------------------|-0-------------------|
E|-3-------------------|---------------------|-3-------------------|---------------------|


E|---------------------------------|---------------------------------|---------------------------------|
B|---------------------------------|-------------2---3-------2-------|---------------------------------|
G|---------------------------------|---------2-----------2-------2---|-------------0---2-------0-------|
D|-------------------------0---2---|-0---4---------------------------|---------2-----------2-------4---|
A|-------------0---2---4-----------|---------------------------------|-0---4---------------------------|
E|-0---2---3-----------------------|---------------------------------|---------------------------------|


E|---------------------|-----------------0---------------|---------------------------------|
B|-----------0---------|-------------2-----------3-------|-------------2---3-------2-------|
G|----------------2----|---------2-----------2-------2---|---------2-----------2-------2---|
D|------0--------------|-0---4---------------------------|-0---4---------------------------|
A|---------------------|---------------------------------|---------------------------------|
E|-3-------------------|---------------------------------|---------------------------------|


E|---------------------------------|---------------------|-----------------0---------------|
B|---------------------------------|-----------0---------|-------------2-----------3-------|
G|-------------0---2-------0-------|----------------2----|---------2-----------2-------2---|
D|---------2-----------2-------4---|------0--------------|-0---4---------------------------|
A|-0---4---------------------------|---------------------|---------------------------------|
E|---------------------------------|-3-------------------|---------------------------------|


E|---------------------|---------------------|---------------------|-----------0---------|
B|-----------3----2----|---------------------|-----------0---------|----------------3----|
G|------2--------------|-----------2----0----|----------------2----|------2--------------|
D|-0-------------------|------2--------------|------0--------------|-0-------------------|
A|---------------------|-0-------------------|---------------------|---------------------|
E|---------------------|---------------------|-3-------------------|---------------------|


E|---------------------|---------------------|---------------------|---------------------|
B|-----------3----2----|-----------3----2----|---------------------|---------------------|
G|------2--------------|------2--------------|-----------2----0----|-----------2----0----|
D|-0-------------------|-0-------------------|------2--------------|------2--------------|
A|---------------------|---------------------|-0-------------------|-0-------------------|
E|---------------------|---------------------|---------------------|---------------------|


E|---------------------|---------------------|---------------------|---------------------|
B|-----------3----2----|---------------------|-----------0---------|-----------3----2----|
G|------2--------------|-----------2----0----|----------------2----|------2--------------|
D|-0-------------------|------2--------------|------0--------------|-0-------------------|
A|---------------------|-0-------------------|---------------------|---------------------|
E|---------------------|---------------------|-3-------------------|---------------------|


E|---------------------|---------------------|---------------------|-----------3----2----|
B|-----------3----2----|---------------------|---------------------|-0----3--------------|
G|------2--------------|-----------2----0----|----------------0----|---------------------|
D|-0-------------------|------2--------------|-----------0---------|---------------------|
A|---------------------|-0-------------------|------2--------------|---------------------|
E|---------------------|---------------------|-3-------------------|---------------------|


E|---------------------|---------------------|---------------------|---------------------|
B|-----------3----2----|---------------------|---------------------|-12-------------5----|
G|------2--------------|-----------2----0----|----------------0----|-----------5---------|
D|-0-------------------|------2--------------|-----------0---------|------5--------------|
A|---------------------|-0-------------------|------2--------------|---------------------|
E|---------------------|---------------------|-3-------------------|---------------------|


E|-------------|
B|-------------|
G|------5------|
D|-5-----------|
A|-------------|
E|-------------|





Track 2: Untitled

G|--------|--------|--------|--------|--------|--------|--------|--------|--------|
D|--------|--------|--------|--------|--------|--------|--------|--------|--------|
A|--------|--------|--------|--------|--------|--------|--------|--------|--------|
E|--------|--------|--------|--------|--------|--------|--------|--------|--------|


G|--------|--------|--------|--------|--------|--------|--------|--------|--------|
D|--------|--------|--------|--------|--------|--------|--------|--------|--------|
A|--------|--------|--------|--------|--------|--------|--------|--------|--------|
E|--------|--------|--------|--------|--------|--------|--------|--------|--------|


G|--------|--------|--------|--------|--------|--------|--------|--------|--------|
D|--------|--------|--------|--------|--------|--------|--------|--------|--------|
A|--------|--------|--------|--------|--------|--------|--------|--------|--------|
E|--------|--------|--------|--------|--------|--------|--------|--------|--------|


G|--------|--------|--------|--------|--------|--------|--------|--------|--------|
D|--------|--------|--------|--------|--------|--------|--------|--------|--------|
A|--------|--------|--------|--------|--------|--------|--------|--------|--------|
E|--------|--------|--------|--------|--------|--------|--------|--------|--------|


G|--------|--------|--------|--------|--------|--------|--------|--------|--------|
D|--------|--------|--------|--------|--------|--------|--------|--------|--------|
A|--------|--------|--------|--------|--------|--------|--------|--------|--------|
E|--------|--------|--------|--------|--------|--------|--------|--------|--------|


G|--------|--------|--------|--------|--------|--------|--------|--------|--------|
D|--------|--------|--------|--------|--------|--------|--------|--------|--------|
A|--------|--------|--------|--------|--------|--------|--------|--------|--------|
E|--------|--------|--------|--------|--------|--------|--------|--------|--------|


G|--------|--------|--------|--------|--------|--------|--------|--------|--------|
D|--------|--------|--------|--------|--------|--------|--------|--------|--------|
A|--------|--------|--------|--------|--------|--------|--------|--------|--------|
E|--------|--------|--------|--------|--------|--------|--------|--------|--------|


G|--------|--------|--------|--------|--------|--------|--------|--------|--------|
D|--------|--------|--------|--------|--------|--------|--------|--------|--------|
A|--------|--------|--------|--------|--------|--------|--------|--------|--------|
E|--------|--------|--------|--------|--------|--------|--------|--------|--------|


G|--------|--------|--------|--------|--------|--------|--------|--------|--------|
D|--------|--------|--------|--------|--------|--------|--------|--------|--------|
A|--------|--------|--------|--------|--------|--------|--------|--------|--------|
E|--------|--------|--------|--------|--------|--------|--------|--------|--------|


G|--------|--------|--------|--------|--------|--------|--------|--------|--------|
D|--------|--------|--------|--------|--------|--------|--------|--------|--------|
A|--------|--------|--------|--------|--------|--------|--------|--------|--------|
E|--------|--------|--------|--------|--------|--------|--------|--------|--------|


G|--------|--------|--------|--------|--------|--------|--------|--------|--------|
D|--------|--------|--------|--------|--------|--------|--------|--------|--------|
A|--------|--------|--------|--------|--------|--------|--------|--------|--------|
E|--------|--------|--------|--------|--------|--------|--------|--------|--------|


G|--------|--------|--------|--------|
D|--------|--------|--------|--------|
A|--------|--------|--------|--------|
E|--------|--------|--------|--------|