Menu:

 

Search:

 

machine head - take my scars:

 



/---------------------------------------------------------------------------
/ The following is the author's own interpretation of the song, to be used -
/ for studying or private use only, removal of any part of this ten line   -
/ header is illegal!!!  Removal of the transcribers name or anything       -
/ relevant to the transcriber is also illegal, as so is the removal of the -
/ place inwhich the tab was downloaded. Publishing as well as printing of  -
/ the tab is illegal without permission of the transcriber and copyright   -
/ owner of the song. Failure to apply to these laws result will in legal   -
/ action from the appropriate parties.                                     -
/---------------------------------------------------------------------------

downloaded from Displacer's Tablature Site at
        http://www.dsrmusic.com/metaltab
join the death/black tab emailing list by filling out the free
subscription form at http://www.dsrmusic.com/metaltab/join.htm


#----------------------------------PLEASE NOTE---------------------------------#
#This file is the author's own work and represents their interpretation of the #
#song. You may only use this file for private study, scholarship, or research. #
#------------------------------------------------------------------------------#

  Visit MetalTabs.com for more metal tablature
  
Band: Machine Head
Album: The more things Change
Song:  Take my scars

Copyright (c)  (Roadrunner Records)

Transcribed By: Bill
Email:          Tatter3d_and_t0rn@hotmail.com


.  - palm mute           /  - slide up to
\  - slide down to       ~  - vibrato
h  - hammer on           b  - Bend
p  - pull off            Suffixes for bend
t  - tap                 f  - full bend    h - half bend
ph - pinched harmonic    q  - quarter bend t - tap bend
*  - see comment         ^  - Hold bend    r release bend
x  - Stuccatto           ~  - vibrato bend
,  - slight palm mute    () - ghost note, sustained note
"  - tremolo note        <> - Trill

Tunning G,D,A,E

After guitar intro

|-------------------------------------------------------------------|
|-------------------------------------------------------------------|
|-------------------------------------------------------------------|
|--4\-0-2-1-0-22-1-0-1----------------------------------------------|
              ^^
          Not 22, just fret 2 played fast

WOOOAHH!!!!!


|-------------------------------------------------------------------|
|-------------------------------------------------------------------|
|---0-2-1-0-22-1-0-1------------------------------------------------|
|---0-2-1-0-22-1-0-1------------------------------------------------|

|-------------------------------------------------------------------|
|-------------------------------------------------------------------|
|-------------------------------------------------------------------|
|---0-2-1-0-22-1-0-1--3-3-3-5555------------------------------------|

|-------------------------------------------------------------------|
|-------------------------------------------------------------------|
|-------------------------------------------------------------------|
|---11-1-11-111111-111-1-22-2-2-------------------------------------|

|-------------------------------------------------------------------|
|-------------------------------------------------------------------|
|---0-2-1-0-22-1-0-1------------------------------------------------|
|---0-2-1-0-22-1-0-1------------------------------------------------|  X4

|-------------------------------------------------------------------|
|-------------------------------------------------------------------|
|-------------------------------------------------------------------|
|-----3-3-3-3-5-5-5-5-----------------------------------------------|


During solo
|-------------------------------------------------------------------|
|-------------------------------------------------------------------|
|-------------------------------------------------------------------|
|--2-0-0-2--0-0-0-0-2-1-1-1-2-0-2-----------------------------------|

|-------------------------------------------------------------------|
|-------------------------------------------------------------------|
|-------------------------------------------------------------------|
|---0-2-1-0-22-1-0-1--3-3-3-5555------------------------------------|play 4 times

and straight into

|-------------------------------------------------------------------|
|-------------------------------------------------------------------|
|-------------------------------------------------------------------|
|--1-0-0-0-1-2-3----------------------------------------------------|

and end..

Thats it hope it helped

  Visit MetalTabs.com for more metal tablature