Menu:

 

Search:

 

machine head - imperium:

 



Title: Imperium
Artist: 
Album: Through The Ashes Of Empires
Author: Machine Head


Track 1: Clean I

C#|------------|-----------------|------------|--------|------------|--------|------------|
G#|------------|-----------------|------------|--------|------------|--------|------------|
 E|------------|-----------------|------------|--------|------------|--------|------------|
 B|-4---5------|-5---------------|-4---5------|-5------|-7---5------|-5------|-4---5------|
F#|-5---7------|-7---------------|-5---7------|-7------|-9---7------|-7------|-5---7------|
 B|------------|-----------------|------------|--------|------------|--------|------------|


C#|--------|------------|--------|------------|--------|------------|--------|------------|
G#|--------|------------|--------|------------|--------|------------|--------|------------|
 E|--------|------------|--------|------------|--------|------------|--------|------------|
 B|-5------|-7---5------|-5------|-4---5------|-5------|-7---5------|-5------|-4---5------|
F#|-7------|-9---7------|-7------|-5---7------|-7------|-9---7------|-7------|-5---7------|
 B|--------|------------|--------|------------|--------|------------|--------|------------|


C#|--------|------------|--------|--------|--------|--------|--------|--------|--------|
G#|--------|------------|--------|--------|--------|--------|--------|--------|--------|
 E|--------|------------|--------|--------|--------|--------|--------|--------|--------|
 B|-5------|-7---5------|-5------|--------|--------|--------|--------|--------|--------|
F#|-7------|-9---7------|-7------|--------|--------|--------|--------|--------|--------|
 B|--------|------------|--------|--------|--------|--------|--------|--------|--------|


C#|--------|--------|--------|--------|--------|--------|--------|--------|--------|
G#|--------|--------|--------|--------|--------|--------|--------|--------|--------|
 E|--------|--------|--------|--------|--------|--------|--------|--------|--------|
 B|--------|--------|--------|--------|--------|--------|--------|--------|--------|
F#|--------|--------|--------|--------|--------|--------|--------|--------|--------|
 B|--------|--------|--------|--------|--------|--------|--------|--------|--------|


C#|--------|--------|--------|--------|--------|--------|--------|--------|--------|
G#|--------|--------|--------|--------|--------|--------|--------|--------|--------|
 E|--------|--------|--------|--------|--------|--------|--------|--------|--------|
 B|--------|--------|--------|--------|--------|--------|--------|--------|--------|
F#|--------|--------|--------|--------|--------|--------|--------|--------|--------|
 B|--------|--------|--------|--------|--------|--------|--------|--------|--------|


C#|--------|--------|--------|--------|--------|--------|--------|--------|--------|
G#|--------|--------|--------|--------|--------|--------|--------|--------|--------|
 E|--------|--------|--------|--------|--------|--------|--------|--------|--------|
 B|--------|--------|--------|--------|--------|--------|--------|--------|--------|
F#|--------|--------|--------|--------|--------|--------|--------|--------|--------|
 B|--------|--------|--------|--------|--------|--------|--------|--------|--------|


C#|--------|--------|--------|--------|--------|--------|--------|--------|--------|
G#|--------|--------|--------|--------|--------|--------|--------|--------|--------|
 E|--------|--------|--------|--------|--------|--------|--------|--------|--------|
 B|--------|--------|--------|--------|--------|--------|--------|--------|--------|
F#|--------|--------|--------|--------|--------|--------|--------|--------|--------|
 B|--------|--------|--------|--------|--------|--------|--------|--------|--------|


C#|--------|--------|--------|--------|--------|--------|--------|--------|--------|
G#|--------|--------|--------|--------|--------|--------|--------|--------|--------|
 E|--------|--------|--------|--------|--------|--------|--------|--------|--------|
 B|--------|--------|--------|--------|--------|--------|--------|--------|--------|
F#|--------|--------|--------|--------|--------|--------|--------|--------|--------|
 B|--------|--------|--------|--------|--------|--------|--------|--------|--------|


C#|--------|--------|--------|--------|--------|--------|--------|--------|--------|
G#|--------|--------|--------|--------|--------|--------|--------|--------|--------|
 E|--------|--------|--------|--------|--------|--------|--------|--------|--------|
 B|--------|--------|--------|--------|--------|--------|--------|--------|--------|
F#|--------|--------|--------|--------|--------|--------|--------|--------|--------|
 B|--------|--------|--------|--------|--------|--------|--------|--------|--------|


C#|--------|--------|--------|--------|--------|--------|--------|--------|--------|
G#|--------|--------|--------|--------|--------|--------|--------|--------|--------|
 E|--------|--------|--------|--------|--------|--------|--------|--------|--------|
 B|--------|--------|--------|--------|--------|--------|--------|--------|--------|
F#|--------|--------|--------|--------|--------|--------|--------|--------|--------|
 B|--------|--------|--------|--------|--------|--------|--------|--------|--------|


C#|--------|--------|--------|--------|--------|--------|--------|--------|--------|
G#|--------|--------|--------|--------|--------|--------|--------|--------|--------|
 E|--------|--------|--------|--------|--------|--------|--------|--------|--------|
 B|--------|--------|--------|--------|--------|--------|--------|--------|--------|
F#|--------|--------|--------|--------|--------|--------|--------|--------|--------|
 B|--------|--------|--------|--------|--------|--------|--------|--------|--------|


C#|--------|--------|--------|--------|--------|--------|--------|--------|--------|
G#|--------|--------|--------|--------|--------|--------|--------|--------|--------|
 E|--------|--------|--------|--------|--------|--------|--------|--------|--------|
 B|--------|--------|--------|--------|--------|--------|--------|--------|--------|
F#|--------|--------|--------|--------|--------|--------|--------|--------|--------|
 B|--------|--------|--------|--------|--------|--------|--------|--------|--------|


C#|--------|--------|--------|--------|--------|--------|--------|--------|--------|
G#|--------|--------|--------|--------|--------|--------|--------|--------|--------|
 E|--------|--------|--------|--------|--------|--------|--------|--------|--------|
 B|--------|--------|--------|--------|--------|--------|--------|--------|--------|
F#|--------|--------|--------|--------|--------|--------|--------|--------|--------|
 B|--------|--------|--------|--------|--------|--------|--------|--------|--------|


C#|--------|--------|--------|--------|--------|--------|--------|--------|--------|
G#|--------|--------|--------|--------|--------|--------|--------|--------|--------|
 E|--------|--------|--------|--------|--------|--------|--------|--------|--------|
 B|--------|--------|--------|--------|--------|--------|--------|--------|--------|
F#|--------|--------|--------|--------|--------|--------|--------|--------|--------|
 B|--------|--------|--------|--------|--------|--------|--------|--------|--------|


C#|--------|--------|--------|--------|--------|--------|--------|--------|--------|
G#|--------|--------|--------|--------|--------|--------|--------|--------|--------|
 E|--------|--------|--------|--------|--------|--------|--------|--------|--------|
 B|--------|--------|--------|--------|--------|--------|--------|--------|--------|
F#|--------|--------|--------|--------|--------|--------|--------|--------|--------|
 B|--------|--------|--------|--------|--------|--------|--------|--------|--------|


C#|--------|--------|--------|--------|--------|--------|--------|--------|--------|
G#|--------|--------|--------|--------|--------|--------|--------|--------|--------|
 E|--------|--------|--------|--------|--------|--------|--------|--------|--------|
 B|--------|--------|--------|--------|--------|--------|--------|--------|--------|
F#|--------|--------|--------|--------|--------|--------|--------|--------|--------|
 B|--------|--------|--------|--------|--------|--------|--------|--------|--------|


C#|--------|--------|--------|--------|--------|--------|--------|--------|--------|
G#|--------|--------|--------|--------|--------|--------|--------|--------|--------|
 E|--------|--------|--------|--------|--------|--------|--------|--------|--------|
 B|--------|--------|--------|--------|--------|--------|--------|--------|--------|
F#|--------|--------|--------|--------|--------|--------|--------|--------|--------|
 B|--------|--------|--------|--------|--------|--------|--------|--------|--------|


C#|--------|--------|--------|--------|--------|--------|--------|--------|--------|
G#|--------|--------|--------|--------|--------|--------|--------|--------|--------|
 E|--------|--------|--------|--------|--------|--------|--------|--------|--------|
 B|--------|--------|--------|--------|--------|--------|--------|--------|--------|
F#|--------|--------|--------|--------|--------|--------|--------|--------|--------|
 B|--------|--------|--------|--------|--------|--------|--------|--------|--------|


C#|--------|--------|--------|--------|--------|--------|--------|--------|--------|
G#|--------|--------|--------|--------|--------|--------|--------|--------|--------|
 E|--------|--------|--------|--------|--------|--------|--------|--------|--------|
 B|--------|--------|--------|--------|--------|--------|--------|--------|--------|
F#|--------|--------|--------|--------|--------|--------|--------|--------|--------|
 B|--------|--------|--------|--------|--------|--------|--------|--------|--------|


C#|--------|--------|--------|--------|--------|--------|--------|--------|--------|
G#|--------|--------|--------|--------|--------|--------|--------|--------|--------|
 E|--------|--------|--------|--------|--------|--------|--------|--------|--------|
 B|--------|--------|--------|--------|--------|--------|--------|--------|--------|
F#|--------|--------|--------|--------|--------|--------|--------|--------|--------|
 B|--------|--------|--------|--------|--------|--------|--------|--------|--------|


C#|--------|--------|--------|--------|--------|--------|--------|--------|--------|
G#|--------|--------|--------|--------|--------|--------|--------|--------|--------|
 E|--------|--------|--------|--------|--------|--------|--------|--------|--------|
 B|--------|--------|--------|--------|--------|--------|--------|--------|--------|
F#|--------|--------|--------|--------|--------|--------|--------|--------|--------|
 B|--------|--------|--------|--------|--------|--------|--------|--------|--------|





Track 2: Clean II

C#|--------|--------|--------|--------|--------|--------|--------|--------|--------|
G#|--------|--------|--------|--------|--------|--------|--------|--------|--------|
 E|--------|--------|--------|--------|--------|--------|--------|--------|--------|
 B|--------|--------|--------|--------|--------|--------|--------|--------|--------|
F#|--------|--------|--------|--------|--------|--------|--------|--------|--------|
 B|--------|--------|--------|--------|--------|--------|--------|--------|--------|


C#|--------|---------------------------------|---------------------------------|---------------------------------|
G#|--------|---------------------------------|---------------------------------|---------------------------------|
 E|--------|---------9---------------9-------|---------9-------------------5---|---------9---------------9-------|
 B|--------|-----9-------9-------10------10--|-----8-------8-------5---5-------|-----9-------9-------10------10--|
F#|--------|-7---------------7---------------|-7---------------7---------------|-7---------------7---------------|
 B|--------|---------------------------------|---------------------------------|---------------------------------|


C#|---------------------------------|---------------------------------|---------------------------------|
G#|---------------------------------|---------------------------------|---------------------------------|
 E|---------9-------------------5---|---------9---------------9-------|---------9-------------------5---|
 B|-----8-------8-------5---5-------|-----9-------9-------10------10--|-----8-------8-------5---5-------|
F#|-7---------------7---------------|-7---------------7---------------|-7---------------7---------------|
 B|---------------------------------|---------------------------------|---------------------------------|


C#|---------------------------------|---------------------------------|--------|--------|
G#|---------------------------------|---------------------------------|--------|--------|
 E|---------9---------------9-------|---------9-------------------5---|--------|--------|
 B|-----9-------9-------10------10--|-----8-------8-------5---5-------|--------|--------|
F#|-7---------------7---------------|-7---------------7---------------|--------|--------|
 B|---------------------------------|---------------------------------|--------|--------|


C#|--------|--------|--------|--------|--------|--------|--------|--------|--------|
G#|--------|--------|--------|--------|--------|--------|--------|--------|--------|
 E|--------|--------|--------|--------|--------|--------|--------|--------|--------|
 B|--------|--------|--------|--------|--------|--------|--------|--------|--------|
F#|--------|--------|--------|--------|--------|--------|--------|--------|--------|
 B|--------|--------|--------|--------|--------|--------|--------|--------|--------|


C#|--------|--------|--------|--------|--------|--------|--------|--------|--------|
G#|--------|--------|--------|--------|--------|--------|--------|--------|--------|
 E|--------|--------|--------|--------|--------|--------|--------|--------|--------|
 B|--------|--------|--------|--------|--------|--------|--------|--------|--------|
F#|--------|--------|--------|--------|--------|--------|--------|--------|--------|
 B|--------|--------|--------|--------|--------|--------|--------|--------|--------|


C#|--------|--------|--------|--------|--------|--------|--------|--------|--------|
G#|--------|--------|--------|--------|--------|--------|--------|--------|--------|
 E|--------|--------|--------|--------|--------|--------|--------|--------|--------|
 B|--------|--------|--------|--------|--------|--------|--------|--------|--------|
F#|--------|--------|--------|--------|--------|--------|--------|--------|--------|
 B|--------|--------|--------|--------|--------|--------|--------|--------|--------|


C#|--------|--------|--------|--------|--------|--------|--------|--------|--------|
G#|--------|--------|--------|--------|--------|--------|--------|--------|--------|
 E|--------|--------|--------|--------|--------|--------|--------|--------|--------|
 B|--------|--------|--------|--------|--------|--------|--------|--------|--------|
F#|--------|--------|--------|--------|--------|--------|--------|--------|--------|
 B|--------|--------|--------|--------|--------|--------|--------|--------|--------|


C#|--------|--------|--------|--------|--------|--------|--------|--------|--------|
G#|--------|--------|--------|--------|--------|--------|--------|--------|--------|
 E|--------|--------|--------|--------|--------|--------|--------|--------|--------|
 B|--------|--------|--------|--------|--------|--------|--------|--------|--------|
F#|--------|--------|--------|--------|--------|--------|--------|--------|--------|
 B|--------|--------|--------|--------|--------|--------|--------|--------|--------|


C#|--------|--------|--------|--------|--------|--------|--------|--------|--------|
G#|--------|--------|--------|--------|--------|--------|--------|--------|--------|
 E|--------|--------|--------|--------|--------|--------|--------|--------|--------|
 B|--------|--------|--------|--------|--------|--------|--------|--------|--------|
F#|--------|--------|--------|--------|--------|--------|--------|--------|--------|
 B|--------|--------|--------|--------|--------|--------|--------|--------|--------|


C#|--------|--------|--------|--------|--------|--------|--------|--------|--------|
G#|--------|--------|--------|--------|--------|--------|--------|--------|--------|
 E|--------|--------|--------|--------|--------|--------|--------|--------|--------|
 B|--------|--------|--------|--------|--------|--------|--------|--------|--------|
F#|--------|--------|--------|--------|--------|--------|--------|--------|--------|
 B|--------|--------|--------|--------|--------|--------|--------|--------|--------|


C#|--------|--------|--------|--------|--------|--------|--------|--------|--------|
G#|--------|--------|--------|--------|--------|--------|--------|--------|--------|
 E|--------|--------|--------|--------|--------|--------|--------|--------|--------|
 B|--------|--------|--------|--------|--------|--------|--------|--------|--------|
F#|--------|--------|--------|--------|--------|--------|--------|--------|--------|
 B|--------|--------|--------|--------|--------|--------|--------|--------|--------|


C#|--------|--------|--------|--------|--------|--------|--------|--------|--------|
G#|--------|--------|--------|--------|--------|--------|--------|--------|--------|
 E|--------|--------|--------|--------|--------|--------|--------|--------|--------|
 B|--------|--------|--------|--------|--------|--------|--------|--------|--------|
F#|--------|--------|--------|--------|--------|--------|--------|--------|--------|
 B|--------|--------|--------|--------|--------|--------|--------|--------|--------|


C#|--------|--------|--------|--------|--------|--------|--------|--------|--------|
G#|--------|--------|--------|--------|--------|--------|--------|--------|--------|
 E|--------|--------|--------|--------|--------|--------|--------|--------|--------|
 B|--------|--------|--------|--------|--------|--------|--------|--------|--------|
F#|--------|--------|--------|--------|--------|--------|--------|--------|--------|
 B|--------|--------|--------|--------|--------|--------|--------|--------|--------|


C#|--------|--------|--------|--------|--------|--------|--------|--------|--------|
G#|--------|--------|--------|--------|--------|--------|--------|--------|--------|
 E|--------|--------|--------|--------|--------|--------|--------|--------|--------|
 B|--------|--------|--------|--------|--------|--------|--------|--------|--------|
F#|--------|--------|--------|--------|--------|--------|--------|--------|--------|
 B|--------|--------|--------|--------|--------|--------|--------|--------|--------|


C#|--------|--------|--------|--------|--------|--------|--------|--------|--------|
G#|--------|--------|--------|--------|--------|--------|--------|--------|--------|
 E|--------|--------|--------|--------|--------|--------|--------|--------|--------|
 B|--------|--------|--------|--------|--------|--------|--------|--------|--------|
F#|--------|--------|--------|--------|--------|--------|--------|--------|--------|
 B|--------|--------|--------|--------|--------|--------|--------|--------|--------|


C#|--------|--------|--------|--------|--------|--------|--------|--------|--------|
G#|--------|--------|--------|--------|--------|--------|--------|--------|--------|
 E|--------|--------|--------|--------|--------|--------|--------|--------|--------|
 B|--------|--------|--------|--------|--------|--------|--------|--------|--------|
F#|--------|--------|--------|--------|--------|--------|--------|--------|--------|
 B|--------|--------|--------|--------|--------|--------|--------|--------|--------|


C#|--------|--------|--------|--------|--------|--------|--------|--------|--------|
G#|--------|--------|--------|--------|--------|--------|--------|--------|--------|
 E|--------|--------|--------|--------|--------|--------|--------|--------|--------|
 B|--------|--------|--------|--------|--------|--------|--------|--------|--------|
F#|--------|--------|--------|--------|--------|--------|--------|--------|--------|
 B|--------|--------|--------|--------|--------|--------|--------|--------|--------|


C#|--------|--------|--------|--------|--------|--------|--------|--------|--------|
G#|--------|--------|--------|--------|--------|--------|--------|--------|--------|
 E|--------|--------|--------|--------|--------|--------|--------|--------|--------|
 B|--------|--------|--------|--------|--------|--------|--------|--------|--------|
F#|--------|--------|--------|--------|--------|--------|--------|--------|--------|
 B|--------|--------|--------|--------|--------|--------|--------|--------|--------|


C#|--------|--------|--------|--------|--------|--------|--------|--------|--------|
G#|--------|--------|--------|--------|--------|--------|--------|--------|--------|
 E|--------|--------|--------|--------|--------|--------|--------|--------|--------|
 B|--------|--------|--------|--------|--------|--------|--------|--------|--------|
F#|--------|--------|--------|--------|--------|--------|--------|--------|--------|
 B|--------|--------|--------|--------|--------|--------|--------|--------|--------|


C#|--------|--------|--------|--------|--------|--------|--------|--------|--------|
G#|--------|--------|--------|--------|--------|--------|--------|--------|--------|
 E|--------|--------|--------|--------|--------|--------|--------|--------|--------|
 B|--------|--------|--------|--------|--------|--------|--------|--------|--------|
F#|--------|--------|--------|--------|--------|--------|--------|--------|--------|
 B|--------|--------|--------|--------|--------|--------|--------|--------|--------|


C#|--------|--------|--------|--------|--------|--------|--------|--------|--------|
G#|--------|--------|--------|--------|--------|--------|--------|--------|--------|
 E|--------|--------|--------|--------|--------|--------|--------|--------|--------|
 B|--------|--------|--------|--------|--------|--------|--------|--------|--------|
F#|--------|--------|--------|--------|--------|--------|--------|--------|--------|
 B|--------|--------|--------|--------|--------|--------|--------|--------|--------|


C#|--------|--------|--------|--------|
G#|--------|--------|--------|--------|
 E|--------|--------|--------|--------|
 B|--------|--------|--------|--------|
F#|--------|--------|--------|--------|
 B|--------|--------|--------|--------|





Track 3: Dirty I

C#|--------|--------|--------|--------|--------|--------|--------|--------|--------|
G#|--------|--------|--------|--------|--------|--------|--------|--------|--------|
 E|--------|--------|--------|--------|--------|--------|--------|--------|--------|
 B|--------|--------|--------|--------|--------|--------|--------|--------|--------|
F#|--------|--------|--------|--------|--------|--------|--------|--------|--------|
 B|--------|--------|--------|--------|--------|--------|--------|--------|--------|


C#|--------|--------|--------|--------|--------|--------|--------|--------|--------|
G#|--------|--------|--------|--------|--------|--------|--------|--------|--------|
 E|--------|--------|--------|--------|--------|--------|--------|--------|--------|
 B|--------|--------|--------|--------|--------|--------|--------|--------|--------|
F#|--------|--------|--------|--------|--------|--------|--------|--------|--------|
 B|--------|--------|--------|--------|--------|--------|--------|--------|--------|


C#|------------|--------|------------|--------|------------|--------|------------|
G#|------------|--------|------------|--------|------------|--------|------------|
 E|------------|--------|------------|--------|------------|--------|------------|
 B|-0---2------|-2------|-0---2------|-2------|-0---2------|-2------|-0---2------|
F#|-0---2------|-2------|-0---2------|-2------|-0---2------|-2------|-0---2------|
 B|-0---2------|-2------|-0---2------|-2------|-0---2------|-2------|-0---2------|


C#|--------|------------|-----------------------|------------|-----------------------|
G#|--------|------------|-----------------------|------------|-----------------------|
 E|--------|------------|-------------------5---|------------|-------------------5---|
 B|-2------|-0---2------|-2-----2---5---5-------|-0---2------|-2-----2---5---5-------|
F#|-2------|-0---2------|-2-----2---------------|-0---2------|-2-----2---------------|
 B|-2------|-0---2------|-2-----2---------------|-0---2------|-2-----2---------------|


C#|------------|-----------------------|------------|-----------------------|---------------------------------------------|
G#|------------|-----------------------|------------|-----------------------|---------------------------------------------|
 E|------------|-------------------5---|------------|-------------------5---|---------------------------------------------|
 B|-0---2------|-2-----2---5---5-------|-0---2------|-2-----2---5---5-------|---------------------------------------------|
F#|-0---2------|-2-----2---------------|-0---2------|-2-----2---------------|---------------------------------------------|
 B|-0---2------|-2-----2---------------|-0---2------|-2-----2---------------|-2--2--2--2------2--2--2--2------2--2--2--2--|


C#|---------------------------------------------|---------------------------------------------|
G#|---------------------------------------------|---------------------------------------------|
 E|---------------------------------------------|---------------------------------------------|
 B|---------------------------------------------|---------------------------------------------|
F#|---------------------------------------------|---------------------------------------------|
 B|-----2--2--2--2------2--2--2--2--2--2--2--2--|-2--2--2--2------2--2--2--2------2--2--2--2--|


C#|---------------------------------------------|---------------------------------------------|
G#|---------------------------------------------|---------------------------------------------|
 E|---------------------------------------------|---------------------------------------------|
 B|---------------------------------------------|---------------------------------------------|
F#|---------------------------------------------|---------------------------------------------|
 B|-----2--2--2--2------2--2--2--2--2--2--2--2--|-2--2--2--2------2--2--2--2------2--2--2--2--|


C#|---------------------------------------------|---------------------------------------------|
G#|---------------------------------------------|---------------------------------------------|
 E|---------------------------------------------|---------------------------------------------|
 B|---------------------------------------------|---------------------------------------------|
F#|---------------------------------------------|---------------------------------------------|
 B|-----2--2--2--2------2--2--2--2--2--2--2--2--|-2--2--2--2------2--2--2--2------2--2--2--2--|


C#|---------------------------|-------------------------------------------------|------------------------------------------|
G#|---------------------------|-------------------------------------------------|------------------------------------------|
 E|---------------------------|-------------------------------------------------|------------------------------------------|
 B|---------------------------|-2--0--------------------------------------------|-2--0-------------------------------------|
F#|---------------------------|-------------------5--3--------------------------|-------------------5--3--------------3----|
 B|-----2--2--2--2------------|-------2--2--2--2--------2--2--2--2--5--2--2--2--|-------2--2--2--2--------2--2--2--2-------|


C#|-------------------------------------------------|-------------------------------------------------|
G#|-------------------------------------------------|-------------------------------------------------|
 E|-------------------------------------------------|-------------------------------------7--7--4--4--|
 B|-2--0--------------------------------------------|-3--3--3-----------6--6--6--3--3--3--------------|
F#|-------------------5--3--------------------------|----------5--5--5--------------------------------|
 B|-------2--2--2--2--------2--2--2--2--5--2--2--2--|-------------------------------------------------|


C#|-------------------------------------------------|------------------------------------------|
G#|-------------------------------------------------|------------------------------------------|
 E|-------------------------------------------------|------------------------------------------|
 B|-2--0--------------------------------------------|-2--0-------------------------------------|
F#|-------------------5--3--------------------------|-------------------5--3--------------3----|
 B|-------2--2--2--2--------2--2--2--2--5--2--2--2--|-------2--2--2--2--------2--2--2--2-------|


C#|-------------------------------------------------|-------------------------------------------------|
G#|-------------------------------------------------|-------------------------------------------------|
 E|-------------------------------------------------|-------------------------------------7--7--4--4--|
 B|-2--0--------------------------------------------|-3--3--3-----------6--6--6--3--3--3--------------|
F#|-------------------5--3--------------------------|----------5--5--5--------------------------------|
 B|-------2--2--2--2--------2--2--2--2--5--2--2--2--|-------------------------------------------------|


C#|-------------------------------------------------|------------------------------------------|
G#|-------------------------------------------------|------------------------------------------|
 E|-------------------------------------------------|------------------------------------------|
 B|-2--0--------------------------------------------|-2--0-------------------------------------|
F#|-------------------5--3--------------------------|-------------------5--3--------------3----|
 B|-------2--2--2--2--------2--2--2--2--5--2--2--2--|-------2--2--2--2--------2--2--2--2-------|


C#|-------------------------------------------------|-------------------------------------------------|
G#|-------------------------------------------------|-------------------------------------------------|
 E|-------------------------------------------------|-------------------------------------7--7--4--4--|
 B|-2--0--------------------------------------------|-3--3--3-----------6--6--6--3--3--3--------------|
F#|-------------------5--3--------------------------|----------5--5--5--------------------------------|
 B|-------2--2--2--2--------2--2--2--2--5--2--2--2--|-------------------------------------------------|


C#|-------------------------------------------------|------------------------------------------|
G#|-------------------------------------------------|------------------------------------------|
 E|-------------------------------------------------|------------------------------------------|
 B|-2--0--------------------------------------------|-2--0-------------------------------------|
F#|-------------------5--3--------------------------|-------------------5--3--------------3----|
 B|-------2--2--2--2--------2--2--2--2--5--2--2--2--|-------2--2--2--2--------2--2--2--2-------|


C#|-------------------------------------------------|-------------------------------------------------|
G#|-------------------------------------------------|-------------------------------------------------|
 E|-------------------------------------------------|-------------------------------------7--7--4--4--|
 B|-2--0--------------------------------------------|-3--3--3-----------6--6--6--3--3--3--------------|
F#|-------------------5--3--------------------------|----------5--5--5--------------------------------|
 B|-------2--2--2--2--------2--2--2--2--5--2--2--2--|-------------------------------------------------|


C#|-------------------------------------------|-------------------------------------------|
G#|-------------------------------------------|-------------------------------------------|
 E|-------------------------------------------|-------------------------------------------|
 B|-14-12--12-12-12-14-12--12-12-12-14-12-12--|-12-10--10-10-10-12-10--10-10-10-12-10-10--|
F#|-14-12--12-12-12-14-12--12-12-12-14-12-12--|-12-10--10-10-10-12-10--10-10-10-12-10-10--|
 B|-14-12--12-12-12-14-12--12-12-12-14-12-12--|-12-10--10-10-10-12-10--10-10-10-12-10-10--|


C#|-------------------------------------------------|------------------------------------------|
G#|-------------------------------------------------|------------------------------------------|
 E|-------------------------------------------------|------------------------------------------|
 B|-2--0--------------------------------------------|-2--0-------------------------------------|
F#|-------------------5--3--------------------------|-------------------5--3--------------3----|
 B|-------2--2--2--2--------2--2--2--2--5--2--2--2--|-------2--2--2--2--------2--2--2--2-------|


C#|-------------------------------------------------|-------------------------------------------------|
G#|-------------------------------------------------|-------------------------------------------------|
 E|-------------------------------------------------|-------------------------------------7--7--4--4--|
 B|-2--0--------------------------------------------|-3--3--3-----------6--6--6--3--3--3--------------|
F#|-------------------5--3--------------------------|----------5--5--5--------------------------------|
 B|-------2--2--2--2--------2--2--2--2--5--2--2--2--|-------------------------------------------------|


C#|-------------------------------------------|-------------------------------------------|
G#|-------------------------------------------|-------------------------------------------|
 E|-------------------------------------------|-------------------------------------------|
 B|-14-12--12-12-12-14-12--12-12-12-14-12-12--|-12-10--10-10-10-12-10--10-10-10-12-10-10--|
F#|-14-12--12-12-12-14-12--12-12-12-14-12-12--|-12-10--10-10-10-12-10--10-10-10-12-10-10--|
 B|-14-12--12-12-12-14-12--12-12-12-14-12-12--|-12-10--10-10-10-12-10--10-10-10-12-10-10--|


C#|------------|------------|------------|---------------------------------|---------------------------------|
G#|------------|------------|------------|---------------------------------|---------------------------------|
 E|------------|------------|------------|---------------------------------|---------5---------------5-------|
 B|-0---2------|-3---2------|-0---2------|-3---3---3---3---3---3---3---3---|-0---2-------2---3---2-------2---|
F#|-0---2------|-3---2------|-0---2------|-3---3---3---3---3---3---3---3---|-0---2-------2---3---2-------2---|
 B|-0---2------|-3---2------|-0---2------|-3---3---3---3---3---3---3---3---|-0---2-------2---3---2-------2---|


C#|---------------------------------|---------------------------------|---------------------------------|
G#|---------------------------------|---------------------------------|---------------------------------|
 E|---------5---------------5-------|---------5---------------5-------|---------------------------------|
 B|-0---2-------2---3---2-------2---|-0---2-------2---3---2-------2---|-2---8---8---5---5---6---6---3---|
F#|-0---2-------2---3---2-------2---|-0---2-------2---3---2-------2---|-2-------7---4---4-------5---2---|
 B|-0---2-------2---3---2-------2---|-0---2-------2---3---2-------2---|-2---8---8---5---5---6---6---3---|


C#|---------------------------------|---------------------------------|---------------------------------|
G#|---------------------------------|---------------------------------|---------------------------------|
 E|---------5---------------5-------|---------5---------------5-------|---------5---------------5-------|
 B|-0---2-------2---3---2-------2---|-0---2-------2---3---2-------2---|-0---2-------2---3---2-------2---|
F#|-0---2-------2---3---2-------2---|-0---2-------2---3---2-------2---|-0---2-------2---3---2-------2---|
 B|-0---2-------2---3---2-------2---|-0---2-------2---3---2-------2---|-0---2-------2---3---2-------2---|


C#|---------------------------------|---------------------------------------------|
G#|---------------------------------|---------------------------------------------|
 E|---------------------------------|---------------------------------------------|
 B|-2---8---8---5---5---6---6---3---|---------------------------------------------|
F#|-2-------7---4---4-------5---2---|---------------------------------------------|
 B|-2---8---8---5---5---6---6---3---|-2--2--2--2------2--2--2--2------2--2--2--2--|


C#|---------------------------------------------|---------------------------------------------|
G#|---------------------------------------------|---------------------------------------------|
 E|---------------------------------------------|---------------------------------------------|
 B|---------------------------------------------|---------------------------------------------|
F#|---------------------------------------------|---------------------------------------------|
 B|-----2--2--2--2------2--2--2--2--2--2--2--2--|-2--2--2--2------2--2--2--2------2--2--2--2--|


C#|---------------------------|-------------------------------------------------|------------------------------------------|
G#|---------------------------|-------------------------------------------------|------------------------------------------|
 E|---------------------------|-------------------------------------------------|------------------------------------------|
 B|---------------------------|-2--0--------------------------------------------|-2--0-------------------------------------|
F#|---------------------------|-------------------5--3--------------------------|-------------------5--3--------------3----|
 B|-----2--2--2--2------------|-------2--2--2--2--------2--2--2--2--5--2--2--2--|-------2--2--2--2--------2--2--2--2-------|


C#|-------------------------------------------------|-------------------------------------------------|
G#|-------------------------------------------------|-------------------------------------------------|
 E|-------------------------------------------------|-------------------------------------7--7--4--4--|
 B|-2--0--------------------------------------------|-3--3--3-----------6--6--6--3--3--3--------------|
F#|-------------------5--3--------------------------|----------5--5--5--------------------------------|
 B|-------2--2--2--2--------2--2--2--2--5--2--2--2--|-------------------------------------------------|


C#|-------------------------------------------------|------------------------------------------|
G#|-------------------------------------------------|------------------------------------------|
 E|-------------------------------------------------|------------------------------------------|
 B|-2--0--------------------------------------------|-2--0-------------------------------------|
F#|-------------------5--3--------------------------|-------------------5--3--------------3----|
 B|-------2--2--2--2--------2--2--2--2--5--2--2--2--|-------2--2--2--2--------2--2--2--2-------|


C#|-------------------------------------------------|-------------------------------------------------|
G#|-------------------------------------------------|-------------------------------------------------|
 E|-------------------------------------------------|-------------------------------------7--7--4--4--|
 B|-2--0--------------------------------------------|-3--3--3-----------6--6--6--3--3--3--------------|
F#|-------------------5--3--------------------------|----------5--5--5--------------------------------|
 B|-------2--2--2--2--------2--2--2--2--5--2--2--2--|-------------------------------------------------|


C#|-------------------------------------------|-------------------------------------------|
G#|-------------------------------------------|-------------------------------------------|
 E|-------------------------------------------|-------------------------------------------|
 B|-14-12--12-12-12-14-12--12-12-12-14-12-12--|-12-10--10-10-10-12-10--10-10-10-12-10-10--|
F#|-14-12--12-12-12-14-12--12-12-12-14-12-12--|-12-10--10-10-10-12-10--10-10-10-12-10-10--|
 B|-14-12--12-12-12-14-12--12-12-12-14-12-12--|-12-10--10-10-10-12-10--10-10-10-12-10-10--|


C#|-------------------------------------------------|------------------------------------------|
G#|-------------------------------------------------|------------------------------------------|
 E|-------------------------------------------------|------------------------------------------|
 B|-2--0--------------------------------------------|-2--0-------------------------------------|
F#|-------------------5--3--------------------------|-------------------5--3--------------3----|
 B|-------2--2--2--2--------2--2--2--2--5--2--2--2--|-------2--2--2--2--------2--2--2--2-------|


C#|-------------------------------------------------|-------------------------------------------------|
G#|-------------------------------------------------|-------------------------------------------------|
 E|-------------------------------------------------|-------------------------------------7--7--4--4--|
 B|-2--0--------------------------------------------|-3--3--3-----------6--6--6--3--3--3--------------|
F#|-------------------5--3--------------------------|----------5--5--5--------------------------------|
 B|-------2--2--2--2--------2--2--2--2--5--2--2--2--|-------------------------------------------------|


C#|-------------------------------------------|-------------------------------------------|
G#|-------------------------------------------|-------------------------------------------|
 E|-------------------------------------------|-------------------------------------------|
 B|-14-12--12-12-12-14-12--12-12-12-14-12-12--|-12-10--10-10-10-12-10--10-10-10-12-10-10--|
F#|-14-12--12-12-12-14-12--12-12-12-14-12-12--|-12-10--10-10-10-12-10--10-10-10-12-10-10--|
 B|-14-12--12-12-12-14-12--12-12-12-14-12-12--|-12-10--10-10-10-12-10--10-10-10-12-10-10--|


C#|------------|------------|------------|---------------------------------|---------------------------------|
G#|------------|------------|------------|---------------------------------|---------------------------------|
 E|------------|------------|------------|---------------------7---7---7---|---------5---------------5-------|
 B|-0---2------|-3---2------|-0---2------|-3---3---3---3---3---------------|-0---2-------2---3---2-------2---|
F#|-0---2------|-3---2------|-0---2------|-3---3---3---3---3---------------|-0---2-------2---3---2-------2---|
 B|-0---2------|-3---2------|-0---2------|-3---3---3---3---3---------------|-0---2-------2---3---2-------2---|


C#|---------------------------------|---------------------------------|---------------------------------|
G#|---------------------------------|---------------------------------|---------------------------------|
 E|---------5---------------5-------|---------5---------------5-------|---------------------------------|
 B|-0---2-------2---3---2-------2---|-0---2-------2---3---2-------2---|-2---8---8---5---5---6---6---3---|
F#|-0---2-------2---3---2-------2---|-0---2-------2---3---2-------2---|-2-------7---4---4-------5---2---|
 B|-0---2-------2---3---2-------2---|-0---2-------2---3---2-------2---|-2---8---8---5---5---6---6---3---|


C#|---------------------------------|---------------------------------|---------------------------------|
G#|---------------------------------|---------------------------------|---------------------------------|
 E|---------5---------------5-------|---------5---------------5-------|---------5---------------5-------|
 B|-0---2-------2---3---2-------2---|-0---2-------2---3---2-------2---|-0---2-------2---3---2-------2---|
F#|-0---2-------2---3---2-------2---|-0---2-------2---3---2-------2---|-0---2-------2---3---2-------2---|
 B|-0---2-------2---3---2-------2---|-0---2-------2---3---2-------2---|-0---2-------2---3---2-------2---|


C#|---------------------------------|-------------|----------------|--------|--------|
G#|---------------------------------|-------------|----------------|--------|--------|
 E|---------------------------------|-------------|----------------|-5------|-5------|
 B|-2---8---8---5---5---6---6---3---|-------------|----------------|-7------|-7------|
F#|-2-------7---4---4-------5---2---|-------------|----------------|--------|--------|
 B|-2---8---8---5---5---6---6---3---|-0-----0-----|-0------0---0---|--------|--------|


C#|-----------------------|-----------------------|-----------------------|-------------------------------|
G#|-----------------------|-----------------------|-----------------------|-------------------------------|
 E|-----------------------|-----------------------|-----------------------|-------------------------------|
 B|-0-----1-----------1---|-0-----1-----------1---|-0-----1-----------1---|-6----3----4----1----4----3----|
F#|-0-----1-------1---1---|-0-----1-------1---1---|-0-----1-------1---1---|-6----3----4----1----4----3----|
 B|-0-----1-------1---1---|-0-----1-------1---1---|-0-----1-------1---1---|-6----3----4----1----4----3----|


C#|-----------------------|-----------------------|-----------------------|-------------------------------|
G#|-----------------------|-----------------------|-----------------------|-------------------------------|
 E|-----------------------|-----------------------|-----------------------|-------------------------------|
 B|-0-----1-----------1---|-0-----1-----------1---|-0-----1-----------1---|-6----3----4----1----4----3----|
F#|-0-----1-------1---1---|-0-----1-------1---1---|-0-----1-------1---1---|-6----3----4----1----4----3----|
 B|-0-----1-------1---1---|-0-----1-------1---1---|-0-----1-------1---1---|-6----3----4----1----4----3----|


C#|---------------------------------------------|---------------------------------------------|
G#|---------------------------------------------|---------------------------------------------|
 E|---------------------------------------------|---------------------------------------------|
 B|---------------------------------------------|---------------------------------------------|
F#|---------------------------------------------|---------------------------------------------|
 B|-0-0-0--0---0-0-0--0---0-0-0--0---0-0-0--0---|-0-0-0--0---0-0-0--0---3-3-3--3---4-4-4--4---|


C#|---------------------------------------------|-------------------------------|---------------------------------------------|
G#|---------------------------------------------|-------------------------------|---------------------------------------------|
 E|---------------------------------------------|-------------------------------|---------------------------------------------|
 B|---------------------------------------------|-6----3----4----1----4----3----|---------------------------------------------|
F#|---------------------------------------------|-6----3----4----1----4----3----|---------------------------------------------|
 B|-0-0-0--0---0-0-0--0---0-0-0--0---0-0-0--0---|-6----3----4----1----4----3----|-0-0-0--0---0-0-0--0---0-0-0--0---0-0-0--0---|


C#|---------------------------------------------|---------------------------------------------|
G#|---------------------------------------------|---------------------------------------------|
 E|---------------------------------------------|---------------------------------------------|
 B|---------------------------------------------|---------------------------------------------|
F#|---------------------------------------------|---------------------------------------------|
 B|-0-0-0--0---0-0-0--0---3-3-3--3---4-4-4--4---|-0-0-0--0---0-0-0--0---0-0-0--0---0-0-0--0---|


C#|-------------------------------|--------------------|--------------------|--------------------|
G#|-------------------------------|--------------------|--------------------|--------------------|
 E|-------------------------------|-------8------------|-------8------------|-------8------------|
 B|-6----3----4----1----4----3----|-0-----8--------1---|-0-----8--------1---|-0-----8--------1---|
F#|-6----3----4----1----4----3----|-0-----6----1---1---|-0-----6----1---1---|-0-----6----1---1---|
 B|-6----3----4----1----4----3----|-0----------1---1---|-0----------1---1---|-0----------1---1---|


C#|-------------------------------|--------------------|--------------------|--------------------|
G#|-------------------------------|--------------------|--------------------|--------------------|
 E|-------------------------------|-------10-----------|-------10-----------|-------10-----------|
 B|-6----3----4----1----4----3----|-0-----10-------1---|-0-----10-------1---|-0-----10-------1---|
F#|-6----3----4----1----4----3----|-0-----8----1---1---|-0-----8----1---1---|-0-----8----1---1---|
 B|-6----3----4----1----4----3----|-0----------1---1---|-0----------1---1---|-0----------1---1---|


C#|-------------------------------|--------|--------|--------------|-------------------------|
G#|-------------------------------|--------|--------|--------------|-------------------------|
 E|-------------------------------|--------|--------|-----------7--|-9-----9--9--11----11-11-|
 B|-6----3----4----1----4----3----|-2------|-2------|-2------2--7--|----------9-----------11-|
F#|-6----3----4----1----4----3----|-2------|-2------|-2------2--5--|-7-----7--7--9-----9--9--|
 B|-6----3----4----1----4----3----|-2------|-2------|-2------2-----|-------------------------|


C#|-------------------|------------------|--------|--------|-------------|-----------------------------------------------|
G#|-------------------|------------------|--------|--------|-------------|-----------------------------------------------|
 E|-12----12-12-14----|------------------|--------|--------|-------------|-------------------------5-----4---------------|
 B|----------12-------|-2--2-------------|--------|-7------|-10-----10---|-------2-----------------------------4-----5---|
F#|-10----10-10-12----|-2--2-------------|--------|-7------|-10-----10---|----------------5------------------------------|
 B|-------------------|-2--2-------------|--------|-7------|-10-----10---|-2--2-----2--2-----2--2-----2-----2-----2------|


C#|-----------------------------------------------|-------------------------------------------------|
G#|-----------------------------------------------|-------------------------------------------------|
 E|-------------------------5-----4---------------|-------------------------4-----2-----------------|
 B|-------2-----------------------------4-----5---|-------5--------4--------------------5-----4--0--|
F#|----------------5------------------------------|-0--0-----0--0-----0--0-----0-----0-----0--------|
 B|-2--2-----2--2-----2--2-----2-----2-----2------|-------------------------------------------------|


C#|-------------------------------------------------|-----------------------------------------------|
G#|-------------------------5--3--------3-----------|-----------------------------------------------|
 E|-------------------------------5--4-----5--4--2--|-------------------------5-----4---------------|
 B|-------5--------4--------------------------------|-------2-----------------------------4-----5---|
F#|-3--3-----3--3-----3--3--------------------------|----------------5------------------------------|
 B|-------------------------------------------------|-2--2-----2--2-----2--2-----2-----2-----2------|


C#|-----------------------------------------------|-------------------------------------------------|
G#|-----------------------------------------------|-------------------------------------------------|
 E|-------------------------5-----4---------------|-------------------------4-----2-----------------|
 B|-------2-----------------------------4-----5---|-------5--------4--------------------5-----4--0--|
F#|----------------5------------------------------|-0--0-----0--0-----0--0-----0-----0-----0--------|
 B|-2--2-----2--2-----2--2-----2-----2-----2------|-------------------------------------------------|


C#|-------------------------------------------------|-----------------------------------------------|
G#|-------------------------5--3--------3-----------|-----------------------------------------------|
 E|-------------------------------5--4-----5--4--2--|-------------------------5-----4---------------|
 B|-------5--------4--------------------------------|-------2-----------------------------4-----5---|
F#|-3--3-----3--3-----3--3--------------------------|----------------5------------------------------|
 B|-------------------------------------------------|-2--2-----2--2-----2--2-----2-----2-----2------|


C#|-----------------------------------------------|-------------------------------------------------|
G#|-----------------------------------------------|-------------------------------------------------|
 E|-------------------------5-----4---------------|-------------------------4-----2-----------------|
 B|-------2-----------------------------4-----5---|-------5--------4--------------------5-----4--0--|
F#|----------------5------------------------------|-0--0-----0--0-----0--0-----0-----0-----0--------|
 B|-2--2-----2--2-----2--2-----2-----2-----2------|-------------------------------------------------|


C#|-------------------------------------------------|-------------------------------------------------|
G#|-------------------------5--3--------3-----------|-------------------------------------------------|
 E|-------------------------------5--4-----5--4--2--|-5--4--2--0--4--2--------2--0--------------------|
 B|-------5--------4--------------------------------|-------------------5--4--------4--2--5--4--2--0--|
F#|-3--3-----3--3-----3--3--------------------------|-------------------------------------------------|
 B|-------------------------------------------------|-------------------------------------------------|


C#|-----------------------------------------------------|--------------------------------------------------|
G#|-----------------------------------------------------|--------------------------------------------------|
 E|-----------------------------------------------------|--------------------------3---3---3---------------|
 B|-0--2----------------------0--2----------------------|-0--2---------------------3---3---3---1---1---1---|
F#|-0--2---0------------------0--2---0------------------|-0--2---0-----------------1---1---1---1---1---1---|
 B|-0--2---0--2-2-2-2-2-2-2-2-0--2---0--2-2-2-2-2-2-2-2-|-0--2---0--2-2-2-2-2-2-2--------------1---1---1---|


C#|-----------------------------------------------------|--------------------------------------------------|
G#|-----------------------------------------------------|--------------------------------------------------|
 E|-----------------------------------------------------|--------------------------3---3---3---------------|
 B|-0--2----------------------0--2----------------------|-0--2---------------------3---3---3---1---1---1---|
F#|-0--2---0------------------0--2---0------------------|-0--2---0-----------------1---1---1---1---1---1---|
 B|-0--2---0--2-2-2-2-2-2-2-2-0--2---0--2-2-2-2-2-2-2-2-|-0--2---0--2-2-2-2-2-2-2--------------1---1---1---|


C#|-----------------------------------------------------|--------------------------------------------------|
G#|-----------------------------------------------------|--------------------------------------------------|
 E|-----------------------------------------------------|--------------------------3---3---3---------------|
 B|-0--2----------------------0--2----------------------|-0--2---------------------3---3---3---1---1---1---|
F#|-0--2---0------------------0--2---0------------------|-0--2---0-----------------1---1---1---1---1---1---|
 B|-0--2---0--2-2-2-2-2-2-2-2-0--2---0--2-2-2-2-2-2-2-2-|-0--2---0--2-2-2-2-2-2-2--------------1---1---1---|


C#|-----------------------------------------------------|-----------------------------------------|
G#|-----------------------------------------------------|-----------------------------------------|
 E|-----------------------------------------------------|--------------------------3----3----3----|
 B|-0--2----------------------0--2----------------------|-0--2---------------------3----3----3----|
F#|-0--2---0------------------0--2---0------------------|-0--2---0-----------------1----1----1----|
 B|-0--2---0--2-2-2-2-2-2-2-2-0--2---0--2-2-2-2-2-2-2-2-|-0--2---0--2-2-2-2-2-2-2-----------------|


C#|-----------------------------|--------------------------------------|--------------------------------------|
G#|-----------------------------|--------------------------------------|--------------------------------------|
 E|-----------------------------|--------------------------------------|--------------------------------------|
 B|-1----1----1-----------------|--------------------------------------|--------------------------------------|
F#|-1----1----1----0---2----0---|-2--2--2--2--2--2--2--2--0---2----0---|-2--2--2--2--2--2--2--2--0---2----0---|
 B|-1----1----1----0---2----0---|-2--2--2--2--2--2--2--2--0---2----0---|-2--2--2--2--2--2--2--2--0---2----0---|


C#|----------------------------------------|-----------------------------|--------------------------------------|
G#|----------------------------------------|-----------------------------|--------------------------------------|
 E|-------------------------3----3----3----|-----------------------------|--------------------------------------|
 B|-------------------------3----3----3----|-1----1----1-----------------|--------------------------------------|
F#|-2--2--2--2--2--2--2--2--1----1----1----|-1----1----1----0---2----0---|-2--2--2--2--2--2--2--2--0---2----0---|
 B|-2--2--2--2--2--2--2--2-----------------|-1----1----1----0---2----0---|-2--2--2--2--2--2--2--2--0---2----0---|


C#|--------------------------------------|----------------------------------------|
G#|--------------------------------------|----------------------------------------|
 E|--------------------------------------|-------------------------3----3----3----|
 B|--------------------------------------|-------------------------3----3----3----|
F#|-2--2--2--2--2--2--2--2--0---2----0---|-2--2--2--2--2--2--2--2--1----1----1----|
 B|-2--2--2--2--2--2--2--2--0---2----0---|-2--2--2--2--2--2--2--2-----------------|


C#|--------------------------|-------------|---------------------------|-------------|
G#|--------------------------|-------------|---------------------------|-------------|
 E|--------------------------|-------------|-------------5-------------|-------------|
 B|-1----1----1--------2-----|-------2-----|-2---5---5-------0---2-----|-------2-----|
F#|-1----1----1----0---2-----|-------2-----|-2---------------0---2-----|-------2-----|
 B|-1----1----1----0---2-----|-------2-----|-2---------------0---2-----|-------2-----|


C#|---------------------------|-------------|---------------------------|-------------|
G#|---------------------------|-------------|---------------------------|-------------|
 E|-------------5-------------|-------------|-------------5-------------|-------------|
 B|-2---5---5-------0---2-----|-------2-----|-2---5---5-------0---2-----|-------2-----|
F#|-2---------------0---2-----|-------2-----|-2---------------0---2-----|-------2-----|
 B|-2---------------0---2-----|-------2-----|-2---------------0---2-----|-------2-----|


C#|-----------------------|-------------|
G#|-----------------------|-------------|
 E|-------------5---5-----|-------5-----|
 B|-2---5---5-------------|-------------|
F#|-2---------------------|-------------|
 B|-2---------------------|-------------|





Track 4: Dirty II

C#|--------|--------|--------|--------|--------|--------|--------|--------|--------|
G#|--------|--------|--------|--------|--------|--------|--------|--------|--------|
 E|--------|--------|--------|--------|--------|--------|--------|--------|--------|
 B|--------|--------|--------|--------|--------|--------|--------|--------|--------|
F#|--------|--------|--------|--------|--------|--------|--------|--------|--------|
 B|--------|--------|--------|--------|--------|--------|--------|--------|--------|


C#|--------|--------|--------|--------|--------|--------|--------|--------|--------|
G#|--------|--------|--------|--------|--------|--------|--------|--------|--------|
 E|--------|--------|--------|--------|--------|--------|--------|--------|--------|
 B|--------|--------|--------|--------|--------|--------|--------|--------|--------|
F#|--------|--------|--------|--------|--------|--------|--------|--------|--------|
 B|--------|--------|--------|--------|--------|--------|--------|--------|--------|


C#|---------------------------|---------------------------------|---------------------------|
G#|-----------2---13--13--13--|-13--11--11--11--11--------------|-----------2---13--13--13--|
 E|-----------2---12--12--12--|-12--10--10--10--10----------5---|-----------2---12--12--12--|
 B|-0---2-----2---10--10--10--|-10--8---8---8---8---5---5-------|-0---2-----2---10--10--10--|
F#|-0---2---------------------|---------------------------------|-0---2---------------------|
 B|-0---2---------------------|---------------------------------|-0---2---------------------|


C#|---------------------------------|---------------------------|---------------------------------|
G#|-13--11--11--11--11--------------|-----------2---13--13--13--|-13--11--11--11--11--------------|
 E|-12--10--10--10--10----------5---|-----------2---12--12--12--|-12--10--10--10--10----------5---|
 B|-10--8---8---8---8---5---5-------|-0---2-----2---10--10--10--|-10--8---8---8---8---5---5-------|
F#|---------------------------------|-0---2---------------------|---------------------------------|
 B|---------------------------------|-0---2---------------------|---------------------------------|


C#|---------------------------|---------------------------------|---------------------------|
G#|-----------2---13--13--13--|-13--11--11--11--11--------------|-----------2---13--13--13--|
 E|-----------2---12--12--12--|-12--10--10--10--10----------5---|-----------2---12--12--12--|
 B|-0---2-----2---10--10--10--|-10--8---8---8---8---5---5-------|-0---2-----2---10--10--10--|
F#|-0---2---------------------|---------------------------------|-0---2---------------------|
 B|-0---2---------------------|---------------------------------|-0---2---------------------|


C#|---------------------------------|---------------------------|---------------------------------|
G#|-13--11--11--11--11--------------|-----------2---13--13--13--|-13--11--11--11--11--------------|
 E|-12--10--10--10--10----------5---|-----------2---12--12--12--|-12--10--10--10--10----------5---|
 B|-10--8---8---8---8---5---5-------|-0---2-----2---10--10--10--|-10--8---8---8---8---5---5-------|
F#|---------------------------------|-0---2---------------------|---------------------------------|
 B|---------------------------------|-0---2---------------------|---------------------------------|


C#|---------------------------|---------------------------------|---------------------------|
G#|-----------2---13--13--13--|-13--11--11--11--11--------------|-----------2---13--13--13--|
 E|-----------2---12--12--12--|-12--10--10--10--10----------5---|-----------2---12--12--12--|
 B|-0---2-----2---10--10--10--|-10--8---8---8---8---5---5-------|-0---2-----2---10--10--10--|
F#|-0---2---------------------|---------------------------------|-0---2---------------------|
 B|-0---2---------------------|---------------------------------|-0---2---------------------|


C#|---------------------------------|--------|--------|--------|--------|--------|
G#|-13--11--11--11--11--------------|--------|--------|--------|--------|--------|
 E|-12--10--10--10--10----------5---|--------|--------|--------|--------|--------|
 B|-10--8---8---8---8---5---5-------|--------|--------|--------|--------|--------|
F#|---------------------------------|--------|--------|--------|--------|--------|
 B|---------------------------------|--------|--------|--------|--------|--------|


C#|--------|--------|--------|--------|--------|--------|--------|--------|--------|
G#|--------|--------|--------|--------|--------|--------|--------|--------|--------|
 E|--------|--------|--------|--------|--------|--------|--------|--------|--------|
 B|--------|--------|--------|--------|--------|--------|--------|--------|--------|
F#|--------|--------|--------|--------|--------|--------|--------|--------|--------|
 B|--------|--------|--------|--------|--------|--------|--------|--------|--------|


C#|--------|--------|--------|--------|--------|--------|--------|--------|--------|
G#|--------|--------|--------|--------|--------|--------|--------|--------|--------|
 E|--------|--------|--------|--------|--------|--------|--------|--------|--------|
 B|--------|--------|--------|--------|--------|--------|--------|--------|--------|
F#|--------|--------|--------|--------|--------|--------|--------|--------|--------|
 B|--------|--------|--------|--------|--------|--------|--------|--------|--------|


C#|--------|--------|--------|--------|--------|--------|--------|--------|--------|
G#|--------|--------|--------|--------|--------|--------|--------|--------|--------|
 E|--------|--------|--------|--------|--------|--------|--------|--------|--------|
 B|--------|--------|--------|--------|--------|--------|--------|--------|--------|
F#|--------|--------|--------|--------|--------|--------|--------|--------|--------|
 B|--------|--------|--------|--------|--------|--------|--------|--------|--------|


C#|------------|------------|------------|---------------------------------|--------|
G#|------------|------------|------------|---------------------------------|--------|
 E|------------|------------|------------|---------------------------------|--------|
 B|-0---2------|-3---2------|-0---2------|-3---3---3---3-------------------|--------|
F#|-0---2------|-3---2------|-0---2------|-3---3---3---3-------------------|--------|
 B|-0---2------|-3---2------|-0---2------|-3---3---3---3---5---4---3---2---|--------|


C#|--------|--------|--------|--------|--------|--------|--------|--------|--------|
G#|--------|--------|--------|--------|--------|--------|--------|--------|--------|
 E|--------|--------|--------|--------|--------|--------|--------|--------|--------|
 B|--------|--------|--------|--------|--------|--------|--------|--------|--------|
F#|--------|--------|--------|--------|--------|--------|--------|--------|--------|
 B|--------|--------|--------|--------|--------|--------|--------|--------|--------|


C#|--------|--------|--------|--------|--------|--------|--------|--------|--------|
G#|--------|--------|--------|--------|--------|--------|--------|--------|--------|
 E|--------|--------|--------|--------|--------|--------|--------|--------|--------|
 B|--------|--------|--------|--------|--------|--------|--------|--------|--------|
F#|--------|--------|--------|--------|--------|--------|--------|--------|--------|
 B|--------|--------|--------|--------|--------|--------|--------|--------|--------|


C#|--------|--------|--------|--------|--------|--------|--------|--------|--------|
G#|--------|--------|--------|--------|--------|--------|--------|--------|--------|
 E|--------|--------|--------|--------|--------|--------|--------|--------|--------|
 B|--------|--------|--------|--------|--------|--------|--------|--------|--------|
F#|--------|--------|--------|--------|--------|--------|--------|--------|--------|
 B|--------|--------|--------|--------|--------|--------|--------|--------|--------|


C#|------------|------------|------------|---------------------------------|--------|
G#|------------|------------|------------|---------------------------------|--------|
 E|------------|------------|------------|---------------------------------|--------|
 B|-0---2------|-3---2------|-0---2------|-3---3---3---3---3---3---3---3---|--------|
F#|-0---2------|-3---2------|-0---2------|-3---3---3---3---3---3---3---3---|--------|
 B|-0---2------|-3---2------|-0---2------|-3---3---3---3---3---3---3---3---|--------|


C#|--------|--------|--------|--------|--------|--------|--------|--------|--------|
G#|--------|--------|--------|--------|--------|--------|--------|--------|--------|
 E|--------|--------|--------|--------|--------|--------|--------|--------|--------|
 B|--------|--------|--------|--------|--------|--------|--------|-0------|-0------|
F#|--------|--------|--------|--------|--------|--------|--------|-0------|-0------|
 B|--------|--------|--------|--------|--------|--------|--------|-0------|-0------|


C#|-------------|---------------------------------|--------|--------|--------|--------|
G#|-------------|---------------------------------|--------|--------|--------|--------|
 E|-------------|---------------------------------|--------|--------|--------|--------|
 B|-0-----7-----|-12--11--10--9---8---7---6---5---|--------|--------|--------|--------|
F#|-0-----7-----|-12--11--10--9---8---7---6---5---|--------|--------|--------|--------|
 B|-0-----7-----|-12--11--10--9---8---7---6---5---|--------|--------|--------|--------|


C#|--------|--------|--------|--------|--------|--------|--------|--------|--------|
G#|--------|--------|--------|--------|--------|--------|--------|--------|--------|
 E|--------|--------|--------|--------|--------|--------|--------|--------|--------|
 B|--------|--------|--------|--------|--------|--------|--------|--------|--------|
F#|--------|--------|--------|--------|--------|--------|--------|--------|--------|
 B|--------|--------|--------|--------|--------|--------|--------|--------|--------|


C#|--------|--------|--------|--------|--------|--------|--------|--------------------|
G#|--------|--------|--------|--------|--------|--------|--------|--------------------|
 E|--------|--------|--------|--------|--------|--------|--------|-------8------------|
 B|--------|--------|--------|--------|--------|--------|--------|-0-----8--------1---|
F#|--------|--------|--------|--------|--------|--------|--------|-0-----6----1---1---|
 B|--------|--------|--------|--------|--------|--------|--------|-0----------1---1---|


C#|--------------------|--------------------|-------------------------------|--------|
G#|--------------------|--------------------|-------------------------------|--------|
 E|-------8------------|-------8------------|-------------------------------|--------|
 B|-0-----8--------1---|-0-----8--------1---|-6----3----4----1----4----3----|-2------|
F#|-0-----6----1---1---|-0-----6----1---1---|-6----3----4----1----4----3----|-2------|
 B|-0----------1---1---|-0----------1---1---|-6----3----4----1----4----3----|-2------|


C#|--------0----|-0------------|-------------------------|-------------------|-----------------------------------------------|
G#|--------0----|-0------------|-------------------------|-------------------|-----------------------------------------------|
 E|--------0----|-0---------7--|-9-----9--9--7-----7--7--|-5-----5--5--4-----|-------------------------5-----4---------------|
 B|-2------2----|-2------2-----|-------------------------|-------------------|-------2-----------------------------4-----5---|
F#|-2------2----|-2------2--5--|-7-----7--7--5-----5--5--|-3-----3--3--2-----|----------------5------------------------------|
 B|-2------2----|-2------2-----|-------------------------|-------------------|-2--2-----2--2-----2--2-----2-----2-----2------|


C#|-----------------------------------------------|-------------------------------------------------|
G#|-----------------------------------------------|-------------------------------------------------|
 E|-------------------------5-----4---------------|-------------------------4-----2-----------------|
 B|-------2-----------------------------4-----5---|-------5--------4--------------------5-----4--0--|
F#|----------------5------------------------------|-0--0-----0--0-----0--0-----0-----0-----0--------|
 B|-2--2-----2--2-----2--2-----2-----2-----2------|-------------------------------------------------|


C#|-------------------------------------------------|--------|--------|--------|--------|
G#|-------------------------5--3--------3-----------|--------|--------|--------|--------|
 E|-------------------------------5--4-----5--4--2--|--------|--------|--------|--------|
 B|-------5--------4--------------------------------|--------|--------|--------|--------|
F#|-3--3-----3--3-----3--3--------------------------|--------|--------|--------|--------|
 B|-------------------------------------------------|--------|--------|--------|--------|


C#|--------|--------|-------------------------------------------------|-------------------------3--2--0-----2--0--------|
G#|--------|--------|-------------------------------------------------|----------------------------------3--------3--1--|
 E|--------|--------|-------------------------4-----2-----------------|-------------------------------------------------|
 B|--------|--------|-------5--------4--------------------5-----4--0--|-------5--------4--------------------------------|
F#|--------|--------|-0--0-----0--0-----0--0-----0-----0-----0--------|-3--3-----3--3-----3--3--------------------------|
 B|--------|--------|-------------------------------------------------|-------------------------------------------------|


C#|--------|--------|-------------------------------------------------|-------------------------3--2--0-----2--0--------|
G#|--------|--------|-------------------------------------------------|----------------------------------3--------3--1--|
 E|--------|--------|-------------------------4-----2-----------------|-------------------------------------------------|
 B|--------|--------|-------5--------4--------------------5-----4--0--|-------5--------4--------------------------------|
F#|--------|--------|-0--0-----0--0-----0--0-----0-----0-----0--------|-3--3-----3--3-----3--3--------------------------|
 B|--------|--------|-------------------------------------------------|-------------------------------------------------|


C#|-------------------------------------------------|--------|--------|--------|--------|
G#|-5--3--------3-----------------------------------|--------|--------|--------|--------|
 E|-------5--4-----5--4--2--5--4--2--0--4--2--------|--------|--------|--------|--------|
 B|-------------------------------------------5--4--|--------|--------|--------|--------|
F#|-------------------------------------------------|--------|--------|--------|--------|
 B|-------------------------------------------------|--------|--------|--------|--------|


C#|--------|--------|--------|--------|--------|--------|--------|--------|--------|
G#|--------|--------|--------|--------|--------|--------|--------|--------|--------|
 E|--------|--------|--------|--------|--------|--------|--------|--------|--------|
 B|--------|--------|--------|--------|--------|--------|--------|--------|--------|
F#|--------|--------|--------|--------|--------|--------|--------|--------|--------|
 B|--------|--------|--------|--------|--------|--------|--------|--------|--------|


C#|--------|--------|--------|-----------------|---------------------------------|
G#|--------|--------|--------|-----------------|-2---13--13--13--13--11--11--11--|
 E|--------|--------|--------|-----------------|-2---12--12--12--12--10--10--10--|
 B|--------|--------|--------|-------0---2-----|-2---10--10--10--10--8---8---8---|
F#|--------|--------|--------|-------0---2-----|---------------------------------|
 B|--------|--------|--------|-------0---2-----|---------------------------------|


C#|---------------------------|---------------------------------|---------------------------|
G#|-11------------------------|-2---13--13--13--13--11--11--11--|-11------------------------|
 E|-10----------5-------------|-2---12--12--12--12--10--10--10--|-10----------5-------------|
 B|-8---5---5-------0---2-----|-2---10--10--10--10--8---8---8---|-8---5---5-------0---2-----|
F#|-----------------0---2-----|---------------------------------|-----------------0---2-----|
 B|-----------------0---2-----|---------------------------------|-----------------0---2-----|


C#|---------------------------------|---------------------------|---------------------------------|
G#|-2---13--13--13--13--11--11--11--|-11------------------------|-2---13--13--13--13--11--11--11--|
 E|-2---12--12--12--12--10--10--10--|-10----------5-------------|-2---12--12--12--12--10--10--10--|
 B|-2---10--10--10--10--8---8---8---|-8---5---5-------0---2-----|-2---10--10--10--10--8---8---8---|
F#|---------------------------------|-----------------0---2-----|---------------------------------|
 B|---------------------------------|-----------------0---2-----|---------------------------------|


C#|-----------------------|-------------|
G#|-11--------------------|-------------|
 E|-10----------5---5-----|-------5-----|
 B|-8---5---5-------------|-------------|
F#|-----------------------|-------------|
 B|-----------------------|-------------|





Track 5: Clean I

C#|--------|--------|--------|--------|--------|--------|--------|--------|--------|
G#|--------|--------|--------|--------|--------|--------|--------|--------|--------|
 E|--------|--------|--------|--------|--------|--------|--------|--------|--------|
 B|--------|--------|--------|--------|--------|--------|--------|--------|--------|
F#|--------|--------|--------|--------|--------|--------|--------|--------|--------|
 B|--------|--------|--------|--------|--------|--------|--------|--------|--------|


C#|--------|--------|--------|--------|--------|--------|--------|--------|--------|
G#|--------|--------|--------|--------|--------|--------|--------|--------|--------|
 E|--------|--------|--------|--------|--------|--------|--------|--------|--------|
 B|--------|--------|--------|--------|--------|--------|--------|--------|--------|
F#|--------|--------|--------|--------|--------|--------|--------|--------|--------|
 B|--------|--------|--------|--------|--------|--------|--------|--------|--------|


C#|--------|--------|--------|--------|--------|--------|--------|--------|--------|
G#|--------|--------|--------|--------|--------|--------|--------|--------|--------|
 E|--------|--------|--------|--------|--------|--------|--------|--------|--------|
 B|--------|--------|--------|--------|--------|--------|--------|--------|--------|
F#|--------|--------|--------|--------|--------|--------|--------|--------|--------|
 B|--------|--------|--------|--------|--------|--------|--------|--------|--------|


C#|--------|--------|--------|--------|--------|--------|--------|--------|--------|
G#|--------|--------|--------|--------|--------|--------|--------|--------|--------|
 E|--------|--------|--------|--------|--------|--------|--------|-5------|-5------|
 B|--------|--------|--------|--------|--------|--------|--------|--------|--------|
F#|--------|--------|--------|--------|--------|--------|--------|--------|--------|
 B|--------|--------|--------|--------|--------|--------|--------|--------|--------|


C#|-----------------|--------|-------------------------------------------------|-------------------------------------------------|
G#|-----------------|--------|-5--5--5--5--5--5--5--5--5--5--5--5--5--5--5--5--|-5--5--5--5--5--5--5--5--5--5--5--5--5--5--5--5--|
 E|-5---------------|--------|-4--4--4--4--4--4--4--4--4--4--4--4--4--4--4--4--|-4--4--4--4--4--4--4--4--4--4--4--4--4--4--4--4--|
 B|-----------------|--------|-2--2--2--2--2--2--2--2--2--2--2--2--2--2--2--2--|-2--2--2--2--2--2--2--2--2--2--2--2--2--2--2--2--|
F#|-----------------|--------|-------------------------------------------------|-------------------------------------------------|
 B|-----------------|--------|-------------------------------------------------|-------------------------------------------------|


C#|-------------------------------------------------|-----------------------------|
G#|-5--17-17-17-17-17-17-17-17-17-17-17-17-17-17-17-|-17-17-17-17-17-17-----------|
 E|-4-----15-15-15-15-15-15-15-15-15-15-15-15-15-15-|-15-15-15-15-15-15-----------|
 B|-2--14-14-14-14-14-14-14-14-14-14-14-14-14-14-14-|-14-14-14-14-14-14-----------|
F#|-------------------------------------------------|-----------------------------|
 B|-------------------------------------------------|-----------------------------|


C#|--------|--------|--------|--------|--------|--------|--------|--------|--------|
G#|--------|--------|--------|--------|--------|--------|--------|--------|--------|
 E|--------|--------|--------|--------|--------|--------|--------|--------|--------|
 B|--------|--------|--------|--------|--------|--------|--------|--------|--------|
F#|--------|--------|--------|--------|--------|--------|--------|--------|--------|
 B|--------|--------|--------|--------|--------|--------|--------|--------|--------|


C#|--------|--------|--------|--------|--------|--------|--------|--------|--------|
G#|--------|--------|--------|--------|--------|--------|--------|--------|--------|
 E|--------|--------|--------|--------|--------|--------|--------|--------|--------|
 B|--------|--------|--------|--------|--------|--------|--------|--------|--------|
F#|--------|--------|--------|--------|--------|--------|--------|--------|--------|
 B|--------|--------|--------|--------|--------|--------|--------|--------|--------|


C#|--------|--------|--------|--------|--------|--------|--------|--------|--------|
G#|--------|--------|--------|--------|--------|--------|--------|--------|--------|
 E|--------|--------|--------|--------|--------|--------|--------|--------|--------|
 B|--------|--------|--------|--------|--------|--------|--------|--------|--------|
F#|--------|--------|--------|--------|--------|--------|--------|--------|--------|
 B|--------|--------|--------|--------|--------|--------|--------|--------|--------|


C#|--------|--------|--------|--------|--------|--------|--------|--------|--------|
G#|--------|--------|--------|--------|--------|--------|--------|--------|--------|
 E|--------|--------|--------|--------|--------|--------|--------|--------|--------|
 B|--------|--------|--------|--------|--------|--------|--------|--------|--------|
F#|--------|--------|--------|--------|--------|--------|--------|--------|--------|
 B|--------|--------|--------|--------|--------|--------|--------|--------|--------|


C#|--------|--------|--------|--------|--------|--------|--------|--------|--------|
G#|--------|--------|--------|--------|--------|--------|--------|--------|--------|
 E|--------|--------|--------|--------|--------|--------|--------|--------|--------|
 B|--------|--------|--------|--------|--------|--------|--------|--------|--------|
F#|--------|--------|--------|--------|--------|--------|--------|--------|--------|
 B|--------|--------|--------|--------|--------|--------|--------|--------|--------|


C#|--------|--------|--------|--------|--------|--------|--------|--------|--------|
G#|--------|--------|--------|--------|--------|--------|--------|--------|--------|
 E|--------|--------|--------|--------|--------|--------|--------|--------|--------|
 B|--------|--------|--------|--------|--------|--------|--------|--------|--------|
F#|--------|--------|--------|--------|--------|--------|--------|--------|--------|
 B|--------|--------|--------|--------|--------|--------|--------|--------|--------|


C#|--------|--------|--------|--------|--------|--------|--------|--------|--------|
G#|--------|--------|--------|--------|--------|--------|--------|--------|--------|
 E|--------|--------|--------|--------|--------|--------|--------|--------|--------|
 B|--------|--------|--------|--------|--------|--------|--------|--------|--------|
F#|--------|--------|--------|--------|--------|--------|--------|--------|--------|
 B|--------|--------|--------|--------|--------|--------|--------|--------|--------|


C#|--------|--------|--------|--------|--------|--------|--------|--------|--------|
G#|--------|--------|--------|--------|--------|--------|--------|--------|--------|
 E|--------|--------|--------|--------|--------|--------|--------|--------|--------|
 B|--------|--------|--------|--------|--------|--------|--------|--------|--------|
F#|--------|--------|--------|--------|--------|--------|--------|--------|--------|
 B|--------|--------|--------|--------|--------|--------|--------|--------|--------|


C#|--------|--------|--------|--------|--------|--------|--------|--------|--------|
G#|--------|--------|--------|--------|--------|--------|--------|--------|--------|
 E|--------|--------|--------|--------|--------|--------|--------|--------|--------|
 B|--------|--------|--------|--------|--------|--------|--------|--------|--------|
F#|--------|--------|--------|--------|--------|--------|--------|--------|--------|
 B|--------|--------|--------|--------|--------|--------|--------|--------|--------|


C#|--------|--------|--------|--------|--------|--------|--------|--------|--------|
G#|--------|--------|--------|--------|--------|--------|--------|--------|--------|
 E|--------|--------|--------|--------|--------|--------|--------|--------|--------|
 B|--------|--------|--------|--------|--------|--------|--------|--------|--------|
F#|--------|--------|--------|--------|--------|--------|--------|--------|--------|
 B|--------|--------|--------|--------|--------|--------|--------|--------|--------|


C#|--------|--------|--------|--------|--------|--------|--------|--------|--------|
G#|--------|--------|--------|--------|--------|--------|--------|--------|--------|
 E|--------|--------|--------|--------|--------|--------|--------|--------|--------|
 B|--------|--------|--------|--------|--------|--------|--------|--------|--------|
F#|--------|--------|--------|--------|--------|--------|--------|--------|--------|
 B|--------|--------|--------|--------|--------|--------|--------|--------|--------|


C#|--------|--------|--------|--------|--------|--------|--------|--------|--------|
G#|--------|--------|--------|--------|--------|--------|--------|--------|--------|
 E|--------|--------|--------|--------|--------|--------|--------|--------|--------|
 B|--------|--------|--------|--------|--------|--------|--------|--------|--------|
F#|--------|--------|--------|--------|--------|--------|--------|--------|--------|
 B|--------|--------|--------|--------|--------|--------|--------|--------|--------|


C#|--------|--------|--------|--------|--------|--------|--------|--------|--------|
G#|--------|--------|--------|--------|--------|--------|--------|--------|--------|
 E|--------|--------|--------|--------|--------|--------|--------|--------|--------|
 B|--------|--------|--------|--------|--------|--------|--------|--------|--------|
F#|--------|--------|--------|--------|--------|--------|--------|--------|--------|
 B|--------|--------|--------|--------|--------|--------|--------|--------|--------|


C#|--------|--------|--------|--------|--------|--------|--------|--------|--------|
G#|--------|--------|--------|--------|--------|--------|--------|--------|--------|
 E|--------|--------|--------|--------|--------|--------|--------|--------|--------|
 B|--------|--------|--------|--------|--------|--------|--------|--------|--------|
F#|--------|--------|--------|--------|--------|--------|--------|--------|--------|
 B|--------|--------|--------|--------|--------|--------|--------|--------|--------|


C#|--------|--------|--------|--------|--------|--------|--------|--------|--------|
G#|--------|--------|--------|--------|--------|--------|--------|--------|--------|
 E|--------|--------|--------|--------|--------|--------|--------|--------|--------|
 B|--------|--------|--------|--------|--------|--------|--------|--------|--------|
F#|--------|--------|--------|--------|--------|--------|--------|--------|--------|
 B|--------|--------|--------|--------|--------|--------|--------|--------|--------|


C#|--------|--------|--------|--------|--------|--------|--------|--------|--------|
G#|--------|--------|--------|--------|--------|--------|--------|--------|--------|
 E|--------|--------|--------|--------|--------|--------|--------|--------|--------|
 B|--------|--------|--------|--------|--------|--------|--------|--------|--------|
F#|--------|--------|--------|--------|--------|--------|--------|--------|--------|
 B|--------|--------|--------|--------|--------|--------|--------|--------|--------|





Track 6: Dirty III

C#|--------|--------|--------|--------|--------|--------|--------|--------|--------|
G#|--------|--------|--------|--------|--------|--------|--------|--------|--------|
 E|--------|--------|--------|--------|--------|--------|--------|--------|--------|
 B|--------|--------|--------|--------|--------|--------|--------|--------|--------|
F#|--------|--------|--------|--------|--------|--------|--------|--------|--------|
 B|--------|--------|--------|--------|--------|--------|--------|--------|--------|


C#|--------|--------|--------|--------|--------|--------|--------|--------|--------|
G#|--------|--------|--------|--------|--------|--------|--------|--------|--------|
 E|--------|--------|--------|--------|--------|--------|--------|--------|--------|
 B|--------|--------|--------|--------|--------|--------|--------|--------|--------|
F#|--------|--------|--------|--------|--------|--------|--------|--------|--------|
 B|--------|--------|--------|--------|--------|--------|--------|--------|--------|


C#|--------|--------|--------|--------|--------|--------|--------|--------|--------|
G#|--------|--------|--------|--------|--------|--------|--------|--------|--------|
 E|--------|--------|--------|--------|--------|--------|--------|--------|--------|
 B|--------|--------|--------|--------|--------|--------|--------|--------|--------|
F#|--------|--------|--------|--------|--------|--------|--------|--------|--------|
 B|--------|--------|--------|--------|--------|--------|--------|--------|--------|


C#|--------|--------|--------|--------|--------|--------|--------|--------|--------|
G#|--------|--------|--------|--------|--------|--------|--------|--------|--------|
 E|--------|--------|--------|--------|--------|--------|--------|--------|--------|
 B|--------|--------|--------|--------|--------|--------|--------|--------|--------|
F#|--------|--------|--------|--------|--------|--------|--------|--------|--------|
 B|--------|--------|--------|--------|--------|--------|--------|--------|--------|


C#|--------|--------|--------|--------|--------|--------|--------|--------|--------|
G#|--------|--------|--------|--------|--------|--------|--------|--------|--------|
 E|--------|--------|--------|--------|--------|--------|--------|--------|--------|
 B|--------|--------|--------|--------|--------|--------|--------|--------|--------|
F#|--------|--------|--------|--------|--------|--------|--------|--------|--------|
 B|--------|--------|--------|--------|--------|--------|--------|--------|--------|


C#|--------|--------|--------|--------|--------|--------|--------|--------|--------|
G#|--------|--------|--------|--------|--------|--------|--------|--------|--------|
 E|--------|--------|--------|--------|--------|--------|--------|--------|--------|
 B|--------|--------|--------|--------|--------|--------|--------|--------|--------|
F#|--------|--------|--------|--------|--------|--------|--------|--------|--------|
 B|--------|--------|--------|--------|--------|--------|--------|--------|--------|


C#|--------|--------|--------|--------|--------|--------|--------|--------|--------|
G#|--------|--------|--------|--------|--------|--------|--------|--------|--------|
 E|--------|--------|--------|--------|--------|--------|--------|--------|--------|
 B|--------|--------|--------|--------|--------|--------|--------|--------|--------|
F#|--------|--------|--------|--------|--------|--------|--------|--------|--------|
 B|--------|--------|--------|--------|--------|--------|--------|--------|--------|


C#|--------|--------|--------|--------|--------|--------|--------|--------|--------|
G#|--------|--------|--------|--------|--------|--------|--------|--------|--------|
 E|--------|--------|--------|--------|--------|--------|--------|--------|--------|
 B|--------|--------|--------|--------|--------|--------|--------|--------|--------|
F#|--------|--------|--------|--------|--------|--------|--------|--------|--------|
 B|--------|--------|--------|--------|--------|--------|--------|--------|--------|


C#|--------|--------|--------|--------|--------|--------|--------|--------|--------|
G#|--------|--------|--------|--------|--------|--------|--------|--------|--------|
 E|--------|--------|--------|--------|--------|--------|--------|--------|--------|
 B|--------|--------|--------|--------|--------|--------|--------|--------|--------|
F#|--------|--------|--------|--------|--------|--------|--------|--------|--------|
 B|--------|--------|--------|--------|--------|--------|--------|--------|--------|


C#|--------|--------|--------|--------|--------|--------|--------|--------|--------|
G#|--------|--------|--------|--------|--------|--------|--------|--------|--------|
 E|--------|--------|--------|--------|--------|--------|--------|--------|--------|
 B|--------|--------|--------|--------|--------|--------|--------|--------|--------|
F#|--------|--------|--------|--------|--------|--------|--------|--------|--------|
 B|--------|--------|--------|--------|--------|--------|--------|--------|--------|


C#|--------|--------|--------|--------|--------|--------|--------|--------|--------|
G#|--------|--------|--------|--------|--------|--------|--------|--------|--------|
 E|--------|--------|--------|--------|--------|--------|--------|--------|--------|
 B|--------|--------|--------|--------|--------|--------|--------|--------|--------|
F#|--------|--------|--------|--------|--------|--------|--------|--------|--------|
 B|--------|--------|--------|--------|--------|--------|--------|--------|--------|


C#|--------|--------|--------|--------|--------|--------|--------|--------|--------|
G#|--------|--------|--------|--------|--------|--------|--------|--------|--------|
 E|--------|--------|--------|--------|--------|--------|--------|--------|--------|
 B|--------|--------|--------|--------|--------|--------|--------|--------|--------|
F#|--------|--------|--------|--------|--------|--------|--------|--------|--------|
 B|--------|--------|--------|--------|--------|--------|--------|--------|--------|


C#|--------|--------|--------|--------|--------|--------|--------|--------|--------|
G#|--------|--------|--------|--------|--------|--------|--------|--------|--------|
 E|--------|--------|--------|--------|--------|--------|--------|--------|--------|
 B|--------|--------|--------|--------|--------|--------|--------|--------|--------|
F#|--------|--------|--------|--------|--------|--------|--------|--------|--------|
 B|--------|--------|--------|--------|--------|--------|--------|--------|--------|


C#|--------|--------|--------|--------|--------|--------|--------|--------|--------|
G#|--------|--------|--------|--------|--------|--------|--------|--------|--------|
 E|--------|--------|--------|--------|--------|--------|--------|--------|--------|
 B|--------|--------|--------|--------|--------|--------|--------|--------|--------|
F#|--------|--------|--------|--------|--------|--------|--------|--------|--------|
 B|--------|--------|--------|--------|--------|--------|--------|--------|--------|


C#|--------|--------|--------|--------|--------|--------|--------|--------|--------|
G#|--------|--------|--------|--------|--------|--------|--------|--------|--------|
 E|--------|--------|--------|--------|--------|--------|--------|--------|--------|
 B|--------|--------|--------|--------|--------|--------|--------|--------|--------|
F#|--------|--------|--------|--------|--------|--------|--------|--------|--------|
 B|--------|--------|--------|--------|--------|--------|--------|--------|--------|


C#|--------|--------|--------|--------|--------|--------|--------|--------|--------|
G#|--------|--------|--------|--------|--------|--------|--------|--------|--------|
 E|--------|--------|--------|--------|--------|--------|--------|--------|--------|
 B|--------|--------|--------|--------|--------|--------|--------|--------|--------|
F#|--------|--------|--------|--------|--------|--------|--------|--------|--------|
 B|--------|--------|--------|--------|--------|--------|--------|--------|--------|


C#|--------|--------|--------|--------|--------|--------|--------|--------|--------|
G#|--------|--------|--------|--------|--------|--------|--------|--------|--------|
 E|--------|--------|--------|--------|--------|--------|--------|--------|--------|
 B|--------|--------|--------|--------|--------|--------|--------|--------|--------|
F#|--------|--------|--------|--------|--------|--------|--------|--------|--------|
 B|--------|--------|--------|--------|--------|--------|--------|--------|--------|


C#|--------|--------|--------|--------|--------|--------|--------|--------|--------|
G#|--------|--------|--------|--------|--------|--------|--------|--------|--------|
 E|--------|--------|--------|--------|--------|--------|--------|--------|--------|
 B|--------|--------|--------|--------|--------|--------|--------|--------|--------|
F#|--------|--------|--------|--------|--------|--------|--------|--------|--------|
 B|--------|--------|--------|--------|--------|--------|--------|--------|--------|


C#|--------|--------|--------|--------|--------|--------|----------------------|-------------------------------------------------|
G#|--------|--------|--------|--------|--------|--------|-----------18------18-|----18----18----18----18----18----18----18----18-|
 E|--------|--------|--------|--------|--------|--------|-------21-------21----|-21----21----21----21----21----21----21----21----|
 B|--------|--------|--------|--------|--------|--------|----------------------|-------------------------------------------------|
F#|--------|--------|--------|--------|--------|--------|----------------------|-------------------------------------------------|
 B|--------|--------|--------|--------|--------|--------|----------------------|-------------------------------------------------|


C#|---------------------------------------------|--------------------------------|
G#|----18----18----18----18----18----18------18-|------18-18--18--18---18---18---|
 E|-21----21----21----21----21----21----21------|-21-----------------------------|
 B|---------------------------------------------|--------------------------------|
F#|---------------------------------------------|--------------------------------|
 B|---------------------------------------------|--------------------------------|


C#|-------------------------------|-------------------------------------------------|
G#|--------------------18------18-|----18----18----18----18----18----18----18----18-|
 E|-18---18---18---21-------21----|-21----21----21----21----21----21----21----21----|
 B|-------------------------------|-------------------------------------------------|
F#|-------------------------------|-------------------------------------------------|
 B|-------------------------------|-------------------------------------------------|


C#|---------------------------------------------|--------------------------------|
G#|----18----18----18----18----18----18------18-|------18-18--18--18---18---18---|
 E|-21----21----21----21----21----21----21------|-21-----------------------------|
 B|---------------------------------------------|--------------------------------|
F#|---------------------------------------------|--------------------------------|
 B|---------------------------------------------|--------------------------------|


C#|----------------------|--------|--------|--------|--------|--------|--------|--------|
G#|----------------------|--------|--------|--------|--------|--------|--------|--------|
 E|-18---18---18---------|--------|--------|--------|--------|--------|--------|--------|
 B|----------------------|--------|--------|--------|--------|--------|--------|--------|
F#|----------------------|--------|--------|--------|--------|--------|--------|--------|
 B|----------------------|--------|--------|--------|--------|--------|--------|--------|


C#|--------|--------|
G#|--------|--------|
 E|--------|--------|
 B|--------|--------|
F#|--------|--------|
 B|--------|--------|





Track 7: Bass

 E|--------|--------|--------|--------|--------|--------|--------|--------|--------|
 B|--------|--------|--------|--------|--------|--------|--------|--------|--------|
F#|--------|--------|--------|--------|--------|--------|--------|--------|--------|
 B|--------|--------|--------|--------|--------|--------|--------|--------|--------|


 E|--------|--------|--------|--------|--------|--------|--------|--------|--------|
 B|--------|--------|--------|--------|--------|--------|--------|--------|--------|
F#|--------|--------|--------|--------|--------|--------|--------|--------|--------|
 B|--------|--------|--------|--------|--------|--------|--------|--------|--------|


 E|------------|--------|------------|--------|------------|--------|------------|
 B|------------|--------|------------|--------|------------|--------|------------|
F#|------------|--------|------------|--------|------------|--------|------------|
 B|-0---2------|-2------|-0---2------|-2------|-0---2------|-2------|-0---2------|


 E|--------|------------|--------|------------|--------|------------|--------|------------|
 B|--------|------------|--------|------------|--------|------------|--------|------------|
F#|--------|------------|--------|------------|--------|------------|--------|------------|
 B|-2------|-0---2------|-2------|-0---2------|-2------|-0---2------|-2------|-0---2------|


 E|--------|---------------------------------------------|---------------------------------------------|
 B|--------|---------------------------------------------|---------------------------------------------|
F#|--------|---------------------------------------------|---------------------------------------------|
 B|-2------|-2--2--2--2------2--2--2--2------2--2--2--2--|-----2--2--2--2------2--2--2--2--2--2--2--2--|


 E|---------------------------------------------|---------------------------------------------|
 B|---------------------------------------------|---------------------------------------------|
F#|---------------------------------------------|---------------------------------------------|
 B|-2--2--2--2------2--2--2--2------2--2--2--2--|-----2--2--2--2------2--2--2--2--2--2--2--2--|


 E|---------------------------------------------|---------------------------------------------|
 B|---------------------------------------------|---------------------------------------------|
F#|---------------------------------------------|---------------------------------------------|
 B|-2--2--2--2------2--2--2--2------2--2--2--2--|-----2--2--2--2------2--2--2--2--2--2--2--2--|


 E|---------------------------------------------|---------------------------|-------------------------------------------------|
 B|---------------------------------------------|---------------------------|-2--0--------------------------------------------|
F#|---------------------------------------------|---------------------------|-------------------5--3--------------------------|
 B|-2--2--2--2------2--2--2--2------2--2--2--2--|-----2--2--2--2------------|-------2--2--2--2--------2--2--2--2--5--2--2--2--|


 E|------------------------------------------|-------------------------------------------------|
 B|-2--0-------------------------------------|-2--0--------------------------------------------|
F#|-------------------5--3--------------3----|-------------------5--3--------------------------|
 B|-------2--2--2--2--------2--2--2--2-------|-------2--2--2--2--------2--2--2--2--5--2--2--2--|


 E|-------------------------------------7--7--4--4--|-------------------------------------------------|
 B|-3--3--3-----------6--6--6--3--3--3--------------|-2--0--------------------------------------------|
F#|----------5--5--5--------------------------------|-------------------5--3--------------------------|
 B|-------------------------------------------------|-------2--2--2--2--------2--2--2--2--5--2--2--2--|


 E|------------------------------------------|-------------------------------------------------|
 B|-2--0-------------------------------------|-2--0--------------------------------------------|
F#|-------------------5--3--------------3----|-------------------5--3--------------------------|
 B|-------2--2--2--2--------2--2--2--2-------|-------2--2--2--2--------2--2--2--2--5--2--2--2--|


 E|-------------------------------------7--7--4--4--|-------------------------------------------------|
 B|-3--3--3-----------6--6--6--3--3--3--------------|-2--0--------------------------------------------|
F#|----------5--5--5--------------------------------|-------------------5--3--------------------------|
 B|-------------------------------------------------|-------2--2--2--2--------2--2--2--2--5--2--2--2--|


 E|------------------------------------------|-------------------------------------------------|
 B|-2--0-------------------------------------|-2--0--------------------------------------------|
F#|-------------------5--3--------------3----|-------------------5--3--------------------------|
 B|-------2--2--2--2--------2--2--2--2-------|-------2--2--2--2--------2--2--2--2--5--2--2--2--|


 E|-------------------------------------7--7--4--4--|-------------------------------------------------|
 B|-3--3--3-----------6--6--6--3--3--3--------------|-2--0--------------------------------------------|
F#|----------5--5--5--------------------------------|-------------------5--3--------------------------|
 B|-------------------------------------------------|-------2--2--2--2--------2--2--2--2--5--2--2--2--|


 E|------------------------------------------|-------------------------------------------------|
 B|-2--0-------------------------------------|-2--0--------------------------------------------|
F#|-------------------5--3--------------3----|-------------------5--3--------------------------|
 B|-------2--2--2--2--------2--2--2--2-------|-------2--2--2--2--------2--2--2--2--5--2--2--2--|


 E|-------------------------------------7--7--4--4--|-------------------------------------------|
 B|-3--3--3-----------6--6--6--3--3--3--------------|-------------------------------------------|
F#|----------5--5--5--------------------------------|-7--5---5--5--5--7--5---5--5--5--7--5--5---|
 B|-------------------------------------------------|-------------------------------------------|


 E|-------------------------------------------|-------------------------------------------------|
 B|-------------------------------------------|-2--0--------------------------------------------|
F#|-5--3---3--3--3--5--3---3--3--3--5--3--3---|-------------------5--3--------------------------|
 B|-------------------------------------------|-------2--2--2--2--------2--2--2--2--5--2--2--2--|


 E|------------------------------------------|-------------------------------------------------|
 B|-2--0-------------------------------------|-2--0--------------------------------------------|
F#|-------------------5--3--------------3----|-------------------5--3--------------------------|
 B|-------2--2--2--2--------2--2--2--2-------|-------2--2--2--2--------2--2--2--2--5--2--2--2--|


 E|-------------------------------------7--7--4--4--|-------------------------------------------|
 B|-3--3--3-----------6--6--6--3--3--3--------------|-------------------------------------------|
F#|----------5--5--5--------------------------------|-7--5---5--5--5--7--5---5--5--5--7--5--5---|
 B|-------------------------------------------------|-------------------------------------------|


 E|-------------------------------------------|------------|------------|------------|
 B|-------------------------------------------|------------|------------|------------|
F#|-5--3---3--3--3--5--3---3--3--3--5--3--3---|------------|------------|------------|
 B|-------------------------------------------|-0---2------|-3---2------|-0---2------|


 E|---------------------------------|---------------------------------|---------------------------------|
 B|---------------------------------|---------------------------------|---------------------------------|
F#|---------------------------------|---------------------------------|---------------------------------|
 B|-3---3---3---3---3---3---3---3---|-0---2-------2---3---2-------2---|-0---2-------2---3---2-------2---|


 E|---------------------------------|---------------------------------|---------------------------------|
 B|---------------------------------|---------------------------------|---------------------------------|
F#|---------------------------------|---------------------------------|---------------------------------|
 B|-0---2-------2---3---2-------2---|-2---8---8---5---5---6---6---3---|-0---2-------2---3---2-------2---|


 E|---------------------------------|---------------------------------|---------------------------------|
 B|---------------------------------|---------------------------------|---------------------------------|
F#|---------------------------------|---------------------------------|---------------------------------|
 B|-0---2-------2---3---2-------2---|-0---2-------2---3---2-------2---|-2---8---8---5---5---6---6---3---|


 E|---------------------------------------------|---------------------------------------------|
 B|---------------------------------------------|---------------------------------------------|
F#|---------------------------------------------|---------------------------------------------|
 B|-2--2--2--2------2--2--2--2------2--2--2--2--|-----2--2--2--2------2--2--2--2--2--2--2--2--|


 E|---------------------------------------------|---------------------------|-------------------------------------------------|
 B|---------------------------------------------|---------------------------|-2--0--------------------------------------------|
F#|---------------------------------------------|---------------------------|-------------------5--3--------------------------|
 B|-2--2--2--2------2--2--2--2------2--2--2--2--|-----2--2--2--2------------|-------2--2--2--2--------2--2--2--2--5--2--2--2--|


 E|------------------------------------------|-------------------------------------------------|
 B|-2--0-------------------------------------|-2--0--------------------------------------------|
F#|-------------------5--3--------------3----|-------------------5--3--------------------------|
 B|-------2--2--2--2--------2--2--2--2-------|-------2--2--2--2--------2--2--2--2--5--2--2--2--|


 E|-------------------------------------7--7--4--4--|-------------------------------------------------|
 B|-3--3--3-----------6--6--6--3--3--3--------------|-2--0--------------------------------------------|
F#|----------5--5--5--------------------------------|-------------------5--3--------------------------|
 B|-------------------------------------------------|-------2--2--2--2--------2--2--2--2--5--2--2--2--|


 E|------------------------------------------|-------------------------------------------------|
 B|-2--0-------------------------------------|-2--0--------------------------------------------|
F#|-------------------5--3--------------3----|-------------------5--3--------------------------|
 B|-------2--2--2--2--------2--2--2--2-------|-------2--2--2--2--------2--2--2--2--5--2--2--2--|


 E|-------------------------------------7--7--4--4--|-------------------------------------------|
 B|-3--3--3-----------6--6--6--3--3--3--------------|-------------------------------------------|
F#|----------5--5--5--------------------------------|-7--5---5--5--5--7--5---5--5--5--7--5--5---|
 B|-------------------------------------------------|-------------------------------------------|


 E|-------------------------------------------|-------------------------------------------------|
 B|-------------------------------------------|-2--0--------------------------------------------|
F#|-5--3---3--3--3--5--3---3--3--3--5--3--3---|-------------------5--3--------------------------|
 B|-------------------------------------------|-------2--2--2--2--------2--2--2--2--5--2--2--2--|


 E|------------------------------------------|-------------------------------------------------|
 B|-2--0-------------------------------------|-2--0--------------------------------------------|
F#|-------------------5--3--------------3----|-------------------5--3--------------------------|
 B|-------2--2--2--2--------2--2--2--2-------|-------2--2--2--2--------2--2--2--2--5--2--2--2--|


 E|-------------------------------------7--7--4--4--|-------------------------------------------|
 B|-3--3--3-----------6--6--6--3--3--3--------------|-------------------------------------------|
F#|----------5--5--5--------------------------------|-7--5---5--5--5--7--5---5--5--5--7--5--5---|
 B|-------------------------------------------------|-------------------------------------------|


 E|-------------------------------------------|------------|------------|------------|
 B|-------------------------------------------|------------|------------|------------|
F#|-5--3---3--3--3--5--3---3--3--3--5--3--3---|------------|------------|------------|
 B|-------------------------------------------|-0---2------|-3---2------|-0---2------|


 E|---------------------------------|---------------------------------|---------------------------------|
 B|---------------------------------|---------------------------------|---------------------------------|
F#|---------------------------------|---------------------------------|---------------------------------|
 B|-3---3---3---3---3---3---3---3---|-0---2-------2---3---2-------2---|-0---2-------2---3---2-------2---|


 E|---------------------------------|---------------------------------|---------------------------------|
 B|---------------------------------|---------------------------------|---------------------------------|
F#|---------------------------------|---------------------------------|---------------------------------|
 B|-0---2-------2---3---2-------2---|-2---8---8---5---5---6---6---3---|-0---2-------2---3---2-------2---|


 E|---------------------------------|---------------------------------|---------------------------------|
 B|---------------------------------|---------------------------------|---------------------------------|
F#|---------------------------------|---------------------------------|---------------------------------|
 B|-0---2-------2---3---2-------2---|-0---2-------2---3---2-------2---|-2---8---8---5---5---6---6---3---|


 E|--------|--------|--------|--------|-----------------------|-----------------------|
 B|--------|--------|--------|--------|-----------------------|-----------------------|
F#|--------|--------|--------|--------|-----------------------|-----------------------|
 B|-0------|-0------|-0------|-0------|-0-----1-------1---1---|-0-----1-------1---1---|


 E|-----------------------|-------------------------------|-----------------------|
 B|-----------------------|-------------------------------|-----------------------|
F#|-----------------------|-------------------------------|-----------------------|
 B|-0-----1-------1---1---|-6----3----4----1----4----3----|-0-----1-------1---1---|


 E|-----------------------|-----------------------|-------------------------------|
 B|-----------------------|-----------------------|-------------------------------|
F#|-----------------------|-----------------------|-------------------------------|
 B|-0-----1-------1---1---|-0-----1-------1---1---|-6----3----4----1----4----3----|


 E|---------------------------------------------|---------------------------------------------|
 B|---------------------------------------------|---------------------------------------------|
F#|---------------------------------------------|---------------------------------------------|
 B|-0-0-0--0---0-0-0--0---0-0-0--0---0-0-0--0---|-0-0-0--0---0-0-0--0---3-3-3--3---4-4-4--4---|


 E|---------------------------------------------|-------------------------------|---------------------------------------------|
 B|---------------------------------------------|-------------------------------|---------------------------------------------|
F#|---------------------------------------------|-------------------------------|---------------------------------------------|
 B|-0-0-0--0---0-0-0--0---0-0-0--0---0-0-0--0---|-6----3----4----1----4----3----|-0-0-0--0---0-0-0--0---0-0-0--0---0-0-0--0---|


 E|---------------------------------------------|---------------------------------------------|
 B|---------------------------------------------|---------------------------------------------|
F#|---------------------------------------------|---------------------------------------------|
 B|-0-0-0--0---0-0-0--0---3-3-3--3---4-4-4--4---|-0-0-0--0---0-0-0--0---0-0-0--0---0-0-0--0---|


 E|-------------------------------|--------------------|--------------------|--------------------|
 B|-------------------------------|--------------------|--------------------|--------------------|
F#|-------------------------------|--------------------|--------------------|--------------------|
 B|-6----3----4----1----4----3----|-0-----1----1---1---|-0-----1----1---1---|-0-----1----1---1---|


 E|-------------------------------|--------------------|--------------------|--------------------|
 B|-------------------------------|--------------------|--------------------|--------------------|
F#|-------------------------------|--------------------|--------------------|--------------------|
 B|-6----3----4----1----4----3----|-0-----1----1---1---|-0-----1----1---1---|-0-----1----1---1---|


 E|-------------------------------|--------|--------|--------|--------|--------|------------------|
 B|-------------------------------|--------|--------|--------|--------|--------|------------------|
F#|-------------------------------|--------|--------|--------|--------|--------|------------------|
 B|-6----3----4----1----4----3----|-2------|-2------|-2------|--------|--------|-2--2-------------|


 E|--------|--------|--------|-------------------------------------------------|-------------------------------------------------|
 B|--------|--------|--------|-------------------------------------------------|-------------------------------------------------|
F#|--------|-0------|-3------|-------------------------------------------------|-------------------------------------------------|
 B|--------|--------|--------|-2--2--2--2--2--2--2--2--2--2--2--2--2--2--2--2--|-2--2--2--2--2--2--2--2--2--2--2--2--2--2--2--2--|


 E|-------------------------------------------------|-------------------------------------------------|
 B|-------------------------------------------------|-------------------------2--0--------------------|
F#|-------------------------------------------------|-3--3--3--3--3--3--3--3--------3--2--5--3--2--0--|
 B|-7--7--7--7--7--7--7--7--7--7--7--7--7--7--7--7--|-------------------------------------------------|


 E|-------------------------------------------------|-------------------------------------------------|
 B|-------------------------------------------------|-------------------------------------------------|
F#|-------------------------------------------------|-------------------------------------------------|
 B|-2--2--2--2--2--2--2--2--2--2--2--2--2--2--2--2--|-2--2--2--2--2--2--2--2--2--2--2--2--2--2--2--2--|


 E|-------------------------------------------------|-------------------------------------------------|
 B|-------------------------------------------------|-------------------------2--0--------------------|
F#|-------------------------------------------------|-3--3--3--3--3--3--3--3--------3--2--5--3--2--0--|
 B|-7--7--7--7--7--7--7--7--7--7--7--7--7--7--7--7--|-------------------------------------------------|


 E|-------------------------------------------------|-------------------------------------------------|
 B|-------------------------------------------------|-------------------------------------------------|
F#|-------------------------------------------------|-------------------------------------------------|
 B|-2--2--2--2--2--2--2--2--2--2--2--2--2--2--2--2--|-2--2--2--2--2--2--2--2--2--2--2--2--2--2--2--2--|


 E|-------------------------------------------------|-----------------------------------|
 B|-------------------------------------------------|-------------------------2---------|
F#|-------------------------------------------------|-3--3--3--3--3--3--3--3------------|
 B|-7--7--7--7--7--7--7--7--7--7--7--7--7--7--7--7--|-----------------------------------|


 E|---------------------|-----------------------------------------------------|--------------------------------------------------|
 B|---------------------|-----------------------------------------------------|--------------------------------------------------|
F#|-2-------------------|-----------------------------------------------------|--------------------------1---1---1---------------|
 B|-----------5---------|-0--2---0--2-2-2-2-2-2-2-2-0--2---0--2-2-2-2-2-2-2-2-|-0--2---0--2-2-2-2-2-2-2--------------1---1---1---|


 E|-----------------------------------------------------|--------------------------------------------------|
 B|-----------------------------------------------------|--------------------------------------------------|
F#|-----------------------------------------------------|--------------------------1---1---1---------------|
 B|-0--2---0--2-2-2-2-2-2-2-2-0--2---0--2-2-2-2-2-2-2-2-|-0--2---0--2-2-2-2-2-2-2--------------1---1---1---|


 E|-----------------------------------------------------|--------------------------------------------------|
 B|-----------------------------------------------------|--------------------------------------------------|
F#|-----------------------------------------------------|--------------------------1---1---1---------------|
 B|-0--2---0--2-2-2-2-2-2-2-2-0--2---0--2-2-2-2-2-2-2-2-|-0--2---0--2-2-2-2-2-2-2--------------1---1---1---|


 E|-----------------------------------------------------|-----------------------------------------|
 B|-----------------------------------------------------|-----------------------------------------|
F#|-----------------------------------------------------|--------------------------1----1----1----|
 B|-0--2---0--2-2-2-2-2-2-2-2-0--2---0--2-2-2-2-2-2-2-2-|-0--2---0--2-2-2-2-2-2-2-----------------|


 E|-----------------------------|--------------------------------------|--------------------------------------|
 B|-----------------------------|--------------------------------------|--------------------------------------|
F#|-----------------------------|--------------------------------------|--------------------------------------|
 B|-1----1----1----0---2----0---|-2--2--2--2--2--2--2--2--0---2----0---|-2--2--2--2--2--2--2--2--0---2----0---|


 E|----------------------------------------|-----------------------------|--------------------------------------|
 B|----------------------------------------|-----------------------------|--------------------------------------|
F#|-------------------------1----1----1----|-----------------------------|--------------------------------------|
 B|-2--2--2--2--2--2--2--2-----------------|-1----1----1----0---2----0---|-2--2--2--2--2--2--2--2--0---2----0---|


 E|--------------------------------------|----------------------------------------|
 B|--------------------------------------|----------------------------------------|
F#|--------------------------------------|-------------------------1----1----1----|
 B|-2--2--2--2--2--2--2--2--0---2----0---|-2--2--2--2--2--2--2--2-----------------|


 E|--------------------------|-------------|-----------------|-------------|-----------------|
 B|--------------------------|-------------|-----------------|-------------|-----------------|
F#|--------------------------|-------------|-----------------|-------------|-----------------|
 B|-1----1----1----0---2-----|-------2-----|-------0---2-----|-------2-----|-------0---2-----|


 E|-------------|-----------------|-------------|-----------------|-------------|
 B|-------------|-----------------|-------------|-----------------|-------------|
F#|-------------|-----------------|-------------|-----------------|-------------|
 B|-------2-----|-------0---2-----|-------2-----|-------0---2-----|-------2-----|