Menu:

 

Search:

 

machine head - davidian:

 



/---------------------------------------------------------------------------
/ The following is the author's own interpretation of the song, to be used -
/ for studying or private use only, removal of any part of this ten line   -
/ header is illegal!!!  Removal of the transcribers name or anything       -
/ relevant to the transcriber is also illegal, as so is the removal of the -
/ place inwhich the tab was downloaded. Publishing as well as printing of  -
/ the tab is illegal without permission of the transcriber and copyright   -
/ owner of the song. Failure to apply to these laws result will in legal   -
/ action from the appropriate parties.                                     -
/---------------------------------------------------------------------------

downloaded from Displacer's Tablature Site at
        http://www.dsrmusic.com/metaltab
join the death/black tab emailing list by filling out the free
subscription form at http://www.dsrmusic.com/metaltab/join.htm


#----------------------------------PLEASE NOTE---------------------------------#
#This file is the author's own work and represents their interpretation of the #
#song. You may only use this file for private study, scholarship, or research. #
#------------------------------------------------------------------------------#

  Visit MetalTabs.com for more metal tablature
  
Song: Davidian
Band: Machine Head
Tabbed by: David V. [daviti666@eresmas.com]

pm= palm mute
/=slide up
\=slide down
h=hammer on
p=pull off
full=push up a whole note

Tuning:
6-C 3-F
5-G 2-A
4-C 1-D
      pm
harm    harm           harm
||-------------------------|-----------------------|-------------------------|
||*------------------------|-----------------------|-------------------------|
||-------------------------|-----------------------|-------------------------|
||*-------5----------------|--------5--------------|--------5----------------|
||--0--------5---1----(1)/-|--0--0-----5---1--3--4-|--0--------5---1----(1)/-|
||--0------------1----(1)/-|--0--0---------1--3--4-|--0------------1----(1)/-|

    pm pm
 harm           harm      harm
|--------------------------|-------------------------|-----------------------|
|--------------------------|-------------------------|-----------------------|
|--------------------------|-------------------------|-----------------------|
|--------5-----------------|--------5----------------|--------5--------------|
|--0--0-----5--1--1/4---3--|--0--------5---1----(1)/-|--0--0-----5---1--3--4-|
|--0--0--------1--1/4---3--|--0------------1----(1)/-|--0--0---------1--3--4-|


_______________________________________________________________________________
|1.
      pm      pm     repeat
harm    harm    harm
|-------------------------|-----------------------|---------------------------||
|-------------------------|-----------------------|--------------------------*||
|-------------------------|-----------------------|---------------------------||
|--------5----------------|--------5--------------|--------5-----------------*||
|--0--------5---1----(1)/-|--1--1-----5---1--3--4-|--1--1-----5---1--1/4---3--||
|--0------------1----(1)/-|--1--1---------1--3--4-|--1--1---------1--1/4---3--||

________________________________ __________________________________
|2.                |3.
       pm   pm   pm
harm          harm harm         harm
|-------------------------|---------------------------||-----------------------|--------------------------|
|-------------------------|--------------------------*||-----------------------|--------------------------|
|-------------------------|---------------------------||-----------------------|--------------------------|
|--------5----------------|--------5-----------------*||--------5--------------|--------5-----------------|
|--0--------5---1----(1)/-|--0--0-----5---1--1/4---3--||--1--1-----5---1--3--4-|--1--1-----5---1--1/4---3-|
|--0------------1----(1)/-|--0--0---------1--1/4---3--||--1--1---------1--3--4-|--1--1---------1--1/4---3-|





|----------------------|----------------------|----------------------|----------------------|
|----------------------|----------------------|----------------------|----------------------|
|----------------------|------------------15//|/19-------------------|--(19)----------------|
|----------------------|------------------15//|/19-------------------|--(19)----------------|
|--0-------------------|--(0)-------------13//|/17-------------------|--(17)----------------|
|--0-------------------|--(0)-----------------|----------------------|----------------------|


Rhy Fig 1
pm pm----------------|   pm
|-----------------|-------------------------------------|--------------|--------------|
|-----------------|-------------------------------------|--------------|--------------|
|-----------------|-------------------------------------|--------------|--------------|
|-----------------|-------------------------------------|-----%-x-2----|-----%-x-2----|
|--0--0--1--0--0--|--(0)--------------------6-----3--4--|--------------|--------------|
|--0--0--1--0--0--|--(0)--0--0--0--0--0--0--6--0--3--4--|--------------|--------------|


(End Rhy Fig 1)
pm      pm---------------| w/Rhy Fig 1 (1st 7 bars only) Rhy Fill 1 (all pm)
|--------------------|-----------------------------|----------------------------------|-----------------------------------|
|--------------------|-----------------------------|----------------------------------|-----------------------------------|
|--------------------|-----------------------------|----------------------------------|-----------------------------------|
|--------------------|-----------------------------|----------------------------------|-----------------------------------|
|--0--0---1--0----0--|--(0)--------------------6---|----------------------------------|--(0)------------------------------|
|--0--0---1--0----0--|--(0)--0--0--0--0--0--0--6---|----------------------------------|--(0)--0-0-0-0-0-0-6-6-0-0-3-3-4-4-|


w/Rhy Fig 1 (1st 7 bars only) w/Rhy Fill1    w/Rhy Fig 1 (1st 6 bars only)
LET FREEDOM...
||----------------------------|--------------|---------------------------------------|--------------------------|
||*---------------------------|--------------|---------------------------------------|--------------------------|
||----------------------------|--------------|---------------------------------------|--------------------------|
||*---------------------------|--------------|---------------------------------------|--------------------------|
||----------------------------|--------------|---------------------------------------|--6-----------------------|
||----------------------------|--------------|---------------------------------------|--6-----------------------|


      semi-harm
 SHOTGUN BLAST !
|------------------------------|--------------------------|------------------------------|
|------------------------------|--------------------------|-----------0---0---0----------|
|------------------------------|--------------------------|------------------------------|
|------------------------------|--------------------------|------------------------------|
|--------------------x---------|--0-----3--0--6--5--0--3--|--(3)--4---------------0---1--|
|--------------------x----x\---|--0-----3--0--6--5--0--3--|--(3)--4---------------0---1--|



               pm---------------------|
|--------------------------|-----------------------------------|--------------------------|
|--------------------------|-----------------------------------|--------------------------|
|--------------------------|-----------------------------------|--------------------------|
|--------------------------|-----------------------------------|--------------------------|
|--0-----3--0--6--5--0--3--|--(3)--4---------------------------|--0-----3--0--6--5--0--3--|
|--0-----3--0--6--5--0--3--|--(3)--4---1-1-1-1-4-4-4-4-3-3-3-3-|--0-----3--0--6--5--0--3--|




semi-harm       pm---------------------|
|------------------------------|--------------------------|-----------------------------------|
|-----------0---0---0----------|--------------------------|-----------------------------------|
|------------------------------|--------------------------|-----------------------------------|
|------------------------------|--------------------------|-----------------------------------|
|--(3)--4---------------0---1--|--0-----3--0--6--5--0--3--|--(3)--4---------------------------|
|--(3)--4---------------0---1--|--0-----3--0--6--5--0--3--|--(3)--4---1-1-1-1-4-4-4-4-3-3-3-3-|


  __________________________________
  |1.      w/Rhy Fig 1
|--------------------------|------------------------------|--------------------------|------------||
|--------------------------|------------------------------|--------------------------|-----------*||
|--------------------------|------------------------------|--------------------------|------------||
|--------------------------|------------------------------|--------------------------|-----------*||
|--0-----3--0--6--5--0--3--|--(3)--4---x---x---x---0---1--|--0-----3--0--6--5--0--3--|------------||
|--0-----3--0--6--5--0--3--|--(3)--4---x---x---x---0---1--|--0-----3--0--6--5--0--3--|------------||

____________________
|2.         pm--------------------|
|--------------------------|----------------------------------|
|--------------------------|----------------------------------|
|--------------------------|----------------------------------|
|--------------------------|----------------------------------|
|--0-----3--0--6--5--0--3--|--(3)--4--------------------------|
|--0-----3--0--6--5--0--3--|--(3)--4--1--1--1--4---3-1--1--1--|


*SOLO - Make string noise by trembling bar for 8 bars
One Guitar Play This During First 8 Bars Of SOLO

        pm     pm-|                         pm         pm
|-----------------------|-----------------------------|--------------------------|
|-----------------------|-----------------------------|--------------------------|
|-----------------------|-----------------------------|--------------------------|
|-----------------------|-----------------------------|--------------------------|
|--0--------1--------0--|--(0)--0--0--0--6-----3--4---|--0-----0--0--1--------0--|
|--0----0---1--0--0--0--|--(0)--0--0--0--6--0--3--4---|--0-----0--0--1--0--0--0--|



    pm        pm-|     pm
|----------------------------|--------------------------|----------------------------|
|----------------------------|--------------------------|----------------------------|
|----------------------------|--------------------------|----------------------------|
|----------------------------|--------------------------|----------------------------|
|--(0)--0--0--0--6-----3--4--|--0-----0--0--1--------0--|--(0)--0--0--0--6-----3--4--|
|--(0)--0--0--0--6--0--3--4--|--0-----0--0--1--0--0--0--|--(0)--0--0--0--6--0--3--4--|


  w/Rhy Fig2 (4x)
   *1              *1
        h   p       Rhy Fig 2   pm     pm------|    pm
|--------------------------|-----------------------------|----------------------|
|----------------------|-------------------------|
|--------------------------|-----------------------------|----------------------|
|----------------------|-------------------------|
|--------------------------|-----------------------------|--7-(7)-8--7----------|
|----------------------|-------------------------|
|--------------------------|-----------------------------|-----------------6----|
|----------------------|-------------------------|
|--0-----0-----1--0-----0--|--(0)--0-----0--6-----3--4---|----------------------|
|--0---0----1--0----0--|-(0)----------6-----3--4-|
|--0-----0-----1--0-----0--|--(0)--0-----0--6--0--3--4---|----------------------|
|--0---0----1--0----0--|-(0)-0--0--0--6--0--3--4-|
    *Depress Bar Before Stiking

   1    h           h    semi-harm         h ah|full
|--------------------------------------|-------------------------------------------|
|--------------------------------------|----------10--10-11-11-13--13---13-----11--|
|--7-(7)--8~---8/11--12--11------11-11-|--11--12-----------------------------------|
|--------------------------------------|-------------------------------------------|
|--------------------------------------|-------------------------------------------|
|--------------------------------------|-------------------------------------------|


 1
                full    p                 ah----------------------|   h
|--------------------------------------|---------------------|--------------------------|
|--10~---------------------------------|---------------------|---------------------7----|
|---------12-12-12--(12)-10------------|--5~~----------------|-------5--7----7/8--------|
|---------------------------12--(12)\--|---------6-----------|--(6)---------------------|
|--------------------------------------|---------------------|--------------------------|
|--------------------------------------|---------------------|--------------------------|


 w/Riff A
    h p          h    h      full   full      full
|-----------------------------|-------------8--8/10--11--10------|---------10----10------|
|--7-8-7---7---8/10--7/8--10--|--11--8--10-------------------13--|--13-----13--------13--|
|--------8--------------------|----------------------------------|-----------------------|
|-----------------------------|----------------------------------|-----------------------|
|-----------------------------|----------------------------------|-----------------------|
|-----------------------------|----------------------------------|-----------------------|



PM----------------------------------------------------------------
                full full-------| RIFF A                             play 7
times

|-------10-----------------10--10--| ||----------------------------------|---------------------------------|
|--(13)--------13------13---3--13--| ||*---------------------------------|--------------------------------*|
|----------------------------------| ||----------------------------------|---------------------------------|
|----------------------------------| ||*---------------------------------|----------------6-6-3-3-5-5-4-4-*|
|----------------------------------| ||--------------------------5-5-----|----6-6-6-6-3-3------------------|
|----------------------------------| ||--0-0-0-0-6-6-6-6-3-3-3-3-----6-6-|6-6------------------------------|

   pm---------------------------------------------------|
|----------------------------------|-----------------|-----------------||
|----------------------------------|-----------------|-----------------||
|----------------------------------|-----------------|-----------------||
|----------------------------------|-----------------|-----------------||
|--------------------------5-5-----|-----6-6-6-6-3-3-|--6--------------||
|--0-0-0-0-6-6-6-6-3-3-3-3-----6-6-|-6-6-------------|--6--------------||


    full   full         full-----------|     full-----|   full  full
|---------10----10-10--10--|--10--10---------10------10--|-10---10--10--10----10------|
|--13-----13-----------13--|--13--13--13---------13------|-13---13--13--13----13--13--|
|--------------------------|-----------------------------|----------------------------|
|--------------------------|-----------------------------|----------------------------|
|--------------------------|-----------------------------|----------------------------|
|--------------------------|-----------------------------|----------------------------|



    full    full    full    full   full    full    full        full  full
full----|
|--10------10------10------10--|----------13---------|-------------------------19-----|
|--13--13--13--13--13--13--13--|--16------16------19-|--(19)--19----19----19---16-----|
|------------------------------|---------------------|--------------------------------|
|------------------------------|---------------------|--------------------------------|
|------------------------------|---------------------|--------------------------------|
|------------------------------|---------------------|--------------------------------|



    full     full~~  full         full  full--------|         1+1/2    full~~
|-----------16----------|---------------------------------|-----------16---------|
|--19-------19------19--|--(19)--19----19--19--19--19-----|--19-------19-----19--|
|-----------------------|---------------------------------|----------------------|
|-----------------------|---------------------------------|----------------------|
|-----------------------|---------------------------------|----------------------|
|-----------------------|---------------------------------|----------------------|



    full    full    full    full       full     full-|
full---------------------------------|
|--16------16------16------16------|-----------16-------16--|--(16)-16--16--16--16--16--16-----|
|--19--19--19--19--19--19--19--19--|--19-------19-------19--|--(19)-19--19--19--19--19--19--19-|
|----------------------------------|------------------------|----------------------------------|
|----------------------------------|------------------------|----------------------------------|
|----------------------------------|------------------------|----------------------------------|
|----------------------------------|------------------------|----------------------------------|



   1+1/2    full   full---------------------|
|----------16-----16--|--(16)---16---16---16---|-----|
|--19------19-----19--|--(19)---19---19---19---|-----|
|---------------------|------------------------|-----|
|---------------------|------------------------|-----|
|---------------------|------------------------|-----|
|---------------------|------------------------|-----|


  pm---------------------------------------------------------------------------|

||----------------------------|---------|---------|------------------------------|
||*---------------------------|---------|---------|------------------------------|
||----------------------------|----%----|----%----|------------------------------|
||*---------------------------|---------|---------|------------------------------|
||----------------------------|---------|---------|------------------------------|
||--0-0-0--0--0--0-0-0--0--0--|---------|---------|--3-3-3--4-4-4--1-1-1--3-3-3--|


repeat and fade
pm----------------------------------------------------------------------------------|

|----------------------------|---------|---------|-------------------------------------||
|----------------------------|---------|---------|------------------------------------*||
|----------------------------|----%----|----%----|-------------------------------------||
|----------------------------|---------|---------|------------------------------------*||
|----------------------------|---------|---------|-------------------------------------||
|--0-0-0--0--0--0-0-0--0--0--|---------|---------|--3-3-3--4-4-4--1-1-1--3-3-3--1-1-1--||

  Visit MetalTabs.com for more metal tablature