Menu:

 

Search:

 

lynyrd skynyrd - gimme three steps:

 



Title: Gimme Three Steps
Artist: 
Album: Pronounced leh-nerd skin-nerd
Author: Allen Collins and Ronnie Van Zant


Track 1: Untitled

E|---------------------------------|---------------------------------|---------------------------------|
B|---------------------------------|-------------7---7---------------|-----------------2---2-----------|
G|-7-------7-------7---7-------7---|-------------7---7---7-----------|-2-------2-------2---2-------2---|
D|-7-------7-------7---7-------7---|-----7-------7---7---7-----------|-2-------2-------2---2-------2---|
A|-------------9-----------9-------|-----7---9-----------7---9---0---|-0-------0---4---0---0---4---0---|
E|---------------------------------|---------------------------------|---------------------------------|


E|---------------------------------|---------------------------------|---------------------------------|
B|-------------2---2---------------|---------------------------------|-------------7---7---------------|
G|-------------2---2---------------|-7-------7-------7---7-------7---|-------------7---7---------------|
D|-------------2---2-----------0---|-7-------7-------7---7-------7---|-------------7---7---------------|
A|-----3---4-----------2---4-------|-------------9-----------9-------|-----7---9-----------7---9---0---|
E|---------------------------------|---------------------------------|-----------------------------0---|


E|---------------------------------|------------------------------|------------------------------|
B|---------------------------------|--------------------------7---|-7----7-----------------------|
G|-----------------------------7---|-7----7-------7---7-------7---|-7----7-------7---7-----------|
D|-7-------7-------7-----------7---|-7----7-------7---7-------7---|-7----7-------7---7-----------|
A|-7-------7-------7-------4---5---|-5----5-------5---5-------5---|-5----5-------5---5-------4---|
E|-5-------5-------5---0---2---5---|-5----5-------5---5-------5---|-5----5-------5---5-------4---|


E|---------------------------------|------------------------------|---------------------------------|
B|---------------------------------|------------------------------|---------------------------------|
G|---------------------------------|-----------------7----7-------|---------------------------------|
D|---------9-------7-------9---7---|-----7---9-------7----7-------|-7---------------------------7---|
A|-5-------5-------5-----------5---|-----5---5---5---5----5---6---|-7-------9-------7-------9---7---|
E|-5---------------5-----------5---|-----5---5---5---5----5---4---|-5-------5-------5-------5---5---|


E|---------------------------------|---------------------------------|---------------------------------|
B|---------------------------------|---------------------------------|---------------------------------|
G|---------------------------------|-7---------------7-----------7---|-----7-------7---7---------------|
D|---------------------------------|-7-------9-------7-------9---7---|-----7---9---7---7-------7-------|
A|-----7---9-------10------9---5---|-5-------5-------5-------5---5---|-----5---5---5---5---5---5---5---|
E|-----5---5---5---5---5---5---5---|---------5-------5-----------5---|-----5---5---------------5---5---|


E|---------------------------------|---------------------------|------------------------------|
B|---------------------------------|---------------------------|-3------------3-----------3---|
G|---------------------2-----------|----------2---2------------|-2-------4----2-------4---2---|
D|---------------------2-----------|----------2---2----0---0---|-0-------0----0-------0---0---|
A|-------------2---4-------4---0---|-0--------0---0----0---0---|---------0----0---0-------0---|
E|-0---3---4-----------------------|---------------------------|------------------------------|


E|---------------------------------|---------------------------|---------------------------------|
B|-----3-------3---3-------3-------|---------------------------|---------------------------------|
G|-----2---4---2---2---4---2-------|---------------------------|---------------------------------|
D|-----0---0---0---0---0---0-------|---------------------------|---------------------------------|
A|---------------------------------|-5----5----5---4---3---2---|-----2-------2-------2-------2---|
E|---------------------------------|-3----3----3---2---1---0---|-----0-------0-------0-------0---|


E|------------------------------|------------------------------|---------------------------------|
B|------------------------------|------------------------------|---------------------------------|
G|-7------------------------7---|-----7------------------------|-----------------------------7---|
D|-7-------9----7-------9---7---|-----7---9---7---7----9-------|-----------------------------7---|
A|-5-------5----5-------5---5---|-----5---5---5---5----5---6---|-7-------9-------10------9---5---|
E|-5------------------------5---|-----5-------5---5--------4---|-5---5-------5-------5---5-------|


E|---------------------------|---------------------------|------------------------------|
B|------7----7---7-----------|---------------------------|------------------------------|
G|-7----7----7---7-----------|-----------7---7-------6---|-7---------------7------------|
D|-7----7----7---7-------7---|-7----7----7---7-------6---|-7-------9-------7----9---7---|
A|-5----5----5---5-------5---|-5----5----5---5-------4---|-5-------5-------5--------5---|
E|-----------5---5-----------|-----------5---5-----------|---------5----------------5---|


E|---------------------------------|---------------------------------|---------------------------------|
B|---------------------------------|---------------------------------|---------------------------------|
G|-------------7---7---7---7-------|---------------------------------|---------------------------------|
D|-----7---9---7---7---7---9-------|---------------------------------|---------------------------------|
A|-----5---5---5---5---5---5---6---|-7-------9-------7-------9---7---|---------9-------10------9---5---|
E|-----5-----------------------4---|-5-------5-------5-----------5---|-----5-------5-------5-------5---|


E|---------------------------------|---------------------------------|---------------------------------|
B|---------------------------------|---------------------------------|---------------------------------|
G|-7---------------7---------------|-------------7---7---------------|-----------------------------2---|
D|-7-------9-------7-------9---7---|-----7---9---7---7---7---9-------|---------------------2-------2---|
A|-5-------5-------5-------5---5---|-----5-------5---5---5---5-------|-------------2---4-------3---0---|
E|-5---------------5---------------|---------------------5---5---5---|-0---3---4-----------------------|


E|------------------------------|---------------------------------|---------------------------------|
B|------------------------------|---------------------------------|---------------------------------|
G|-2-----------2----------------|-7---------------7---------------|-----7-------7---7---------------|
D|-2-----------2----------------|-7-------9-------7-------9---7---|-----7---9---7---7---7---9-------|
A|-0---3---4-------4--0----2----|-5-------5-------5-------5---5---|-----5-------5---5---5---5---5---|
E|-------------------------2----|-5---------------5-----------5---|-----5---------------5-------0---|


E|---------------------------|---------------------------------|---------------------------------|
B|---------------------------|---------------------------------|---------------------------------|
G|---------------------------|-----------------------------2---|-7---------------7-----------7---|
D|-----------------------2---|-2-------------------2---4-------|-7-------9-------7-------9---7---|
A|-5----5----5---4---3---2---|-2-----------2---4---------------|-5-------5-------5-------5---5---|
E|-3----3----3---2---1---0---|-0---0---4-----------------------|-5---------------5-----------5---|


E|---------------------------------|---------------------------------|------------------------------|
B|---------------------------------|-----------------------------7---|-7----7-------7---7-------7---|
G|-----7-------7---7---7-----------|-----------------------------7---|-7----7-------7---7-------7---|
D|-----7---9---7---7---7---9-------|-----------------------------7---|-7----7-------7---7-------7---|
A|-----5---5---5---5---5---5---6---|-7-------9-------10------9---5---|-5----5-------5---5-------5---|
E|-----5-----------------------4---|-5---5-------5-------5-----------|--------------------------5---|


E|------------------------------|---------------------------------|------------------------------|
B|-7----7-----------------------|---------------------------------|------------------------------|
G|-7----7-------7---7-----------|---------------------------------|-----------------7----7-------|
D|-7----7-------7---7-----------|---------9-------7-------9---7---|-----7---9-------7----7-------|
A|-5----5-------5---5-------4---|-5-------5-------5-----------5---|-----5---5---5---5----5---6---|
E|-5----5-------5---5-------4---|-5---------------5-----------5---|-----5---5---5---5----5---4---|


E|---------------------------------|---------------------------------|---------------------------------|
B|---------------------------------|---------------------------------|---------------------------------|
G|---------------------------------|---------------------------------|-7---------------7-----------7---|
D|-7---------------------------7---|---------------------------------|-7-------9-------7-------9---7---|
A|-7-------9-------7-------9---7---|-----7---9-------10------9---5---|-5-------5-------5-------5---5---|
E|-5-------5-------5-------5---5---|-----5---5---5---5---5---5---5---|---------5-------5-----------5---|


E|---------------------------------|---------------------------------|------------------------------|
B|---------------------------------|---------------------------------|------------------------------|
G|-----7-------7---7---------------|-----------------------------7---|-7----7-------7---7-------7---|
D|-----7---9---7---7-------7-------|-7-------7-------7-----------7---|-7----7-------7---7-------7---|
A|-----5---5---5---5---5---5---5---|-7-------7-------7-------4---5---|-5----5-------5---5-------5---|
E|-----5---5---------------5---5---|-5-------5---0---5---0---2-------|--------------5---5-------5---|


E|---------------------------|------------------------------|---------------------------------|
B|---------------------------|------------------------------|---------------------------------|
G|-7----7-------7--------6---|-7---------------7------------|-------------7---7---7---7-------|
D|-7----7-------7--------6---|-7-------9-------7----9---7---|-----7---9---7---7---7---9-------|
A|-5----5-------5--------4---|-5-------5-------5--------5---|-----5---5---5---5---5---5---6---|
E|-5----5-------5--------4---|---------5----------------5---|-----5-----------------------4---|


E|---------------------------------|---------------------------------|---------------------------------|
B|---------------------------------|---------------------------------|---------------------------------|
G|---------------------------------|---------------------------------|-7---------------7---------------|
D|---------------------------------|---------------------------------|-7-------9-------7-------9---7---|
A|-7-------9-------7-------9---7---|---------9-------10------9---5---|-5-------5-------5-------5---5---|
E|-5-------5-------5-------5---5---|-----5-------5-------5-------5---|-5---------------5---------------|


E|---------------------------------|---------------------------------|------------------------------|
B|---------------------------------|---------------------------------|------------------------------|
G|-------------7---7---------------|-----------------------------2---|-2-----------2----------------|
D|-----7---9---7---7---7---9-------|---------------------2-------2---|-2-----------2----------------|
A|-----5-------5---5---5---5-------|-------------2---4-------3---0---|-0---3---4-------4--0----2----|
E|---------------------5---5---5---|-0---3---4-----------------------|-----3-------------------2----|


E|---------------------------------|---------------------------------|---------------------------|
B|---------------------------------|---------------------------------|---------------------------|
G|-7---------------7---------------|-----7-------7---7---------------|---------------------------|
D|-7-------9-------7-------9---7---|-----7---9---7---7---7---9-------|-----------------------2---|
A|-5-------5-------5-------5---5---|-----5-------5---5---5---5---5---|-5----5----5---4---3---2---|
E|-5---------------5-----------5---|-----5---------------5-------0---|-3----3----3---2---1---0---|


E|---------------------------------|---------------------------------|---------------------------------|
B|---------------------------------|---------------------------------|---------------------------------|
G|-----------------------------2---|-7-------9-------7-----------7---|-----7-------7---7---7-----------|
D|-2-------------------2---4-------|-7-------9-------7-------9---7---|-----7---9---7---7---7---9-------|
A|-2-----------2---4---------------|-----------------5-----------5---|-----5---5---5---5---5---5---6---|
E|-0---0---4-----------------------|-----------------5-----------5---|-----5-----------------------4---|


E|---------------------------------|------------------------------|------------------------------|
B|-----------------------------7---|-7----7-------7---7-------7---|-7----7-------7---7-----------|
G|-----------------------------7---|-7----7-------7---7-------7---|-7----7-------7---7-----------|
D|-----------------------------7---|-7----7-------7---7-------7---|-7----7-------7---7-------7---|
A|-7-------9-------10------9---5---|-5----5-------5---5-------5---|-5----5-------5---5-------5---|
E|-5---5-------5-------5-----------|--------------------------5---|-5----5-------------------5---|


E|--------|--------|--------|--------|--------|--------|--------|------------------------------|
B|--------|--------|--------|--------|--------|--------|--------|-7------------------------7---|
G|--------|--------|--------|--------|--------|--------|--------|-7----7-------7---7-------7---|
D|--------|--------|--------|--------|--------|--------|--------|-7----7-------7---7-------7---|
A|--------|--------|--------|--------|--------|--------|--------|-5----5-------5---5-------5---|
E|--------|--------|--------|--------|--------|--------|--------|-5----------------------------|


E|------------------------|--------|--------|--------|--------|--------|--------|--------|
B|-7----------------------|--------|--------|--------|--------|--------|--------|--------|
G|-7----7-------7---------|--------|--------|--------|--------|--------|--------|--------|
D|-7----7-------7---------|--------|--------|--------|--------|--------|--------|--------|
A|-5----5-------5---------|--------|--------|--------|--------|--------|--------|--------|
E|------------------------|--------|--------|--------|--------|--------|--------|--------|


E|--------|--------|--------|--------|--------|--------|--------|-----------------------|
B|--------|--------|--------|--------|--------|--------|--------|-----------------------|
G|--------|--------|--------|--------|--------|--------|--------|-----------------------|
D|--------|--------|--------|--------|--------|--------|--------|-----------3---2---0---|
A|--------|--------|--------|--------|--------|--------|--------|-----------------------|
E|--------|--------|--------|--------|--------|--------|--------|-----------------------|


E|--------------------------------|------------------------------|------------------------------|
B|--------------------------------|------------------------------|------------------------------|
G|--------------------------------|------2-------2---2-------2---|-7---------------7------------|
D|-0----0--0--0---0-----------0---|-0----0-------0---0-------0---|-7-------9-------7----9---7---|
A|--------------------0---2-------|------------------------------|-5-------5-------5--------5---|
E|--------------------------------|------------------------------|---------5----------------5---|


E|---------------------------------|---------------------------------|---------------------------------|
B|---------------------------------|---------------------------------|---------------------------------|
G|-------------7---7---7---7-------|---------------------------------|---------------------------------|
D|-----7---9---7---7---7---9-------|---------------------------------|---------------------------------|
A|-----5---5---5---5---5---5---6---|-7-------9-------7-------9---7---|---------9-------10------9---5---|
E|-----5-----------------------4---|-5-------5-------5-------5---5---|-----5-------5-------5-------5---|


E|---------------------------------|---------------------------------|---------------------------------|
B|---------------------------------|---------------------------------|---------------------------------|
G|-7---------------7---------------|-------------7---7---------------|-----------------------------2---|
D|-7-------9-------7-------9---7---|-----7---9---7---7---7---9-------|---------------------2-------2---|
A|-5-------5-------5-------5---5---|-----5-------5---5---5---5-------|-------------2---4-------3---0---|
E|-5---------------5---------------|---------------------5---5---5---|-0---3---4-----------------------|


E|------------------------------|---------------------------------|---------------------------------|
B|------------------------------|---------------------------------|---------------------------------|
G|-2-----------2----------------|-7---------------7---------------|-----7-------7---7---------------|
D|-2-----------2----------------|-7-------9-------7-------9---7---|-----7---9---7---7---7---9-------|
A|-0---3---4-------4--0----2----|-5-------5-------5-------5---5---|-----5-------5---5---5---5---5---|
E|-------------------------2----|-5---------------5-----------5---|-----5---------------5-------0---|


E|---------------------------|---------------------------------|---------------------------------|
B|---------------------------|---------------------------------|---------------------------------|
G|---------------------------|-----------------------------2---|-7-------9-------7-----------7---|
D|-----------------------2---|-2-------------------2---4-------|-7-------9-------7-------9---7---|
A|-5----5----5---4---3---2---|-2-----------2---4---------------|-----------------5-----------5---|
E|-3----3----3---2---1---0---|-0---0---4-----------------------|-----------------5-----------5---|


E|---------------------------------|---------------------------------|------------------------------|
B|---------------------------------|-----------------------------7---|-7----7-------7---7-------7---|
G|-----7-------7---7---7-----------|-----------------------------7---|-7----7-------7---7-------7---|
D|-----7---9---7---7---7---9-------|-----------------------------7---|-7----7-------7---7-------7---|
A|-----5---5---5---5---5---5---6---|-7-------9-------10------9---5---|-5----5-------5---5-------5---|
E|-----5-----------------------4---|-5---5-------5-------5-----------|--------------------------5---|


E|------------------------------|--------|--------|--------|--------|--------|--------|
B|-7----7-------7---7-----------|--------|--------|--------|--------|--------|--------|
G|-7----7-------7---7-----------|--------|--------|--------|--------|--------|--------|
D|-7----7-------7---7-------7---|--------|--------|--------|--------|--------|--------|
A|-5----5-------5---5-------5---|--------|--------|--------|--------|--------|--------|
E|-5----5-------------------5---|--------|--------|--------|--------|--------|--------|


E|--------|------------------------------|--------|--------|--------|--------|--------|
B|--------|-7------------------------7---|--------|--------|--------|--------|--------|
G|--------|-7----7-------7---7-------7---|--------|--------|--------|--------|--------|
D|--------|-7----7-------7---7-------7---|--------|--------|--------|--------|--------|
A|--------|-5----5-------5---5-------5---|--------|--------|--------|--------|--------|
E|--------|-5----------------------------|--------|--------|--------|--------|--------|


E|--------|--------|---------------------------------|---------------------------|
B|--------|--------|---------------------------------|---------------------------|
G|--------|--------|---------------------2-----------|----------2---2------------|
D|--------|--------|---------------------2-----------|----------2---2----0---0---|
A|--------|--------|-------------2---4-------4---0---|-0--------0---0----0---0---|
E|--------|--------|-0---3---4-----------------------|---------------------------|


E|------------------------------|---------------------------------|---------------------------|
B|-3------------3-----------3---|-----3-------3---3-------3-------|---------------------------|
G|-2-------4----2-------4---2---|-----2---4---2---2---4---2-------|---------------------------|
D|-0-------0----0-------0---0---|-----0---0---0---0---0---0-------|---------------------------|
A|---------0----0---0-------0---|---------------------------------|-5----5----5---4---3---2---|
E|------------------------------|---------------------------------|-3----3----3---2---1---0---|


E|---------------------------|------------------------------|------------------------------|
B|---------------------------|-3------------------------3---|-----3------------------------|
G|---------------------------|-2-------4----2-------4---2---|-----2---4---2---2----4-------|
D|----------2---2------------|-0-------0----0-------0---0---|-----0---0---0---0----0-------|
A|-2--------2---2--------5---|-0------------------------0---|-----0-------0---0--------6---|
E|-0--------0---0--------5---|------------------------------|--------------------------4---|


E|---------------------------------|---------------------------|---------------------------|
B|---------------------------------|------7----7---7-----------|---------------------------|
G|-----------------------------7---|-7----7----7---7-----------|-----------7---7-------6---|
D|-----------------------------7---|-7----7----7---7-------7---|-7----7----7---7-------6---|
A|-7-------9-------10------9---5---|-5----5----5---5-------5---|-5----5----5---5-------4---|
E|-5---5-------5-------5---5-------|-----------5---5-----------|-----------5---5-----------|


E|---------------------------------|------------------------------|---------------------------------|
B|---------------------------------|------------------------------|---------------------------------|
G|---------------------------------|-----------------7----7-------|---------------------------------|
D|---------9-------7-------9---7---|-----7---9-------7----7-------|-7---------------------------7---|
A|-5-------5-------5-----------5---|-----5---5---5---5----5---6---|-7-------9-------7-------9---7---|
E|-5---------------5-----------5---|-----5---5---5---5----5---4---|-5-------5-------5-------5---5---|


E|---------------------------------|---------------------------------|---------------------------------|
B|---------------------------------|---------------------------------|---------------------------------|
G|---------------------------------|-7---------------7-----------7---|-----7-------7---7---------------|
D|---------------------------------|-7-------9-------7-------9---7---|-----7---9---7---7-------7-------|
A|-----7---9-------10------9---5---|-5-------5-------5-------5---5---|-----5---5---5---5---5---5---5---|
E|-----5---5---5---5---5---5---5---|---------5-------5-----------5---|-----5---5---------------5---5---|


E|---------------------------------|---------------------------|------------------------------|
B|-----------------------------2---|---------------------------|-3------------3-----------3---|
G|-9---9-------9---9---9-------2---|----------2---2------------|-2-------4----2-------4---2---|
D|-9---9---11--9---9---9-------2---|----------2---2----0---0---|-0-------0----0-------0---0---|
A|-7---7-------7---7---7-------0---|-0--------0---0----0---0---|---------0----0---0-------0---|
E|-0---0-------0---0---0-----------|---------------------------|------------------------------|


E|---------------------------------|---------------------------|
B|-----3-------3---3-------3-------|---------------------------|
G|-----2---4---2---2---4---2-------|---------------------------|
D|-----0---0---0---0---0---0-------|---------------------------|
A|---------------------------------|-5----5----5---4---3---2---|
E|---------------------------------|-3----3----3---2---1---0---|





Track 2: Untitled

E|--------|--------|--------|--------------------|---------------------------------|
B|--------|--------|--------|--------------------|---------------------------------|
G|--------|--------|--------|--------------------|-7-------7-------7---7-------7---|
D|--------|--------|--------|----------------0---|-7-------7-------7---7-------7---|
A|--------|--------|--------|------------4-------|-------------9-----------9-------|
E|--------|--------|--------|--------------------|---------------------------------|


E|---------------------------------|---------------------------------|------------------------------|
B|-------------7---7---------------|---------------------------------|--------------------------7---|
G|-------------7---7---------------|-----------------------------7---|-7----7-------7---7-------7---|
D|-------------7---7-------9-------|-7-------7-------7-----------7---|-7----7-------7---7-------7---|
A|-----7---9-----------7---9-------|-7-------7-------7-------4---5---|-5----5-------5---5-------5---|
E|-----------------------------0---|-5-------5-------5---0---2---5---|-5----5-------5---5-------5---|


E|--------|--------|--------|--------|--------|--------|--------|--------|--------|
B|--------|--------|--------|--------|--------|--------|--------|--------|--------|
G|--------|--------|--------|--------|--------|--------|--------|--------|--------|
D|--------|--------|--------|--------|--------|--------|--------|--------|--------|
A|--------|--------|--------|--------|--------|--------|--------|--------|--------|
E|--------|--------|--------|--------|--------|--------|--------|--------|--------|


E|--------|--------|--------|--------|--------|--------|--------|--------|--------|
B|--------|--------|--------|--------|--------|--------|--------|--------|--------|
G|--------|--------|--------|--------|--------|--------|--------|--------|--------|
D|--------|--------|--------|--------|--------|--------|--------|--------|--------|
A|--------|--------|--------|--------|--------|--------|--------|--------|--------|
E|--------|--------|--------|--------|--------|--------|--------|--------|--------|


E|--------|--------|--------|--------|--------|--------|--------|--------|---------------------------------|
B|--------|--------|--------|--------|--------|--------|--------|--------|---------------------------------|
G|--------|--------|--------|--------|--------|--------|--------|--------|-7---------------7---------------|
D|--------|--------|--------|--------|--------|--------|--------|--------|-7-------9-------7-------9---7---|
A|--------|--------|--------|--------|--------|--------|--------|--------|-5-------5-------5-------5---5---|
E|--------|--------|--------|--------|--------|--------|--------|--------|-5---------------5-----------5---|


E|---------------------------------|---------------------------|---------------------------------|
B|---------------------------------|---------------------------|-----------------------------3---|
G|-----7-------7---7---------------|---------------------------|---------------------2---4-------|
D|-----7---9---7---7---7---9-------|-----------------------2---|-2-----------2---4---------------|
A|-----5-------5---5---5---5---5---|-5----5----5---4---3---2---|-2-------4-----------------------|
E|-----5---------------5-------0---|-3----3----3---2---1---0---|-0---0---------------------------|


E|--------|--------|--------|--------|--------|--------|--------|--------|--------|
B|--------|--------|--------|--------|--------|--------|--------|--------|--------|
G|--------|--------|--------|--------|--------|--------|--------|--------|--------|
D|--------|--------|--------|--------|--------|--------|--------|--------|--------|
A|--------|--------|--------|--------|--------|--------|--------|--------|--------|
E|--------|--------|--------|--------|--------|--------|--------|--------|--------|


E|--------|--------|--------|--------|--------|--------|--------|--------|--------|
B|--------|--------|--------|--------|--------|--------|--------|--------|--------|
G|--------|--------|--------|--------|--------|--------|--------|--------|--------|
D|--------|--------|--------|--------|--------|--------|--------|--------|--------|
A|--------|--------|--------|--------|--------|--------|--------|--------|--------|
E|--------|--------|--------|--------|--------|--------|--------|--------|--------|


E|---------------------------------|---------------------------------|---------------------------------|
B|---------------------------------|---------------------------------|---------------------------------|
G|-7---------------7---------------|-------------7---7---------------|-----------------------------2---|
D|-7-------9-------7-------9---7---|-----7---9---7---7---7---9-------|---------------------2-------2---|
A|-5-------5-------5-------5---5---|-----5-------5---5---5---5-------|-------------2---4-------3---0---|
E|-5---------------5---------------|---------------------5---5---5---|-0---3---4-----------------------|


E|------------------------------|---------------------------------|---------------------------------|
B|------------------------------|---------------------------------|---------------------------------|
G|-2-----------2----------------|-7---------------7---------------|-----7-------7---7---------------|
D|-2-----------2----------------|-7-------9-------7-------9---7---|-----7---9---7---7---7---9-------|
A|-0---3---4-------4--0----2----|-5-------5-------5-------5---5---|-----5-------5---5---5---5---5---|
E|-------------------------2----|-5---------------5-----------5---|-----5---------------5-------0---|


E|---------------------------|---------------------------------|--------|--------|
B|---------------------------|-----------------------------3---|--------|--------|
G|---------------------------|---------------------2---4-------|--------|--------|
D|-----------------------2---|-2-----------2---4---------------|--------|--------|
A|-5----5----5---4---3---2---|-2-------4-----------------------|--------|--------|
E|-3----3----3---2---1---0---|-0---0---------------------------|--------|--------|


E|--------|--------|--------|--------|--------|--------|--------|--------|--------|
B|--------|--------|--------|--------|--------|--------|--------|--------|--------|
G|--------|--------|--------|--------|--------|--------|--------|--------|--------|
D|--------|--------|--------|--------|--------|--------|--------|--------|--------|
A|--------|--------|--------|--------|--------|--------|--------|--------|--------|
E|--------|--------|--------|--------|--------|--------|--------|--------|--------|


E|--------|--------|--------|--------|--------|--------|--------|--------|--------|
B|--------|--------|--------|--------|--------|--------|--------|--------|--------|
G|--------|--------|--------|--------|--------|--------|--------|--------|--------|
D|--------|--------|--------|--------|--------|--------|--------|--------|--------|
A|--------|--------|--------|--------|--------|--------|--------|--------|--------|
E|--------|--------|--------|--------|--------|--------|--------|--------|--------|


E|--------|--------|--------|--------|--------|--------|--------|--------|--------|
B|--------|--------|--------|--------|--------|--------|--------|--------|--------|
G|--------|--------|--------|--------|--------|--------|--------|--------|--------|
D|--------|--------|--------|--------|--------|--------|--------|--------|--------|
A|--------|--------|--------|--------|--------|--------|--------|--------|--------|
E|--------|--------|--------|--------|--------|--------|--------|--------|--------|


E|--------|--------|------------------------------|---------------------------------|
B|--------|--------|------------------------------|---------------------------------|
G|--------|--------|-7---------------7--------7---|-------------7---7---7---7-------|
D|--------|--------|-7-------9-------7----9---7---|-----7---9---7---7---7---9-------|
A|--------|--------|-5---5---5-------5--------5---|-----5---5---5---5---5---5---6---|
E|--------|--------|-----5---5--------------------|-----5-----------------------4---|


E|---------------------------------|---------------------------------|--------|--------|
B|---------------------------------|---------------------------------|--------|--------|
G|---------------------------------|---------------------------------|--------|--------|
D|---------------------------------|---------------------------------|--------|--------|
A|-7-------9-------7-------9---7---|---------9-------10------9---5---|--------|--------|
E|-5-------5-------5-------5---5---|-----5-------5-------5-------5---|--------|--------|


E|--------|--------|---------------------------------|---------------------------------|
B|--------|--------|---------------------------------|---------------------------------|
G|--------|--------|-7---------------7---------------|-----7-------7---7---------------|
D|--------|--------|-7-------9-------7-------9---7---|-----7---9---7---7---7---9-------|
A|--------|--------|-5-------5-------5-------5---5---|-----5-------5---5---5---5---5---|
E|--------|--------|-5---------------5-----------5---|-----5---------------5-------0---|


E|---------------------------|---------------------------------|--------|--------|
B|---------------------------|-----------------------------3---|--------|--------|
G|---------------------------|---------------------2---4-------|--------|--------|
D|-----------------------2---|-2-----------2---4---------------|--------|--------|
A|-5----5----5---4---3---2---|-2-------4-----------------------|--------|--------|
E|-3----3----3---2---1---0---|-0---0---------------------------|--------|--------|


E|--------|--------|--------|--------|--------|--------|--------|--------|--------|
B|--------|--------|--------|--------|--------|--------|--------|--------|--------|
G|--------|--------|--------|--------|--------|--------|--------|--------|--------|
D|--------|--------|--------|--------|--------|--------|--------|--------|--------|
A|--------|--------|--------|--------|--------|--------|--------|--------|--------|
E|--------|--------|--------|--------|--------|--------|--------|--------|--------|


E|--------|--------|--------|--------|--------|--------|--------|--------|--------|
B|--------|--------|--------|--------|--------|--------|--------|--------|--------|
G|--------|--------|--------|--------|--------|--------|--------|--------|--------|
D|--------|--------|--------|--------|--------|--------|--------|--------|--------|
A|--------|--------|--------|--------|--------|--------|--------|--------|--------|
E|--------|--------|--------|--------|--------|--------|--------|--------|--------|


E|--------|--------|--------|--------|--------|--------|--------|--------|--------|
B|--------|--------|--------|--------|--------|--------|--------|--------|--------|
G|--------|--------|--------|--------|--------|--------|--------|--------|--------|
D|--------|--------|--------|--------|--------|--------|--------|--------|--------|
A|--------|--------|--------|--------|--------|--------|--------|--------|--------|
E|--------|--------|--------|--------|--------|--------|--------|--------|--------|


E|--------|--------|--------|--------|--------|--------|--------|--------|--------|
B|--------|--------|--------|--------|--------|--------|--------|--------|--------|
G|--------|--------|--------|--------|--------|--------|--------|--------|--------|
D|--------|--------|--------|--------|--------|--------|--------|--------|--------|
A|--------|--------|--------|--------|--------|--------|--------|--------|--------|
E|--------|--------|--------|--------|--------|--------|--------|--------|--------|


E|--------|--------|--------|--------|
B|--------|--------|--------|--------|
G|--------|--------|--------|--------|
D|--------|--------|--------|--------|
A|--------|--------|--------|--------|
E|--------|--------|--------|--------|





Track 3: Untitled

E|--------|--------|--------|--------|--------|--------|--------|--------|-----------------------|
B|--------|--------|--------|--------|--------|--------|--------|--------|-----------10--10--10--|
G|--------|--------|--------|--------|--------|--------|--------|--------|-----------9---9---9---|
D|--------|--------|--------|--------|--------|--------|--------|--------|-----------------------|
A|--------|--------|--------|--------|--------|--------|--------|--------|-----------------------|
E|--------|--------|--------|--------|--------|--------|--------|--------|-----------------------|


E|---------------------------------|---------------------------------|---------------------------------|
B|-10--10--7-------7-------7---10--|-10--10--7-------7---9---7---7---|-----5---5---5---5---------------|
G|-9---9---7-------7-------7---9---|-9---9---7-------7---9---7---7---|-----4---4---4---4---4-----------|
D|---------------------9-----------|-------------9-------------------|---------------------------------|
A|---------------------------------|---------------------------------|-------------------------4---0---|
E|---------------------------------|---------------------------------|---------------------------------|


E|-----------------------|-----------------------------------|---------------------------------|
B|-----------------------|-10--10--7---10-10-10------10--10--|-10--10--7-------7---9-----------|
G|-------------------7---|-9---9---7---9--9--9---7---9---9---|-9---9---7-------7---9---7---7---|
D|-----------7---9-------|-----------------------------------|-------------9-------------------|
A|-0-----0---------------|-----------------------------------|---------------------------------|
E|-----------------------|-----------------------------------|---------------------------------|


E|---------------------------------|---------------------------|---------------------------------|
B|---------------------------------|------10--10--10---2-------|-----10--10--10--7-------7---10--|
G|---------------------------------|------9---9---9----2-------|-----9---9---9---7-------7---9---|
D|---------------------2-----------|---------------------------|---------------------9-----------|
A|-------------2---4-------4---0---|-0-------------------------|---------------------------------|
E|-0---3---4-----------------------|---------------------------|---------------------------------|


E|-----10--------------10----------|---------------------------------|---------------------------|
B|-10----------10--10--------------|-----8-------8-------------------|----------10--10---10-10---|
G|-9-----------9---9---------------|---------------------------------|----------9---9----9--9----|
D|-----------------------------2---|-5-------5-------5---4---3---2---|-2-------------------------|
A|---------------------------------|---------------------------------|---------------------------|
E|---------------------------------|---------------------------------|---------------------------|


E|---------------------------------|---------------------------------|------------------------------|
B|-10--10--7-------7-------7---10--|-10--10--7-------7---9---7---7---|-2-------2-------2----2-------|
G|-9---9---7-------7-------7---9---|-9---9---7-------7---9---7---7---|-2-------2-------2----2---7---|
D|---------------------9-----------|-------------9-------------------|--------------------------7---|
A|---------------------------------|---------------------------------|--------------------------5---|
E|---------------------------------|---------------------------------|------------------------------|


E|------------------------------|---------------------------|--------|--------|--------|
B|------7-------7---7-----------|---------------------------|--------|--------|--------|
G|-7----7-------7---7-----------|-----------7---7---7-------|--------|--------|--------|
D|-7----7-------7---7-------7---|-7----7----7---7---7-------|--------|--------|--------|
A|-5----5-------5---5-------5---|-5----5----5---5---5-------|--------|--------|--------|
E|------------------------------|---------------------------|--------|--------|--------|


E|--------|--------|--------|--------|--------|--------|--------|--------|--------|
B|--------|--------|--------|--------|--------|--------|--------|--------|--------|
G|--------|--------|--------|--------|--------|--------|--------|--------|--------|
D|--------|--------|--------|--------|--------|--------|--------|--------|--------|
A|--------|--------|--------|--------|--------|--------|--------|--------|--------|
E|--------|--------|--------|--------|--------|--------|--------|--------|--------|


E|--------|--------|--------|--------|--------------------|---------------------------------|
B|--------|--------|--------|--------|-----------10--10---|-10--10--7-------7-------7---10--|
G|--------|--------|--------|--------|-----------9---9----|-9---9---7-------7-------7---9---|
D|--------|--------|--------|--------|--------------------|---------------------9-----------|
A|--------|--------|--------|--------|--------------------|---------------------------------|
E|--------|--------|--------|--------|--------------------|---------------------------------|


E|---------------------------------|---------------------------|---------------------------------|
B|-10--10--7-------7---9---7---5---|-5----5----5---5---2-------|-5---5---2-------2---4---2---4---|
G|-9---9---7-------7---9---7---4---|-4----4----4---4---2-------|-4---4---2-------2---4---2---4---|
D|-------------9-------------------|-----------------------4---|-------------4-------------------|
A|---------------------------------|---------------------------|---------------------------------|
E|---------------------------------|---------------------------|---------------------------------|


E|---------------------------------|------------------------------|---------------------------------|
B|-10--10--10--10--10--10--10--10--|-10--10--7-------7---9---7----|-2-------2-------2---------------|
G|-9---9---9---9---9---9---9---9---|-9---9---7-------7---9---7----|-2-------2-------2-----------2---|
D|---------------------------------|-------------9----------------|---------------------2---4---0---|
A|---------------------------------|------------------------------|---------------------------------|
E|---------------------------------|------------------------------|---------------------------------|


E|------------------------------|------------------------|--------|--------|--------|
B|------------------------------|--------------7---7-----|--------|--------|--------|
G|-2----7-------7---7-------7---|-7----7-------7---7-----|--------|--------|--------|
D|-0----7-------7---7-------7---|-7----7-------7---7-----|--------|--------|--------|
A|------5-------5---5-------5---|-5----5-------5---5-----|--------|--------|--------|
E|------------------------------|------------------------|--------|--------|--------|


E|--------|--------|--------|--------|--------|--------|--------|--------|--------|
B|--------|--------|--------|--------|--------|--------|--------|--------|--------|
G|--------|--------|--------|--------|--------|--------|--------|--------|--------|
D|--------|--------|--------|--------|--------|--------|--------|--------|--------|
A|--------|--------|--------|--------|--------|--------|--------|--------|--------|
E|--------|--------|--------|--------|--------|--------|--------|--------|--------|


E|--------|--------|--------|--------|--------|--------|--------|--------|------------------------------|
B|--------|--------|--------|--------|--------|--------|--------|--------|------------------------------|
G|--------|--------|--------|--------|--------|--------|--------|--------|-----4---4---2---2---4---2----|
D|--------|--------|--------|--------|--------|--------|--------|--------|------------------------------|
A|--------|--------|--------|--------|--------|--------|--------|--------|------------------------------|
E|--------|--------|--------|--------|--------|--------|--------|--------|------------------------------|


E|--------------------|--------|--------|--------|-----------------------|---------------------------------|
B|--------------------|--------|--------|--------|-----------------------|---------------------------------|
G|-2------------------|--------|--------|--------|-------------------7---|-10--9---7---10--9---7---10--9---|
D|--------------------|--------|--------|--------|-----------7-----------|-10--9---7---10--9---7---10--9---|
A|--------------------|--------|--------|--------|-----------7---9-------|---------------------------------|
E|--------------------|--------|--------|--------|-----------------------|---------------------------------|


E|---------------------------------|---------------------------|---------------------------------|
B|-----------------------------5---|-5----5----5---5---2-------|-5---5---2-------2---3---2-------|
G|-7---10--9---7---10--9---7---4---|-4----4----4---4---2-------|-4---4---2-------2---4---2-------|
D|-7---10--9---7---10--9---7-------|-----------------------4---|-------------4---------------4---|
A|---------------------------------|---------------------------|---------------------------------|
E|---------------------------------|---------------------------|---------------------------------|


E|---------------------------------|---------------------------------|---------------------------------|
B|---------------------------------|---------------------------------|-----------------------------2---|
G|-10--9---7---10--9---7---10--9---|-7---10--9---7---10--9---7---7---|-----------------------------2---|
D|-10--9---7---10--9---7---10--9---|-7---10--9---7---10--9---7---7---|---------------------2-------2---|
A|---------------------------------|---------------------------------|-------------2---4-------3---0---|
E|---------------------------------|---------------------------------|-0---3---4-----------------------|


E|----------9---9------------|---------------------------------|---------------------------------|
B|-2----9---10--10--2--------|---------------------------------|---------------------------------|
G|-2----9---9---9---2---11---|-10--9---7---10--9---7---10--9---|-7---10--9---7---10--9---7-------|
D|-2--------------------11---|-10--9---7---10--9---7---10--9---|-7---10--9---7---10--9---7---3---|
A|-0-------------------------|---------------------------------|---------------------------------|
E|---------------------------|---------------------------------|---------------------------------|


E|---------------------------------|-------------|---------------------------------|
B|-----8-------8-------------------|-------------|---------------------------------|
G|---------------------9---11--9---|-9------9----|-10--9---7---10--9---7---10--9---|
D|-5-------5-------11--------------|-------------|-10--9---7---10--9---7---10--9---|
A|---------------------------------|-------------|---------------------------------|
E|---------------------------------|-------------|---------------------------------|


E|---------------------------------|---------------------------------|------------------------------|
B|---------------------------------|---------------------------------|--------------7---7-------7---|
G|-7---10--9---7---10--9---7---4---|-5---4---2---5---4---10--9---7---|-7----7-------7---7-------7---|
D|-7---10--9---7---10--9---7---4---|-5---4---2---5---4---10--9---7---|-7----7-------7---7-------7---|
A|---------------------------------|-----------------------------5---|-5----5-------5---5-------5---|
E|---------------------------------|---------------------------------|------------------------------|


E|---------------------------|--------|--------|--------|--------|--------|--------|
B|-7-------------------------|--------|--------|--------|--------|--------|--------|
G|-7----7-------7---7---7----|--------|--------|--------|--------|--------|--------|
D|-7----7-------7---7---7----|--------|--------|--------|--------|--------|--------|
A|-5----5-------5---5---5----|--------|--------|--------|--------|--------|--------|
E|---------------------------|--------|--------|--------|--------|--------|--------|


E|--------|--------|--------|--------|--------|--------|--------|--------|--------|
B|--------|--------|--------|--------|--------|--------|--------|--------|--------|
G|--------|--------|--------|--------|--------|--------|--------|--------|--------|
D|--------|--------|--------|--------|--------|--------|--------|--------|--------|
A|--------|--------|--------|--------|--------|--------|--------|--------|--------|
E|--------|--------|--------|--------|--------|--------|--------|--------|--------|


E|--------|--------|--------|--------|--------|--------|--------|--------|--------|
B|--------|--------|--------|--------|--------|--------|--------|--------|--------|
G|--------|--------|--------|--------|--------|--------|--------|--------|--------|
D|--------|--------|--------|--------|--------|--------|--------|--------|--------|
A|--------|--------|--------|--------|--------|--------|--------|--------|--------|
E|--------|--------|--------|--------|--------|--------|--------|--------|--------|


E|--------|-----------------------|---------------------------------|------------------------------|
B|--------|-----------10--10--10--|-10--10--10--10--10--10--10--10--|-10--10--7-------7---9---7----|
G|--------|-----------9---9---9---|-9---9---9---9---9---9---9---9---|-9---9---7-------7---9---7----|
D|--------|-----------------------|---------------------------------|-------------9----------------|
A|--------|-----------------------|---------------------------------|------------------------------|
E|--------|-----------------------|---------------------------------|------------------------------|


E|---------------------------------|-------------------------------------|---------------------------------|
B|---------------------------------|---------------------------------5---|-10--10--10--10--10--10--10--10--|
G|---------2-----------2---4---4---|-4---4--2--4---2---4--2------2---4---|-9---9---9---9---9---9---9---9---|
D|---------------------------------|-------------------------4-----------|---------------------------------|
A|-3---4-------3---4---------------|-------------------------------------|---------------------------------|
E|---------------------------------|-------------------------------------|---------------------------------|


E|------------------------------|---------------------------------|---------------------------|
B|-7-------7---10--10--10--7----|---------------------------------|----------10--10---10--10--|
G|-7-------7---9---9---9---7----|---------------------------------|----------9---9----9---9---|
D|-----9------------------------|---------------------2-----------|---------------------------|
A|------------------------------|-------------2---4-------3---0---|-0-------------------------|
E|------------------------------|-0---3---4-----------------------|---------------------------|


E|---------------------------------|------------------------------|---------------------------------|
B|-10--10--10--10--10--10--10--10--|-10-10---7-------7---9---7----|-----8-------8-------------------|
G|-9---9---9---9---9---9---9---9---|-9--9----7-------7---9---7----|---------------------------------|
D|---------------------------------|-------------9----------------|-5-------5-------5---4---3---2---|
A|---------------------------------|------------------------------|---------------------------------|
E|---------------------------------|------------------------------|---------------------------------|


E|------------------------------|---------------------------------|------------------------------|
B|----------10--10--10--10--10--|-10--10--10--10--7-------7---10--|-10--10--7-------7---9---7----|
G|----------9---9---9---9---9---|-9---9---9---9---7-------7---9---|-9---9---7-------7---9---7----|
D|-2----------------------------|---------------------9-----------|-------------9----------------|
A|------------------------------|---------------------------------|------------------------------|
E|------------------------------|---------------------------------|------------------------------|


E|--------------------------2---|-2----2-------2---2-------2---|-2-------------------------|
B|-2-------2-------2----0---3---|-3----3-------3---3-------3---|-3----3----3---10--10--10--|
G|-2-------2-------2--------2---|-2----2-------2---2-------2---|-2----2----2---9---9---9---|
D|--------------------------0---|-0----0-------0---0-------0---|-0----0--------------------|
A|------------------------------|------------------------------|---------------------------|
E|------------------------------|------------------------------|---------------------------|


E|---------------------------------|------------------------------|---------------------------------|
B|-10--10--7-------7-------7---10--|-10--10--7-------7---9---7----|-2---10--17--17--17--17--14------|
G|-9---9---7-------7-------7---9---|-9---9---7-------7---9---7----|-2---9---16--16--16--16--14------|
D|---------------------9-----------|-------------9----------------|-----------------------------16--|
A|---------------------------------|------------------------------|---------------------------------|
E|---------------------------------|------------------------------|---------------------------------|


E|---------------------------------|---------------------------------|---------------------------------|
B|-17--17--14------14--16--14--10--|-10--10--10--10--10--10--7-------|-10--10--7-------7---9-----------|
G|-16--16--14------14--16--14--9---|-9---9---9---9---9---9---7-------|-9---9---7-------7---9---7---7---|
D|-------------16------------------|-----------------------------9---|-------------9-------------------|
A|---------------------------------|---------------------------------|---------------------------------|
E|---------------------------------|---------------------------------|---------------------------------|


E|---------------------------------|----------9---9----9-------|---------------------------------|
B|---------------------------------|------10--10--10---10------|-----10--10--10--7-------7---10--|
G|---------------------------------|------9---9---9----9-------|-----9---9---9---7-------7---9---|
D|---------------------2-----------|---------------------------|---------------------9-----------|
A|-------------2---4-------3---0---|-0-------------------------|---------------------------------|
E|-0---3---4-----------------------|---------------------------|---------------------------------|


E|-----10--------------10-------|---------------------------------|
B|-10----------10--10------7----|-----8-------8-------------------|
G|-9-----------9---9-------7----|---------------------------------|
D|------------------------------|-5-------5-------5---4---3---2---|
A|------------------------------|---------------------------------|
E|------------------------------|---------------------------------|





Track 4: Untitled

E|--------|--------|--------|--------|--------|--------|--------|--------|--------|
B|--------|--------|--------|--------|--------|--------|--------|--------|--------|
G|--------|--------|--------|--------|--------|--------|--------|--------|--------|
D|--------|--------|--------|--------|--------|--------|--------|--------|--------|
A|--------|--------|--------|--------|--------|--------|--------|--------|--------|
E|--------|--------|--------|--------|--------|--------|--------|--------|--------|


E|--------|--------|--------|--------|--------|--------|--------|--------|--------|
B|--------|--------|--------|--------|--------|--------|--------|--------|--------|
G|--------|--------|--------|--------|--------|--------|--------|--------|--------|
D|--------|--------|--------|--------|--------|--------|--------|--------|--------|
A|--------|--------|--------|--------|--------|--------|--------|--------|--------|
E|--------|--------|--------|--------|--------|--------|--------|--------|--------|


E|--------|--------|--------|--------|--------|--------|--------|--------|--------|
B|--------|--------|--------|--------|--------|--------|--------|--------|--------|
G|--------|--------|--------|--------|--------|--------|--------|--------|--------|
D|--------|--------|--------|--------|--------|--------|--------|--------|--------|
A|--------|--------|--------|--------|--------|--------|--------|--------|--------|
E|--------|--------|--------|--------|--------|--------|--------|--------|--------|


E|--------|--------|--------|--------|--------|--------|--------|--------|--------|
B|--------|--------|--------|--------|--------|--------|--------|--------|--------|
G|--------|--------|--------|--------|--------|--------|--------|--------|--------|
D|--------|--------|--------|--------|--------|--------|--------|--------|--------|
A|--------|--------|--------|--------|--------|--------|--------|--------|--------|
E|--------|--------|--------|--------|--------|--------|--------|--------|--------|


E|--------|--------|--------|--------|--------|--------|--------|--------|--------|
B|--------|--------|--------|--------|--------|--------|--------|--------|--------|
G|--------|--------|--------|--------|--------|--------|--------|--------|--------|
D|--------|--------|--------|--------|--------|--------|--------|--------|--------|
A|--------|--------|--------|--------|--------|--------|--------|--------|--------|
E|--------|--------|--------|--------|--------|--------|--------|--------|--------|


E|--------|--------|--------|--------|--------|--------|--------|--------|--------|
B|--------|--------|--------|--------|--------|--------|--------|--------|--------|
G|--------|--------|--------|--------|--------|--------|--------|--------|--------|
D|--------|--------|--------|--------|--------|--------|--------|--------|--------|
A|--------|--------|--------|--------|--------|--------|--------|--------|--------|
E|--------|--------|--------|--------|--------|--------|--------|--------|--------|


E|--------|--------|--------|--------|--------|--------|--------|--------|--------|
B|--------|--------|--------|--------|--------|--------|--------|--------|--------|
G|--------|--------|--------|--------|--------|--------|--------|--------|--------|
D|--------|--------|--------|--------|--------|--------|--------|--------|--------|
A|--------|--------|--------|--------|--------|--------|--------|--------|--------|
E|--------|--------|--------|--------|--------|--------|--------|--------|--------|


E|--------|--------|--------|--------|--------|--------|---------------------------------|
B|--------|--------|--------|--------|--------|--------|---------------------------------|
G|--------|--------|--------|--------|--------|--------|---------------------------------|
D|--------|--------|--------|--------|--------|--------|-0---0-----------0---0-----------|
A|--------|--------|--------|--------|--------|--------|---------0---2-----------0---2---|
E|--------|--------|--------|--------|--------|--------|---------------------------------|


E|---------------------------------|---------------------------------|---------------------------------|
B|---------------------------------|---------------------------------|---------------------------------|
G|---------------------------------|---------------------------------|---------------------------------|
D|-0---0-----------0---0-----------|---------------------------------|-----------------2---------------|
A|---------0---2-----------3---2---|-0---0-----------0---0-----------|-0---0---3---4-------0---2---0---|
E|---------------------------------|---------0---2-----------0---2---|---------------------------------|


E|---------------------------------|---------------------------------|------------------------------|
B|---------------------------------|---------------------------------|------------------------------|
G|---------------------------------|---------------------------------|------------------------------|
D|-0---0-----------0---0-----------|-0---0-----------0---0-----------|--------------------------0---|
A|---------0---2-----------0---2---|---------0---2-----------3---2---|-0----0-------0---------------|
E|---------------------------------|---------------------------------|----------0-------0---2-------|


E|--------------------------------|---------------------|--------|--------|--------|
B|--------------------------------|---------------------|--------|--------|--------|
G|--------------------------------|---------------------|--------|--------|--------|
D|-0----0--0--0---0-----------0---|-0----0----0---------|--------|--------|--------|
A|--------------------0---2-------|---------------------|--------|--------|--------|
E|--------------------------------|---------------------|--------|--------|--------|


E|--------|--------|--------|--------|--------|--------|--------|--------|--------|
B|--------|--------|--------|--------|--------|--------|--------|--------|--------|
G|--------|--------|--------|--------|--------|--------|--------|--------|--------|
D|--------|--------|--------|--------|--------|--------|--------|--------|--------|
A|--------|--------|--------|--------|--------|--------|--------|--------|--------|
E|--------|--------|--------|--------|--------|--------|--------|--------|--------|


E|--------|--------|--------|--------|--------|--------|--------|--------|--------|
B|--------|--------|--------|--------|--------|--------|--------|--------|--------|
G|--------|--------|--------|--------|--------|--------|--------|--------|--------|
D|--------|--------|--------|--------|--------|--------|--------|--------|--------|
A|--------|--------|--------|--------|--------|--------|--------|--------|--------|
E|--------|--------|--------|--------|--------|--------|--------|--------|--------|


E|--------|--------|--------|--------|--------|--------|--------|--------|--------|
B|--------|--------|--------|--------|--------|--------|--------|--------|--------|
G|--------|--------|--------|--------|--------|--------|--------|--------|--------|
D|--------|--------|--------|--------|--------|--------|--------|--------|--------|
A|--------|--------|--------|--------|--------|--------|--------|--------|--------|
E|--------|--------|--------|--------|--------|--------|--------|--------|--------|


E|--------|--------|--------|--------|---------------------------------|---------------------------------|
B|--------|--------|--------|--------|---------------------------------|---------------------------------|
G|--------|--------|--------|--------|---------------------------------|---------------------------------|
D|--------|--------|--------|--------|-0---0-----------0---0-----------|-0---0-----------0---0-----------|
A|--------|--------|--------|--------|---------0---2-----------0---2---|---------0---2-----------3---2---|
E|--------|--------|--------|--------|---------------------------------|---------------------------------|


E|---------------------------------|---------------------------------|---------------------------------|
B|---------------------------------|---------------------------------|---------------------------------|
G|---------------------------------|---------------------------------|---------------------------------|
D|---------------------------------|-----------------2---------------|-0---0-----------0---0-----------|
A|-0---0-----------0---0-----------|-0---0---3---4-------0---2---0---|---------0---2-----------0---2---|
E|---------0---2-----------0---2---|---------------------------------|---------------------------------|


E|---------------------------------|------------------------------|--------------------------------|
B|---------------------------------|------------------------------|--------------------------------|
G|---------------------------------|------------------------------|--------------------------------|
D|-0---0-----------0---0-----------|--------------------------0---|-0----0--0--0---0-----------0---|
A|---------0---2-----------3---2---|-0----0-------0---------------|--------------------0---2-------|
E|---------------------------------|----------0-------0---2-------|--------------------------------|


E|--------|--------|--------|--------|--------|--------|--------|--------|--------|
B|--------|--------|--------|--------|--------|--------|--------|--------|--------|
G|--------|--------|--------|--------|--------|--------|--------|--------|--------|
D|--------|--------|--------|--------|--------|--------|--------|--------|--------|
A|--------|--------|--------|--------|--------|--------|--------|--------|--------|
E|--------|--------|--------|--------|--------|--------|--------|--------|--------|


E|--------|--------|--------|--------|--------|--------|--------|--------|--------|
B|--------|--------|--------|--------|--------|--------|--------|--------|--------|
G|--------|--------|--------|--------|--------|--------|--------|--------|--------|
D|--------|--------|--------|--------|--------|--------|--------|--------|--------|
A|--------|--------|--------|--------|--------|--------|--------|--------|--------|
E|--------|--------|--------|--------|--------|--------|--------|--------|--------|


E|--------|--------|--------|--------|--------|--------|--------|--------|--------|
B|--------|--------|--------|--------|--------|--------|--------|--------|--------|
G|--------|--------|--------|--------|--------|--------|--------|--------|--------|
D|--------|--------|--------|--------|--------|--------|--------|--------|--------|
A|--------|--------|--------|--------|--------|--------|--------|--------|--------|
E|--------|--------|--------|--------|--------|--------|--------|--------|--------|


E|--------|--------|
B|--------|--------|
G|--------|--------|
D|--------|--------|
A|--------|--------|
E|--------|--------|





Track 5: Untitled

E|--------|--------|--------|--------|--------|--------|--------|--------|--------|
B|--------|--------|--------|--------|--------|--------|--------|--------|--------|
G|--------|--------|--------|--------|--------|--------|--------|--------|--------|
D|--------|--------|--------|--------|--------|--------|--------|--------|--------|
A|--------|--------|--------|--------|--------|--------|--------|--------|--------|
E|--------|--------|--------|--------|--------|--------|--------|--------|--------|


E|--------|--------|--------|--------|--------|--------|--------|--------|--------|
B|--------|--------|--------|--------|--------|--------|--------|--------|--------|
G|--------|--------|--------|--------|--------|--------|--------|--------|--------|
D|--------|--------|--------|--------|--------|--------|--------|--------|--------|
A|--------|--------|--------|--------|--------|--------|--------|--------|--------|
E|--------|--------|--------|--------|--------|--------|--------|--------|--------|


E|--------|--------|--------|--------|--------|--------|--------|--------|--------|
B|--------|--------|--------|--------|--------|--------|--------|--------|--------|
G|--------|--------|--------|--------|--------|--------|--------|--------|--------|
D|--------|--------|--------|--------|--------|--------|--------|--------|--------|
A|--------|--------|--------|--------|--------|--------|--------|--------|--------|
E|--------|--------|--------|--------|--------|--------|--------|--------|--------|


E|--------|--------|--------|--------|--------|--------|--------|--------|--------|
B|--------|--------|--------|--------|--------|--------|--------|--------|--------|
G|--------|--------|--------|--------|--------|--------|--------|--------|--------|
D|--------|--------|--------|--------|--------|--------|--------|--------|--------|
A|--------|--------|--------|--------|--------|--------|--------|--------|--------|
E|--------|--------|--------|--------|--------|--------|--------|--------|--------|


E|--------|--------|--------|--------|--------|--------|--------|--------|--------|
B|--------|--------|--------|--------|--------|--------|--------|--------|--------|
G|--------|--------|--------|--------|--------|--------|--------|--------|--------|
D|--------|--------|--------|--------|--------|--------|--------|--------|--------|
A|--------|--------|--------|--------|--------|--------|--------|--------|--------|
E|--------|--------|--------|--------|--------|--------|--------|--------|--------|


E|--------|--------|--------|--------|--------|--------|--------|--------|--------|
B|--------|--------|--------|--------|--------|--------|--------|--------|--------|
G|--------|--------|--------|--------|--------|--------|--------|--------|--------|
D|--------|--------|--------|--------|--------|--------|--------|--------|--------|
A|--------|--------|--------|--------|--------|--------|--------|--------|--------|
E|--------|--------|--------|--------|--------|--------|--------|--------|--------|


E|--------|--------|--------|--------|--------|--------|--------|--------|--------|
B|--------|--------|--------|--------|--------|--------|--------|--------|--------|
G|--------|--------|--------|--------|--------|--------|--------|--------|--------|
D|--------|--------|--------|--------|--------|--------|--------|--------|--------|
A|--------|--------|--------|--------|--------|--------|--------|--------|--------|
E|--------|--------|--------|--------|--------|--------|--------|--------|--------|


E|--------|--------|--------|--------|--------|--------|--------|--------|--------|
B|--------|--------|--------|--------|--------|--------|--------|--------|--------|
G|--------|--------|--------|--------|--------|--------|--------|--------|--------|
D|--------|--------|--------|--------|--------|--------|--------|--------|--------|
A|--------|--------|--------|--------|--------|--------|--------|--------|--------|
E|--------|--------|--------|--------|--------|--------|--------|--------|--------|


E|--------|--------|--------|--------|--------|-----------------------|--------|--------|
B|--------|--------|--------|--------|--------|-----------------------|--------|--------|
G|--------|--------|--------|--------|--------|-----------7-----------|--------|--------|
D|--------|--------|--------|--------|--------|-----------7-------7---|--------|--------|
A|--------|--------|--------|--------|--------|-----------5-------5---|--------|--------|
E|--------|--------|--------|--------|--------|-----------------------|--------|--------|


E|--------|--------|--------|--------|--------|--------|--------|--------|--------|
B|--------|--------|--------|--------|--------|--------|--------|--------|--------|
G|--------|--------|--------|--------|--------|--------|--------|--------|--------|
D|--------|--------|--------|--------|--------|--------|--------|--------|--------|
A|--------|--------|--------|--------|--------|--------|--------|--------|--------|
E|--------|--------|--------|--------|--------|--------|--------|--------|--------|


E|--------|--------|--------|--------|--------|--------|--------|--------|--------|
B|--------|--------|--------|--------|--------|--------|--------|--------|--------|
G|--------|--------|--------|--------|--------|--------|--------|--------|--------|
D|--------|--------|--------|--------|--------|--------|--------|--------|--------|
A|--------|--------|--------|--------|--------|--------|--------|--------|--------|
E|--------|--------|--------|--------|--------|--------|--------|--------|--------|


E|--------|--------|--------|--------|--------|--------|--------|--------|--------|
B|--------|--------|--------|--------|--------|--------|--------|--------|--------|
G|--------|--------|--------|--------|--------|--------|--------|--------|--------|
D|--------|--------|--------|--------|--------|--------|--------|--------|--------|
A|--------|--------|--------|--------|--------|--------|--------|--------|--------|
E|--------|--------|--------|--------|--------|--------|--------|--------|--------|


E|--------|--------|--------|--------|--------|--------|--------|--------|--------|
B|--------|--------|--------|--------|--------|--------|--------|--------|--------|
G|--------|--------|--------|--------|--------|--------|--------|--------|--------|
D|--------|--------|--------|--------|--------|--------|--------|--------|--------|
A|--------|--------|--------|--------|--------|--------|--------|--------|--------|
E|--------|--------|--------|--------|--------|--------|--------|--------|--------|


E|--------|--------|--------|--------|--------|--------|--------|--------|--------|
B|--------|--------|--------|--------|--------|--------|--------|--------|--------|
G|--------|--------|--------|--------|--------|--------|--------|--------|--------|
D|--------|--------|--------|--------|--------|--------|--------|--------|--------|
A|--------|--------|--------|--------|--------|--------|--------|--------|--------|
E|--------|--------|--------|--------|--------|--------|--------|--------|--------|


E|--------|--------|--------|--------|--------|--------|--------|--------|--------|
B|--------|--------|--------|--------|--------|--------|--------|--------|--------|
G|--------|--------|--------|--------|--------|--------|--------|--------|--------|
D|--------|--------|--------|--------|--------|--------|--------|--------|--------|
A|--------|--------|--------|--------|--------|--------|--------|--------|--------|
E|--------|--------|--------|--------|--------|--------|--------|--------|--------|


E|--------|--------|--------|--------|--------|--------|--------|--------|--------|
B|--------|--------|--------|--------|--------|--------|--------|--------|--------|
G|--------|--------|--------|--------|--------|--------|--------|--------|--------|
D|--------|--------|--------|--------|--------|--------|--------|--------|--------|
A|--------|--------|--------|--------|--------|--------|--------|--------|--------|
E|--------|--------|--------|--------|--------|--------|--------|--------|--------|


E|--------|--------|--------|--------|--------|--------|
B|--------|--------|--------|--------|--------|--------|
G|--------|--------|--------|--------|--------|--------|
D|--------|--------|--------|--------|--------|--------|
A|--------|--------|--------|--------|--------|--------|
E|--------|--------|--------|--------|--------|--------|





Track 6: Untitled

E|--------|--------|--------|--------|--------|--------|--------|--------|--------|
B|--------|--------|--------|--------|--------|--------|--------|--------|--------|
G|--------|--------|--------|--------|--------|--------|--------|--------|--------|
D|--------|--------|--------|--------|--------|--------|--------|--------|--------|
A|--------|--------|--------|--------|--------|--------|--------|--------|--------|
E|--------|--------|--------|--------|--------|--------|--------|--------|--------|


E|--------|--------|--------|--------|--------|--------|--------|--------|--------|
B|--------|--------|--------|--------|--------|--------|--------|--------|--------|
G|--------|--------|--------|--------|--------|--------|--------|--------|--------|
D|--------|--------|--------|--------|--------|--------|--------|--------|--------|
A|--------|--------|--------|--------|--------|--------|--------|--------|--------|
E|--------|--------|--------|--------|--------|--------|--------|--------|--------|


E|--------|--------|--------|--------|--------|--------|--------|--------|--------|
B|--------|--------|--------|--------|--------|--------|--------|--------|--------|
G|--------|--------|--------|--------|--------|--------|--------|--------|--------|
D|--------|--------|--------|--------|--------|--------|--------|--------|--------|
A|--------|--------|--------|--------|--------|--------|--------|--------|--------|
E|--------|--------|--------|--------|--------|--------|--------|--------|--------|


E|--------|--------|--------|--------|--------|--------|--------|--------|--------|
B|--------|--------|--------|--------|--------|--------|--------|--------|--------|
G|--------|--------|--------|--------|--------|--------|--------|--------|--------|
D|--------|--------|--------|--------|--------|--------|--------|--------|--------|
A|--------|--------|--------|--------|--------|--------|--------|--------|--------|
E|--------|--------|--------|--------|--------|--------|--------|--------|--------|


E|--------|--------|--------|--------|--------|--------|--------|--------|--------|
B|--------|--------|--------|--------|--------|--------|--------|--------|--------|
G|--------|--------|--------|--------|--------|--------|--------|--------|--------|
D|--------|--------|--------|--------|--------|--------|--------|--------|--------|
A|--------|--------|--------|--------|--------|--------|--------|--------|--------|
E|--------|--------|--------|--------|--------|--------|--------|--------|--------|


E|--------|--------|--------|--------|--------|--------|--------|--------|--------|
B|--------|--------|--------|--------|--------|--------|--------|--------|--------|
G|--------|--------|--------|--------|--------|--------|--------|--------|--------|
D|--------|--------|--------|--------|--------|--------|--------|--------|--------|
A|--------|--------|--------|--------|--------|--------|--------|--------|--------|
E|--------|--------|--------|--------|--------|--------|--------|--------|--------|


E|--------|--------|--------|--------|--------|--------|--------|--------|--------|
B|--------|--------|--------|--------|--------|--------|--------|--------|--------|
G|--------|--------|--------|--------|--------|--------|--------|--------|--------|
D|--------|--------|--------|--------|--------|--------|--------|--------|--------|
A|--------|--------|--------|--------|--------|--------|--------|--------|--------|
E|--------|--------|--------|--------|--------|--------|--------|--------|--------|


E|--------|--------|--------|--------|--------|--------|--------|--------|--------|
B|--------|--------|--------|--------|--------|--------|--------|--------|--------|
G|--------|--------|--------|--------|--------|--------|--------|--------|--------|
D|--------|--------|--------|--------|--------|--------|--------|--------|--------|
A|--------|--------|--------|--------|--------|--------|--------|--------|--------|
E|--------|--------|--------|--------|--------|--------|--------|--------|--------|


E|--------|--------|--------|--------|--------|--------|---------------------------------|
B|--------|--------|--------|--------|--------|--------|---------------------------------|
G|--------|--------|--------|--------|--------|--------|---------------------------------|
D|--------|--------|--------|--------|--------|--------|-0---0-----------0---0---3---4---|
A|--------|--------|--------|--------|--------|--------|---------0---2-------------------|
E|--------|--------|--------|--------|--------|--------|---------------------------------|


E|---------------------------------|---------------------------------|---------------------------------|
B|---------------------------------|---------------------------------|---------------------------------|
G|---------------------------------|---------------------------------|---------------------------------|
D|-0---0-----------0---0-----------|---------------------------------|---------------------------------|
A|---------0---2-----------3---2---|-7-------9-------7-------9---7---|-----7---9-------10------9-------|
E|---------------------------------|-5---------------5-----------5---|-----5-------5-------5-------5---|


E|---------------------------------|---------------------------------|---------9-----------------------|
B|---------------------------------|---------------------------------|---------9-------------------2---|
G|---------------------------------|---------------------------------|-9---9---9---9---9---9-------2---|
D|-0---0---3---4---0---0-----------|-0---0---3---4---0---0-----------|-9---9---9---9---9---9-------2---|
A|-------------------------2---0---|-------------------------2---0---|-7---7---7---7---7---7---3---0---|
E|---------------------------------|---------------------------------|-0---0---0---0---0---0-----------|


E|-------------------5-------|---------------------------------|------------------------|
B|-2-----------------5-------|---------------------------------|------------------------|
G|-2----0---2---2------------|---------------------------------|------------------------|
D|-2----2---2---2------------|-0---0-----------0---0---3---4---|-0---0------------------|
A|-0--------0---0------------|---------0---2-------------------|------------------------|
E|---------------------------|---------------------------------|---------0----1----2----|


E|---------------------------|------------------------|---------------------------------|
B|---------------------------|------------------------|---------------------------------|
G|-12---12---12--11--10--9---|-9----------------------|---------------------------------|
D|-12---12---12--11--10--9---|-9----------------------|-0---0-----------0---0---3---4---|
A|-10---10---10--9---8---7---|-7--------2---2---------|---------0---2-------------------|
E|---------------------------|----------0---0---------|---------------------------------|


E|---------------------------------|---------------------------|--------|--------|
B|---------------------------------|---------------------------|--------|--------|
G|---------------------------------|---------------------------|--------|--------|
D|-0---0-----------0---0-----------|---------------------------|--------|--------|
A|---------0---2-----------3---2---|-3---2---0---3---2---------|--------|--------|
E|---------------------------------|---------------------------|--------|--------|


E|--------|--------|--------|--------|--------|--------|--------|--------|--------|
B|--------|--------|--------|--------|--------|--------|--------|--------|--------|
G|--------|--------|--------|--------|--------|--------|--------|--------|--------|
D|--------|--------|--------|--------|--------|--------|--------|--------|--------|
A|--------|--------|--------|--------|--------|--------|--------|--------|--------|
E|--------|--------|--------|--------|--------|--------|--------|--------|--------|


E|--------|--------|--------|--------|--------|--------|--------|--------|--------|
B|--------|--------|--------|--------|--------|--------|--------|--------|--------|
G|--------|--------|--------|--------|--------|--------|--------|--------|--------|
D|--------|--------|--------|--------|--------|--------|--------|--------|--------|
A|--------|--------|--------|--------|--------|--------|--------|--------|--------|
E|--------|--------|--------|--------|--------|--------|--------|--------|--------|


E|--------|--------|--------|--------|--------|--------|--------|--------|--------|
B|--------|--------|--------|--------|--------|--------|--------|--------|--------|
G|--------|--------|--------|--------|--------|--------|--------|--------|--------|
D|--------|--------|--------|--------|--------|--------|--------|--------|--------|
A|--------|--------|--------|--------|--------|--------|--------|--------|--------|
E|--------|--------|--------|--------|--------|--------|--------|--------|--------|


E|--------|--------|--------|--------|--------|--------|--------|--------|--------|
B|--------|--------|--------|--------|--------|--------|--------|--------|--------|
G|--------|--------|--------|--------|--------|--------|--------|--------|--------|
D|--------|--------|--------|--------|--------|--------|--------|--------|--------|
A|--------|--------|--------|--------|--------|--------|--------|--------|--------|
E|--------|--------|--------|--------|--------|--------|--------|--------|--------|


E|--------|--------|--------|--------|--------|--------|--------|--------|--------|
B|--------|--------|--------|--------|--------|--------|--------|--------|--------|
G|--------|--------|--------|--------|--------|--------|--------|--------|--------|
D|--------|--------|--------|--------|--------|--------|--------|--------|--------|
A|--------|--------|--------|--------|--------|--------|--------|--------|--------|
E|--------|--------|--------|--------|--------|--------|--------|--------|--------|


E|--------|--------|--------|--------|--------|--------|--------|--------|--------|
B|--------|--------|--------|--------|--------|--------|--------|--------|--------|
G|--------|--------|--------|--------|--------|--------|--------|--------|--------|
D|--------|--------|--------|--------|--------|--------|--------|--------|--------|
A|--------|--------|--------|--------|--------|--------|--------|--------|--------|
E|--------|--------|--------|--------|--------|--------|--------|--------|--------|





Track 7: Untitled

E|--------|--------|--------|--------|--------|--------|--------|--------|--------|
B|--------|--------|--------|--------|--------|--------|--------|--------|--------|
G|--------|--------|--------|--------|--------|--------|--------|--------|--------|
D|--------|--------|--------|--------|--------|--------|--------|--------|--------|
A|--------|--------|--------|--------|--------|--------|--------|--------|--------|
E|--------|--------|--------|--------|--------|--------|--------|--------|--------|


E|--------|--------|--------|--------|--------|--------|--------|--------|--------|
B|--------|--------|--------|--------|--------|--------|--------|--------|--------|
G|--------|--------|--------|--------|--------|--------|--------|--------|--------|
D|--------|--------|--------|--------|--------|--------|--------|--------|--------|
A|--------|--------|--------|--------|--------|--------|--------|--------|--------|
E|--------|--------|--------|--------|--------|--------|--------|--------|--------|


E|--------|--------|--------|--------|--------|--------|--------|--------|--------|
B|--------|--------|--------|--------|--------|--------|--------|--------|--------|
G|--------|--------|--------|--------|--------|--------|--------|--------|--------|
D|--------|--------|--------|--------|--------|--------|--------|--------|--------|
A|--------|--------|--------|--------|--------|--------|--------|--------|--------|
E|--------|--------|--------|--------|--------|--------|--------|--------|--------|


E|--------|--------|--------|--------|--------|--------|--------|--------|--------|
B|--------|--------|--------|--------|--------|--------|--------|--------|--------|
G|--------|--------|--------|--------|--------|--------|--------|--------|--------|
D|--------|--------|--------|--------|--------|--------|--------|--------|--------|
A|--------|--------|--------|--------|--------|--------|--------|--------|--------|
E|--------|--------|--------|--------|--------|--------|--------|--------|--------|


E|--------|--------|--------|--------|--------|--------|--------|--------|--------|
B|--------|--------|--------|--------|--------|--------|--------|--------|--------|
G|--------|--------|--------|--------|--------|--------|--------|--------|--------|
D|--------|--------|--------|--------|--------|--------|--------|--------|--------|
A|--------|--------|--------|--------|--------|--------|--------|--------|--------|
E|--------|--------|--------|--------|--------|--------|--------|--------|--------|


E|--------|--------|--------|--------|--------|--------|--------|--------|--------|
B|--------|--------|--------|--------|--------|--------|--------|--------|--------|
G|--------|--------|--------|--------|--------|--------|--------|--------|--------|
D|--------|--------|--------|--------|--------|--------|--------|--------|--------|
A|--------|--------|--------|--------|--------|--------|--------|--------|--------|
E|--------|--------|--------|--------|--------|--------|--------|--------|--------|


E|--------|--------|--------|--------|--------|--------|--------|--------|--------|
B|--------|--------|--------|--------|--------|--------|--------|--------|--------|
G|--------|--------|--------|--------|--------|--------|--------|--------|--------|
D|--------|--------|--------|--------|--------|--------|--------|--------|--------|
A|--------|--------|--------|--------|--------|--------|--------|--------|--------|
E|--------|--------|--------|--------|--------|--------|--------|--------|--------|


E|--------|--------|--------|--------|--------|--------|--------|--------|--------|
B|--------|--------|--------|--------|--------|--------|--------|--------|--------|
G|--------|--------|--------|--------|--------|--------|--------|--------|--------|
D|--------|--------|--------|--------|--------|--------|--------|--------|--------|
A|--------|--------|--------|--------|--------|--------|--------|--------|--------|
E|--------|--------|--------|--------|--------|--------|--------|--------|--------|


E|--------|--------|--------|--------|--------|--------|--------|--------|--------|
B|--------|--------|--------|--------|--------|--------|--------|--------|--------|
G|--------|--------|--------|--------|--------|--------|--------|--------|--------|
D|--------|--------|--------|--------|--------|--------|--------|--------|--------|
A|--------|--------|--------|--------|--------|--------|--------|--------|--------|
E|--------|--------|--------|--------|--------|--------|--------|--------|--------|


E|--------|--------|--------|--------|--------|--------|--------|--------|--------|
B|--------|--------|--------|--------|--------|--------|--------|--------|--------|
G|--------|--------|--------|--------|--------|--------|--------|--------|--------|
D|--------|--------|--------|--------|--------|--------|--------|--------|--------|
A|--------|--------|--------|--------|--------|--------|--------|--------|--------|
E|--------|--------|--------|--------|--------|--------|--------|--------|--------|


E|--------|--------|--------|--------|--------|--------|--------|--------|--------|
B|--------|--------|--------|--------|--------|--------|--------|--------|--------|
G|--------|--------|--------|--------|--------|--------|--------|--------|--------|
D|--------|--------|--------|--------|--------|--------|--------|--------|--------|
A|--------|--------|--------|--------|--------|--------|--------|--------|--------|
E|--------|--------|--------|--------|--------|--------|--------|--------|--------|


E|--------|--------|--------|--------|--------|--------|--------|--------|--------|
B|--------|--------|--------|--------|--------|--------|--------|--------|--------|
G|--------|--------|--------|--------|--------|--------|--------|--------|--------|
D|--------|--------|--------|--------|--------|--------|--------|--------|--------|
A|--------|--------|--------|--------|--------|--------|--------|--------|--------|
E|--------|--------|--------|--------|--------|--------|--------|--------|--------|


E|--------|--------|--------|--------|--------|--------|--------|---------------------------------|
B|--------|--------|--------|--------|--------|--------|--------|---------------------------------|
G|--------|--------|--------|--------|--------|--------|--------|-----------------2---2-----------|
D|--------|--------|--------|--------|--------|--------|--------|-0---0---3---4-----------0---0---|
A|--------|--------|--------|--------|--------|--------|--------|---------------------------------|
E|--------|--------|--------|--------|--------|--------|--------|---------------------------------|


E|--------|--------|--------|--------|--------|--------|--------|--------|--------|
B|--------|--------|--------|--------|--------|--------|--------|--------|--------|
G|--------|--------|--------|--------|--------|--------|--------|--------|--------|
D|--------|--------|--------|--------|--------|--------|--------|--------|--------|
A|--------|--------|--------|--------|--------|--------|--------|--------|--------|
E|--------|--------|--------|--------|--------|--------|--------|--------|--------|


E|--------|--------|--------|--------|--------|--------|--------|--------|--------|
B|--------|--------|--------|--------|--------|--------|--------|--------|--------|
G|--------|--------|--------|--------|--------|--------|--------|--------|--------|
D|--------|--------|--------|--------|--------|--------|--------|--------|--------|
A|--------|--------|--------|--------|--------|--------|--------|--------|--------|
E|--------|--------|--------|--------|--------|--------|--------|--------|--------|


E|--------|--------|--------|--------|--------|--------|--------|--------|--------|
B|--------|--------|--------|--------|--------|--------|--------|--------|--------|
G|--------|--------|--------|--------|--------|--------|--------|--------|--------|
D|--------|--------|--------|--------|--------|--------|--------|--------|--------|
A|--------|--------|--------|--------|--------|--------|--------|--------|--------|
E|--------|--------|--------|--------|--------|--------|--------|--------|--------|


E|--------|--------|--------|--------|--------|--------|
B|--------|--------|--------|--------|--------|--------|
G|--------|--------|--------|--------|--------|--------|
D|--------|--------|--------|--------|--------|--------|
A|--------|--------|--------|--------|--------|--------|
E|--------|--------|--------|--------|--------|--------|





Track 8: Untitled

E|--------|--------|--------|--------|--------|--------|--------|--------|--------|
B|--------|--------|--------|--------|--------|--------|--------|--------|--------|
G|--------|--------|--------|--------|--------|--------|--------|--------|--------|
D|--------|--------|--------|--------|--------|--------|--------|--------|--------|
A|--------|--------|--------|--------|--------|--------|--------|--------|--------|
E|--------|--------|--------|--------|--------|--------|--------|--------|--------|


E|--------|--------|--------|--------|--------|--------|--------|--------|--------|
B|--------|--------|--------|--------|--------|--------|--------|--------|--------|
G|--------|--------|--------|--------|--------|--------|--------|--------|--------|
D|--------|--------|--------|--------|--------|--------|--------|--------|--------|
A|--------|--------|--------|--------|--------|--------|--------|--------|--------|
E|--------|--------|--------|--------|--------|--------|--------|--------|--------|


E|--------|--------|--------|--------|--------|--------|--------|--------|--------|
B|--------|--------|--------|--------|--------|--------|--------|--------|--------|
G|--------|--------|--------|--------|--------|--------|--------|--------|--------|
D|--------|--------|--------|--------|--------|--------|--------|--------|--------|
A|--------|--------|--------|--------|--------|--------|--------|--------|--------|
E|--------|--------|--------|--------|--------|--------|--------|--------|--------|


E|--------|--------|--------|--------|--------|--------|--------|--------|--------|
B|--------|--------|--------|--------|--------|--------|--------|--------|--------|
G|--------|--------|--------|--------|--------|--------|--------|--------|--------|
D|--------|--------|--------|--------|--------|--------|--------|--------|--------|
A|--------|--------|--------|--------|--------|--------|--------|--------|--------|
E|--------|--------|--------|--------|--------|--------|--------|--------|--------|


E|--------|--------|--------|--------|--------|--------|--------|--------|--------|
B|--------|--------|--------|--------|--------|--------|--------|--------|--------|
G|--------|--------|--------|--------|--------|--------|--------|--------|--------|
D|--------|--------|--------|--------|--------|--------|--------|--------|--------|
A|--------|--------|--------|--------|--------|--------|--------|--------|--------|
E|--------|--------|--------|--------|--------|--------|--------|--------|--------|


E|--------|--------|--------|--------|--------|--------|--------|--------|--------|
B|--------|--------|--------|--------|--------|--------|--------|--------|--------|
G|--------|--------|--------|--------|--------|--------|--------|--------|--------|
D|--------|--------|--------|--------|--------|--------|--------|--------|--------|
A|--------|--------|--------|--------|--------|--------|--------|--------|--------|
E|--------|--------|--------|--------|--------|--------|--------|--------|--------|


E|--------|--------|--------|--------|--------|--------|--------|--------|--------|
B|--------|--------|--------|--------|--------|--------|--------|--------|--------|
G|--------|--------|--------|--------|--------|--------|--------|--------|--------|
D|--------|--------|--------|--------|--------|--------|--------|--------|--------|
A|--------|--------|--------|--------|--------|--------|--------|--------|--------|
E|--------|--------|--------|--------|--------|--------|--------|--------|--------|


E|--------|--------|--------|--------|--------|--------|--------|--------|--------|
B|--------|--------|--------|--------|--------|--------|--------|--------|--------|
G|--------|--------|--------|--------|--------|--------|--------|--------|--------|
D|--------|--------|--------|--------|--------|--------|--------|--------|--------|
A|--------|--------|--------|--------|--------|--------|--------|--------|--------|
E|--------|--------|--------|--------|--------|--------|--------|--------|--------|


E|--------|--------|--------|--------|--------|--------|--------|--------|--------|
B|--------|--------|--------|--------|--------|--------|--------|--------|--------|
G|--------|--------|--------|--------|--------|--------|--------|--------|--------|
D|--------|--------|--------|--------|--------|--------|--------|--------|--------|
A|--------|--------|--------|--------|--------|--------|--------|--------|--------|
E|--------|--------|--------|--------|--------|--------|--------|--------|--------|


E|--------|--------|--------|--------|--------|--------|--------|--------|--------|
B|--------|--------|--------|--------|--------|--------|--------|--------|--------|
G|--------|--------|--------|--------|--------|--------|--------|--------|--------|
D|--------|--------|--------|--------|--------|--------|--------|--------|--------|
A|--------|--------|--------|--------|--------|--------|--------|--------|--------|
E|--------|--------|--------|--------|--------|--------|--------|--------|--------|


E|--------|--------|--------|--------|--------|--------|--------|--------|--------|
B|--------|--------|--------|--------|--------|--------|--------|--------|--------|
G|--------|--------|--------|--------|--------|--------|--------|--------|--------|
D|--------|--------|--------|--------|--------|--------|--------|--------|--------|
A|--------|--------|--------|--------|--------|--------|--------|--------|--------|
E|--------|--------|--------|--------|--------|--------|--------|--------|--------|


E|--------|--------|--------|--------|--------|--------|--------|--------|--------|
B|--------|--------|--------|--------|--------|--------|--------|--------|--------|
G|--------|--------|--------|--------|--------|--------|--------|--------|--------|
D|--------|--------|--------|--------|--------|--------|--------|--------|--------|
A|--------|--------|--------|--------|--------|--------|--------|--------|--------|
E|--------|--------|--------|--------|--------|--------|--------|--------|--------|


E|--------|--------|--------|--------|--------|--------|--------|--------|--------|
B|--------|--------|--------|--------|--------|--------|--------|--------|--------|
G|--------|--------|--------|--------|--------|--------|--------|--------|--------|
D|--------|--------|--------|--------|--------|--------|--------|--------|--------|
A|--------|--------|--------|--------|--------|--------|--------|--------|--------|
E|--------|--------|--------|--------|--------|--------|--------|--------|--------|


E|--------|--------|--------|------------------------------|---------------------------------|
B|--------|--------|--------|-7----7-----------------------|---------------------------------|
G|--------|--------|--------|-7----7-------7---7-----------|---------------------------------|
D|--------|--------|--------|-7----7-------7---7-----------|---------9-------7-------9---7---|
A|--------|--------|--------|-5----5-------5---5-------4---|-5-------5-------5-----------5---|
E|--------|--------|--------|-5----5-------5---5-------4---|-5---------------5-----------5---|


E|------------------------------|---------------------------------|---------------------------------|
B|------------------------------|---------------------------------|---------------------------------|
G|-----------------7----7-------|---------------------------------|---------------------------------|
D|-----7---9-------7----7-------|-7---------------------------7---|---------------------------------|
A|-----5---5---5---5----5---6---|-7-------9-------7-------9---7---|-----7---9-------10------9---5---|
E|-----5---5---5---5----5---4---|-5-------5-------5-------5---5---|-----5---5---5---5---5---5---5---|


E|---------------------------------|---------------------------------|--------|--------|
B|---------------------------------|---------------------------------|--------|--------|
G|-7---------------7-----------7---|-----7-------7---7---------------|--------|--------|
D|-7-------9-------7-------9---7---|-----7---9---7---7-------7-------|--------|--------|
A|-5-------5-------5-------5---5---|-----5---5---5---5---5---5---5---|--------|--------|
E|---------5-------5-----------5---|-----5---5---------------5---5---|--------|--------|


E|--------|--------|--------|--------|--------|--------|--------|--------|--------|
B|--------|--------|--------|--------|--------|--------|--------|--------|--------|
G|--------|--------|--------|--------|--------|--------|--------|--------|--------|
D|--------|--------|--------|--------|--------|--------|--------|--------|--------|
A|--------|--------|--------|--------|--------|--------|--------|--------|--------|
E|--------|--------|--------|--------|--------|--------|--------|--------|--------|


E|--------|--------|--------|--------|--------|--------|--------|--------|--------|
B|--------|--------|--------|--------|--------|--------|--------|--------|--------|
G|--------|--------|--------|--------|--------|--------|--------|--------|--------|
D|--------|--------|--------|--------|--------|--------|--------|--------|--------|
A|--------|--------|--------|--------|--------|--------|--------|--------|--------|
E|--------|--------|--------|--------|--------|--------|--------|--------|--------|


E|--------|--------|
B|--------|--------|
G|--------|--------|
D|--------|--------|
A|--------|--------|
E|--------|--------|





Track 9: Bass

G|--------|--------|--------|--------|---------------------------------|-------------------------7----|
D|--------|--------|--------|--------|---------------------------------|------------------------------|
A|--------|--------|--------|--------|-5-------5-------5---5---4---5---|-----4---5-------5---4--------|
E|--------|--------|--------|--------|---------------------------------|------------------------------|


G|---------------------------------|--------------------------------|--------------------------------|
D|-7---7---------------7-----------|--------------------------------|------------------9--7----------|
A|---------9---7---9-------9---5---|-5----5---------------------5---|-5----5-----------------9---0---|
E|---------------------------------|-------------5--5---5---7-------|--------------------------------|


G|------------------------------|------------------------------|---------------------------------|
D|------------------------------|------------------------------|---------------------------------|
A|-5------------------------5---|-----5------------------------|---------------------------------|
E|---------7----5---5---7-------|---------7----5---7---8---7---|-5-------2----2--0---0---2---5---|


G|---------------------------------|---------------------------------|-----------------------------------|
D|---------------------------------|---------------------------------|-----------------------------------|
A|---------3---4---7---0---2---0---|-5---------------------------5---|-----5-----------------------------|
E|-----5---------------------------|---------7----7--5---5---7-------|---------7----7--5---7---8--8--7---|


G|---------------------------------|------------------------|---------------------------------|
D|---------------------2-----------|-------7---7------------|---------------------------------|
A|-------------2---4-------4---0---|-0--------------0-------|-5---------------------------5---|
E|-0---3---4-----------------------|------------------------|---------7----7--5---5---7-------|


G|-----------------------------------|------------------------------|---------------------------------|
D|-----------------------------------|------------------------------|---------------------------------|
A|-----5-----------------------------|------------------------------|-----7---7---7---7---7---7---2---|
E|---------7----7--5---7---8--8--7---|-3---3---3----3---2---1---0---|-0-------------------------------|


G|---------------------------------|---------------------------------|---------------------------------|
D|---------------------------------|---------------------------------|---------------------------------|
A|-5---------------------------5---|-----5---------------------------|-----------------------------5---|
E|---------7----7--5---5---7-------|---------7----7--5---7---8---7---|-5----0--5---0---5---7---5-------|


G|------------------------------|--------------------------------|---------------------------------|
D|------------------------------|------------------9--7----------|---------------------------------|
A|-5----5-------------------5---|-5----5-----------------9---0---|-5---------------------------5---|
E|--------------5---5---7-------|--------------------------------|---------7---7---5---5---7-------|


G|---------------------------------|------------------------------|---------------------------------|
D|---------------------------------|------------------------------|---------------------------------|
A|-----5---------------------------|------------------------------|---------3---4---7---0---2---0---|
E|---------7----7--5---7---8---7---|-5-------2----0---0---2---5---|-----5---------------------------|


G|------------------------------|-----------------------------------|---------------------------------|
D|------------------------------|-----------------------------------|---------------------2-----------|
A|-5------------------------5---|-----5-----------------------------|-------------2---4-------4---0---|
E|---------7----5---5---7-------|---------7----7--5---7---8--8--7---|-0---3---4-----------------------|


G|------------------------------|------------------------------|--------------------------------|
D|-------------2----------------|------------------------------|--------------------------------|
A|-0---3---4-------3--0----2----|-5------------------------5---|-----5--------------------------|
E|------------------------------|---------7----5---5---7-------|---------7----5---7---8--7--5---|


G|------------------------------|---------------------------------2---|------------------------------|
D|------------------------------|-----------------------2---2--4------|------------------------------|
A|------------------------------|-------------2---2--4----------------|-5------------------------5---|
E|-3----3---3---3---2---1---0---|-0---0---4---------------------------|---------7----5---5---7-------|


G|---------------------------------|---------------------------------|----------------------------------|
D|---------------------------------|---------------------------------|--------------------7-------------|
A|-----5---------------------------|-----------------------------5---|-5----5------5--9-------9--7--5---|
E|---------7----7--5---7---8---7---|-5---0---5---0---5---7---5-------|----------------------------------|


G|---------------------------|------------------------------|---------------------------------|
D|---------------9-----------|------------------------------|---------------------------------|
A|-5----5------------9---0---|-5------------------------5---|-----5---------------------------|
E|---------------------------|---------7----5---5---7-------|---------7----7--5---7---8---7---|


G|------------------------------|---------------------------------|---------------------------------|
D|------------------------------|---------------------------------|-0-------------------------------|
A|------------------------------|---------3---4---7---0---2---0---|---------2----2--0---0---2---5---|
E|-5-------2----0---0---2---5---|-----5---------------------------|---------------------------------|


G|---------------------------------|---------------------------------|------------------------------|
D|---------------------------------|---------------------------------|------------------------------|
A|-----5---2----2--0---2---3---2---|-0-------0-------0-----------5---|-5----5-------0---0---2---5---|
E|---------------------------------|-------------0-------0---2-------|------------------------------|


G|-----------------------------|---------------------------------|---------------------------------|
D|---------------9--7----------|---------------------------------|---------------------------------|
A|-5----5--------------9-------|-5---------------------------5---|-----5---------------------------|
E|-----------------------------|---------7---7---5---5---7-------|---------7----7--5---7---8---7---|


G|------------------------------|---------------------------------|------------------------------|
D|------------------------------|---------------------------------|------------------------------|
A|------------------------------|---------3---4---7---0---2---0---|-5------------------------5---|
E|-5-------2----0---0---2---5---|-----5---------------------------|---------7----5---5---7-------|


G|-----------------------------------|---------------------------------|------------------------------|
D|-----------------------------------|---------------------2-----------|-------------2----------------|
A|-----5-----------------------------|-------------2---4-------4---0---|-0---3---4-------3--0----2----|
E|---------7----7--5---7---8--8--7---|-0---3---4-----------------------|------------------------------|


G|------------------------------|--------------------------------|------------------------------|
D|------------------------------|--------------------------------|------------------------------|
A|-5------------------------5---|-----5--------------------------|------------------------------|
E|---------7----5---5---7-------|---------7----5---7---8--7--5---|-3----3---3---3---2---1---0---|


G|---------------------------------2---|------------------------------|---------------------------------|
D|-----------------------2---2--4------|------------------------------|---------------------------------|
A|-------------2---2--4----------------|-5------------------------5---|-----5---------------------------|
E|-0---0---4---------------------------|---------7----5---5---7-------|---------7----7--5---7---8---7---|


G|---------------------------------|----------------------------------|---------7----------------------|
D|---------------------------------|--------------------7-------------|------------------9--7----------|
A|-----------------------------5---|-5----5------5--9-------9--7--5---|-5---5------------------9---7---|
E|-5---0---5---0---2---5---7-------|----------------------------------|--------------------------------|


G|---------------------------------|---------------------------------|---------------------------------|
D|---------------------------------|---------------------------------|---------------------------------|
A|-5---5-----------5---5-----------|-5---5-----------5---5---3---2---|---------------------------------|
E|---------5---7-----------5---7---|---------5---7-------------------|-5---5---0---2---5---5---0---2---|


G|---------------------------------|---------------------------------|---------------------------------|
D|---------------------------------|---------------------------------|---------------------------------|
A|---------3---4---7---0---2---0---|-5---5-----------5---5-----------|-5---5-----------5---5---3---2---|
E|-5---5---------------------------|---------5---7-----------5---7---|---------5---7-------------------|


G|---------------------------------|----------------------------------|---------7------------------------|
D|---------------------------------|--------------------7-------------|------------------9--7------------|
A|-----------------------------5---|-5----5------5--9-------9--7--5---|-5----------------------9---5--5--|
E|-5---0---5---0---5---0---2-------|----------------------------------|----------------------------------|


G|---------------------------------|---------------------------------|------------------------------|
D|---------------------------------|---------------------------------|------------------------------|
A|-5---5-----------5---5---8---9---|-5---5-----------5---5-----------|------------------------------|
E|---------5---7-------------------|---------5---7-----------8---7---|-5-------2----0---0---2---5---|


G|---------------------------------|---------------------------------|-----------------------------------|
D|---------------------------------|---------3---4-------------------|---------3---4---------------------|
A|---------3---4---7---0---2---0---|-5---5-----------0---0---2---0---|-5---5-----------5---5---3--3--2---|
E|-----5---------------------------|---------------------------------|-----------------------------------|


G|---------------------------------|------------------------|---------------------------------|
D|---------------------2-----------|-------7---7------------|---------------------------------|
A|-------------2---4-------4---0---|-0--------------0-------|-5---5-----------5---5---8---9---|
E|-0---3---4-----------------------|------------------------|---------5---7-------------------|


G|-----------------------------------|------------------------------|------------------------------|
D|-----------------------------------|------------------------------|------------------------------|
A|-5---5--5--------------------------|------------------------------|-------------7---7------------|
E|-----------0---0---1---1---2---2---|-3----3----3--3---2---1---0---|-0---0---0------------0-------|


G|-----------------------------------|---------------------------------|---------------------------------|
D|---------------------------3---4---|---------------------------------|---------------------3---2-------|
A|-5---5-----------5---5--5----------|-5---5-----------5---5---3---2---|-3---2---0---3---2-----------5---|
E|---------5---7---------------------|---------5---7-------------------|---------------------------------|


G|----------------------------7---|-7-------7-------------------|---------------------------------|
D|--------------------7---9-------|-----0------------9--7-------|---------------------------------|
A|-5----5------5--9---------------|------------------------9----|-5---------------------------5---|
E|--------------------------------|-----------------------------|---------7---7---5---5---7-------|


G|---------------------------------|------------------------------|---------------------------------|
D|---------------------------------|------------------------------|---------------------------------|
A|-----5---------------------------|------------------------------|---------3---4---7---0---2---0---|
E|---------7----7--5---7---8---7---|-5-------2----0---0---2---5---|-----5---------------------------|


G|------------------------------|-----------------------------------|---------------------------------|
D|------------------------------|-----------------------------------|---------------------2-----------|
A|-5------------------------5---|-----5-----------------------------|-------------2---4-------4---0---|
E|---------7----5---5---7-------|---------7----7--5---7---8--8--7---|-0---3---4-----------------------|


G|------------------------------|------------------------------|--------------------------------|
D|-------------2----------------|------------------------------|--------------------------------|
A|-0---3---4-------3--0----2----|-5------------------------5---|-----5--------------------------|
E|------------------------------|---------7----5---5---7-------|---------7----5---7---8--7--5---|


G|------------------------------|---------------------------------2---|------------------------------|
D|------------------------------|-----------------------2---2--4------|------------------------------|
A|------------------------------|-------------2---2--4----------------|-5------------------------5---|
E|-3----3---3---3---2---1---0---|-0---0---4---------------------------|---------7----5---5---7-------|


G|---------------------------------|---------------------------------|----------------------------7---|
D|---------------------------------|---------------------------------|--------------------7---9-------|
A|-----5---------------------------|-----------------------------5---|-5----5------5--9---------------|
E|---------7----7--5---7---8---7---|-5---0---5---0---2---5---7-------|--------------------------------|


G|-7-------11---------------------|---------------------------------|---------------------------------|
D|-----0------------9--7----------|---------------------------------|---------------------------------|
A|------------------------9---7---|-5---5-----------5---5-----------|-5---5-----------5---5---3---2---|
E|--------------------------------|---------5---7-----------5---7---|---------5---7-------------------|


G|---------------------------------|---------------------------------|---------------------------------|
D|---------------------------------|---------------------4-----------|---------------------------------|
A|---------------------------------|---------3---4---7-------0---2---|-5---5-----------5---5-----------|
E|-5---5---0---2---5---5---0---2---|-5---5---------------------------|---------5---7-----------5---7---|


G|---------------------------------|---------------------------------|------------------------------|
D|---------------------------------|---------------------------------|------------------------------|
A|-5---5-----------5---5---3---2---|-----------------------------5---|-5----5-------------------5---|
E|---------5---7-------------------|-5---0---5---0---5---0---2-------|--------------5---5---7-------|


G|-------------------------------|---------------------------------|------------------------------|
D|---------------9--7------------|---------------------------------|------------------------------|
A|-5----5--------------9---0--0--|-5---------------------------5---|-----5------------------------|
E|-------------------------------|---------7----7--5---5---7-------|---------7----5---7---8---7---|


G|------------------------------|---------------------------------|------------------------------|
D|------------------------------|---------------------------------|------------------------------|
A|------------------------------|---------3---4---7---0---2---0---|-5------------------------5---|
E|-5-------2----0---0---2---5---|-5---5---------------------------|---------7----5---5---7-------|


G|-----------------------------------|---------------------------------|---------------------|
D|-----------------------------------|---------------------2-----------|-------7---7---------|
A|-----5-----------------------------|-------------2---4-------4---0---|-0-------------------|
E|---------7----7--5---7---8--8--7---|-0---3---4-----------------------|---------------------|


G|------------------------------|-------------------------------------|---------------------------|
D|------------------------------|-------------------------------------|---------------------------|
A|-5------------------------5---|-----5--5----------------------------|---------------------------|
E|---------7----5---5---7-------|-----------7----7--5---7---8--8--7---|-3----3----3---2---1---0---|


G|------------------------------|------------------------------|---------------------------------|
D|------------------------------|------------------------------|---------------------------------|
A|-------------7---7------------|-5------------------------5---|-----5---------------------------|
E|-0---0---0------------0-------|---------7----5---5---7-------|---------7----7--5---7---8---7---|


G|---------------------------------|----------------------------------|------7----------------------|
D|---------------------------------|--------------------7-------------|---------------9--7----------|
A|-----------------------------5---|-5----5------5--9-------9--7--5---|-5-------------------9---0---|
E|-5-------5----0--5---7---5-------|----------------------------------|-----------------------------|


G|------------------------------|------------------------------|------------------------------|
D|------------------------------|------------------------------|------------------------------|
A|-5--5---------------------5---|-----5------------------------|------------------------------|
E|---------7----5---5---7-------|---------7----5---7---8---7---|-5-------2----0---0---2---5---|


G|---------------------------------|---------------------------------|--------------------------------|
D|---------------------4-----------|---------------------------------|--------------------------------|
A|---------3---4---7-------0---2---|-5---------------------------5---|-----5--------------------------|
E|-5---5---------------------------|---------7----7--5---5---7-------|---------7----5---7---8--8--7---|


G|---------------------------------|------------------------|------------------------------|
D|---------------------2-----------|-------7---7------------|------------------------------|
A|-------------2---4-------4---0---|-0----------------------|-5------------------------5---|
E|-0---3---4-----------------------|----------------5-------|---------7----5---5---7-------|


G|---------------------------------|---------------------------|
D|---------------------------------|---------------------------|
A|-----5---------------------------|---------------------------|
E|---------7----7--5---7---8---7---|-3----3----3---2---1---0---|