Menu:

 

Search:

 

lynyrd skynyrd - freebird:

 



Title: FreeBird
Artist: 
Album: Lynyrd Skynyrd
Author: Allen Collins and Ronny Van Zant


Track 1: Acoustic

E|-3-----------|-0-----0-----|-------0-----|-3----2----3----2----|-3-----------|-0-----0-----|
B|-0-----------|-0-----0-----|-1-----1-----|-3----3----3----3----|-0-----------|-0-----0-----|
G|-0-----------|-0-----0-----|-2-----0-----|-2----2----2----2----|-0-----------|-0-----0-----|
D|-0-----------|-2-----2-----|-3-----2-----|-0----0----0----0----|-0-----------|-2-----2-----|
A|-2-----------|-2-----2-----|-3-----3-----|---------------------|-2-----------|-2-----2-----|
E|-3-----2-----|-0-----0-----|-1-----------|---------------------|-3-----2-----|-0-----0-----|


E|-------0-----|-3---3--2--2---2--2--3----2--2----|-3--3---3--3--3---3--2--2---2--2--2--2--2--|
B|-1-----1-----|-3---3--3--3---3--3--3----3--3----|-0--0---0--0--0---0--3--3---3--3--3--3--3--|
G|-2-----0-----|-2---2--2--2---2--2--2----2--2----|-0--0---0--0--0---0--2--2---2--2--2--2--2--|
D|-3-----2-----|-0---0--0--0---0--0--0----0--0----|-0--0---0--0--0---0--4--4---4--4--4--4--4--|
A|-3-----3-----|----------------------------------|-2--2---2--2--2---2------------------------|
E|-1-----------|----------------------------------|-3--3---3--3--3---3--2--2---2--2--2--2--2--|


E|-0--0---0--0--0---0--0--0---0--0--0--0--0--|---------------------0--0---0--0--0--0--0--|
B|-0--0---0--0--0---0--0--0---0--0--0--0--0--|-1--1---1--1--1---1--1--1---1--1--1--1--1--|
G|-0--0---0--0--0---0--0--0---0--0--0--0--0--|-2--2---2--2--2---2--0--0---0--0--0--0--0--|
D|-2--2---2--2--2---2--2--2---2--2--2--2--2--|-3--3---3--3--3---3--2--2---2--2--2--2--2--|
A|-2--2---2--2--2---2--2--2---2--2--2--2--2--|-3--3---3--3--3---3--3--3---3--3--3--3--3--|
E|-0--0---0--0--0---0--0--0---0--0--0--0--0--|-1--1---1--1--1---1------------------------|


E|-3--2---2--3--2---2--3--2---2--3--2--2--2-2-|-3----3--3--3---3--2--2---2--2--2---2-2-|
B|-3--3---3--3--3---3--3--3---3--3--3--3--3-3-|-0----0--0--0---0--3--3---3--3--3---3-3-|
G|-2--2---2--2--2---2--2--2---2--2--2--2--2-2-|-0----0--0--0---0--2--2---2--2--2---2-2-|
D|-0--0---0--0--0---0--0--0---0--0--0--0--0-0-|-0----0--0--0---0--4--4---4--4--4---4-4-|
A|--------------------------------------------|-2----2--2--2---2-----------------------|
E|--------------------------------------------|-3----3--3--3---3--2--2---2--2--2---2-2-|


E|-0--0---0--0--0---0-0-0--0---0--0--0---0-0-|------------------------0--0---0--0--0--0--0--|
B|-0--0---0--0--0---0-0-0--0---0--0--0---0-0-|-1--1---1--1--1--1--1-1-1--1---1--1--1--1--1--|
G|-0--0---0--0--0---0-0-0--0---0--0--0---0-0-|-2--2---2--2--2--2--2-2-0--0---0--0--0--0--0--|
D|-2--2---2--2--2---2-2-2--2---2--2--2---2-2-|-3--3---3--3--3--3--3-3-2--2---2--2--2--2--2--|
A|-2--2---2--2--2---2-2-2--2---2--2--2---2-2-|-3--3---3--3--3--3--3-3-3--3---3--3--3--3--3--|
E|-0--0---0--0--0---0-0-0--0---0--0--0---0-0-|-1--1---1--1--1--1--1-1-----------------------|


E|-3--2---2--3--2---2--3--2---2--3--2---2--|-3--3---3--3--3---3--2--2---2--2--2--2--2--|
B|-3--3---3--3--3---3--3--3---3--3--3---3--|-0--0---0--0--0---0--3--3---3--3--3--3--3--|
G|-2--2---2--2--2---2--2--2---2--2--2---2--|-0--0---0--0--0---0--2--2---2--2--2--2--2--|
D|-0--0---0--0--0---0--0--0---0--0--0---0--|-0--0---0--0--0---0--4--4---4--4--4--4--4--|
A|-----------------------------------------|-2--2---2--2--2---2------------------------|
E|-----------------------------------------|-3--3---3--3--3---3--2--2---2--2--2--2--2--|


E|-0--0---0--0--0---0--0--0---0--0--0--0--0--|---------------------0--0---0--0--0--0--0--|
B|-0--0---0--0--0---0--0--0---0--0--0--0--0--|-1--1---1--1--1---1--1--1---1--1--1--1--1--|
G|-0--0---0--0--0---0--0--0---0--0--0--0--0--|-2--2---2--2--2---2--0--0---0--0--0--0--0--|
D|-2--2---2--2--2---2--2--2---2--2--2--2--2--|-3--3---3--3--3---3--2--2---2--2--2--2--2--|
A|-2--2---2--2--2---2--2--2---2--2--2--2--2--|-3--3---3--3--3---3--3--3---3--3--3--3--3--|
E|-0--0---0--0--0---0--0--0---0--0--0--0--0--|-1--1---1--1--1---1------------------------|


E|-3--2---2--3--2---2--3--2---2--3--2--2--2-2-|-3----3--3--3---3--2--2---2--2--2---2-2-|
B|-3--3---3--3--3---3--3--3---3--3--3--3--3-3-|-0----0--0--0---0--3--3---3--3--3---3-3-|
G|-2--2---2--2--2---2--2--2---2--2--2--2--2-2-|-0----0--0--0---0--2--2---2--2--2---2-2-|
D|-0--0---0--0--0---0--0--0---0--0--0--0--0-0-|-0----0--0--0---0--4--4---4--4--4---4-4-|
A|--------------------------------------------|-2----2--2--2---2-----------------------|
E|--------------------------------------------|-3----3--3--3---3--2--2---2--2--2---2-2-|


E|-0--0---0--0--0---0-0-0--0---0--0--0---0-0-|------------------------0--0---0--0--0--0--0--|
B|-0--0---0--0--0---0-0-0--0---0--0--0---0-0-|-1--1---1--1--1--1--1-1-1--1---1--1--1--1--1--|
G|-0--0---0--0--0---0-0-0--0---0--0--0---0-0-|-2--2---2--2--2--2--2-2-0--0---0--0--0--0--0--|
D|-2--2---2--2--2---2-2-2--2---2--2--2---2-2-|-3--3---3--3--3--3--3-3-2--2---2--2--2--2--2--|
A|-2--2---2--2--2---2-2-2--2---2--2--2---2-2-|-3--3---3--3--3--3--3-3-3--3---3--3--3--3--3--|
E|-0--0---0--0--0---0-0-0--0---0--0--0---0-0-|-1--1---1--1--1--1--1-1-----------------------|


E|-3--2---2--3--2---2--3--2---2--3--2---2--|-3--3---3--3--3---3--2--2---2--2--2--2--2--|
B|-3--3---3--3--3---3--3--3---3--3--3---3--|-0--0---0--0--0---0--3--3---3--3--3--3--3--|
G|-2--2---2--2--2---2--2--2---2--2--2---2--|-0--0---0--0--0---0--2--2---2--2--2--2--2--|
D|-0--0---0--0--0---0--0--0---0--0--0---0--|-0--0---0--0--0---0--4--4---4--4--4--4--4--|
A|-----------------------------------------|-2--2---2--2--2---2------------------------|
E|-----------------------------------------|-3--3---3--3--3---3--2--2---2--2--2--2--2--|


E|-0--0---0--0--0---0--0--0---0--0--0--0--0--|---------------------0--0---0--0--0--0--0--|
B|-0--0---0--0--0---0--0--0---0--0--0--0--0--|-1--1---1--1--1---1--1--1---1--1--1--1--1--|
G|-0--0---0--0--0---0--0--0---0--0--0--0--0--|-2--2---2--2--2---2--0--0---0--0--0--0--0--|
D|-2--2---2--2--2---2--2--2---2--2--2--2--2--|-3--3---3--3--3---3--2--2---2--2--2--2--2--|
A|-2--2---2--2--2---2--2--2---2--2--2--2--2--|-3--3---3--3--3---3--3--3---3--3--3--3--3--|
E|-0--0---0--0--0---0--0--0---0--0--0--0--0--|-1--1---1--1--1---1------------------------|


E|-3--2---2--3--2---2--3--2---2--3--2--2--2-2-|-3----3--3--3---3--2--2---2--2--2---2-2-|
B|-3--3---3--3--3---3--3--3---3--3--3--3--3-3-|-0----0--0--0---0--3--3---3--3--3---3-3-|
G|-2--2---2--2--2---2--2--2---2--2--2--2--2-2-|-0----0--0--0---0--2--2---2--2--2---2-2-|
D|-0--0---0--0--0---0--0--0---0--0--0--0--0-0-|-0----0--0--0---0--4--4---4--4--4---4-4-|
A|--------------------------------------------|-2----2--2--2---2-----------------------|
E|--------------------------------------------|-3----3--3--3---3--2--2---2--2--2---2-2-|


E|-0--0---0--0--0---0-0-0--0---0--0--0---0-0-|------------------------0--0---0--0--0--0--0--|
B|-0--0---0--0--0---0-0-0--0---0--0--0---0-0-|-1--1---1--1--1--1--1-1-1--1---1--1--1--1--1--|
G|-0--0---0--0--0---0-0-0--0---0--0--0---0-0-|-2--2---2--2--2--2--2-2-0--0---0--0--0--0--0--|
D|-2--2---2--2--2---2-2-2--2---2--2--2---2-2-|-3--3---3--3--3--3--3-3-2--2---2--2--2--2--2--|
A|-2--2---2--2--2---2-2-2--2---2--2--2---2-2-|-3--3---3--3--3--3--3-3-3--3---3--3--3--3--3--|
E|-0--0---0--0--0---0-0-0--0---0--0--0---0-0-|-1--1---1--1--1--1--1-1-----------------------|


E|-3--2---2--3--2---2--3--2---2--3--2---2--|---------------------0---0--0--0---0--0--|
B|-3--3---3--3--3---3--3--3---3--3--3---3--|-1---1--1--1---1--1--1---1--1--1---1--1--|
G|-2--2---2--2--2---2--2--2---2--2--2---2--|-2---2--2--2---2--2--0---2--0--0---2--0--|
D|-0--0---0--0--0---0--0--0---0--0--0---0--|-3---2--2--3---2--2--2---22-2--2---22-2--|
A|-----------------------------------------|-3---3--3--3---3--3--3---3--3--3---3--3--|
E|-----------------------------------------|-1---1--1--1---1--1----------------------|


E|-2---2--2--2---2--2--2--2--2--2--2--2--2--2--|---------------------0---0--0--0---0--0--|
B|-3---13-3--3---3--3--3--3--3--3--3--3--3--3--|-1---1--1--1---1--1--1---1--1--1---1--1--|
G|-2---2--2--2---2--2--2--2--2--2--2--2--2--2--|-2---2--2--2---2--2--0---2--0--0---2--0--|
D|-0---0--0--0---0--0--0--0--0--0--0--0--0--0--|-3---2--2--3---2--2--2---22-2--2---22-2--|
A|---------------------------------------------|-3---3--3--3---3--3--3---3--3--3---3--3--|
E|---------------------------------------------|-1---1--1--1---1--1----------------------|


E|-2---2--2--2---2--2--2--2--2--2--2--2--2--2--|---------------------0---0--0--0---0--0--|
B|-3---13-3--3---3--3--3--3--3--3--3--3--3--3--|-1---1--1--1---1--1--1---1--1--1---1--1--|
G|-2---2--2--2---2--2--2--2--2--2--2--2--2--2--|-2---2--2--2---2--2--0---2--0--0---2--0--|
D|-0---0--0--0---0--0--0--0--0--0--0--0--0--0--|-3---2--2--3---2--2--2---22-2--2---22-2--|
A|---------------------------------------------|-3---3--3--3---3--3--3---3--3--3---3--3--|
E|---------------------------------------------|-1---1--1--1---1--1----------------------|


E|-2---2--2--2---2--2--2--2--2--2--2--2--2--2--|-3--3---3--3--3---3--2--2---2--2--2--2--2--|
B|-3---13-3--3---3--3--3--3--3--3--3--3--3--3--|-0--0---0--0--0---0--3--3---3--3--3--3--3--|
G|-2---2--2--2---2--2--2--2--2--2--2--2--2--2--|-0--0---0--0--0---0--2--2---2--2--2--2--2--|
D|-0---0--0--0---0--0--0--0--0--0--0--0--0--0--|-0--0---0--0--0---0--4--4---4--4--4--4--4--|
A|---------------------------------------------|-2--2---2--2--2---2------------------------|
E|---------------------------------------------|-3--3---3--3--3---3--2--2---2--2--2--2--2--|


E|-0--0---0--0--0---0--0--0---0--0--0--0--0--|---------------------0--0---0--0--0--0--0--|
B|-0--0---0--0--0---0--0--0---0--0--0--0--0--|-1--1---1--1--1---1--1--1---1--1--1--1--1--|
G|-0--0---0--0--0---0--0--0---0--0--0--0--0--|-2--2---2--2--2---2--0--0---0--0--0--0--0--|
D|-2--2---2--2--2---2--2--2---2--2--2--2--2--|-3--3---3--3--3---3--2--2---2--2--2--2--2--|
A|-2--2---2--2--2---2--2--2---2--2--2--2--2--|-3--3---3--3--3---3--3--3---3--3--3--3--3--|
E|-0--0---0--0--0---0--0--0---0--0--0--0--0--|-1--1---1--1--1---1------------------------|


E|-3--2---2--3--2---2--3--2---2--3--2--2--2-2-|-3--3---3--3--3---3--2--2---2--2--2--2--2--|
B|-3--3---3--3--3---3--3--3---3--3--3--3--3-3-|-0--0---0--0--0---0--3--3---3--3--3--3--3--|
G|-2--2---2--2--2---2--2--2---2--2--2--2--2-2-|-0--0---0--0--0---0--2--2---2--2--2--2--2--|
D|-0--0---0--0--0---0--0--0---0--0--0--0--0-0-|-0--0---0--0--0---0--4--4---4--4--4--4--4--|
A|--------------------------------------------|-2--2---2--2--2---2------------------------|
E|--------------------------------------------|-3--3---3--3--3---3--2--2---2--2--2--2--2--|


E|-0--0---0--0--0---0--0--0---0--0--0--0--0--|---------------------0--0---0--0--0--0--0--|
B|-0--0---0--0--0---0--0--0---0--0--0--0--0--|-1--1---1--1--1---1--1--1---1--1--1--1--1--|
G|-0--0---0--0--0---0--0--0---0--0--0--0--0--|-2--2---2--2--2---2--0--0---0--0--0--0--0--|
D|-2--2---2--2--2---2--2--2---2--2--2--2--2--|-3--3---3--3--3---3--2--2---2--2--2--2--2--|
A|-2--2---2--2--2---2--2--2---2--2--2--2--2--|-3--3---3--3--3---3--3--3---3--3--3--3--3--|
E|-0--0---0--0--0---0--0--0---0--0--0--0--0--|-1--1---1--1--1---1------------------------|


E|-3--2---2--3--2---2--3--2---2--3--2--2--2-2-|-3--3---3--3--3---3--2--2---2--2--2--2--2--|
B|-3--3---3--3--3---3--3--3---3--3--3--3--3-3-|-0--0---0--0--0---0--3--3---3--3--3--3--3--|
G|-2--2---2--2--2---2--2--2---2--2--2--2--2-2-|-0--0---0--0--0---0--2--2---2--2--2--2--2--|
D|-0--0---0--0--0---0--0--0---0--0--0--0--0-0-|-0--0---0--0--0---0--4--4---4--4--4--4--4--|
A|--------------------------------------------|-2--2---2--2--2---2------------------------|
E|--------------------------------------------|-3--3---3--3--3---3--2--2---2--2--2--2--2--|


E|-0--0---0--0--0---0--0--0---0--0--0--0--0--|---------------------0--0---0--0--0--0--0--|
B|-0--0---0--0--0---0--0--0---0--0--0--0--0--|-1--1---1--1--1---1--1--1---1--1--1--1--1--|
G|-0--0---0--0--0---0--0--0---0--0--0--0--0--|-2--2---2--2--2---2--0--0---0--0--0--0--0--|
D|-2--2---2--2--2---2--2--2---2--2--2--2--2--|-3--3---3--3--3---3--2--2---2--2--2--2--2--|
A|-2--2---2--2--2---2--2--2---2--2--2--2--2--|-3--3---3--3--3---3--3--3---3--3--3--3--3--|
E|-0--0---0--0--0---0--0--0---0--0--0--0--0--|-1--1---1--1--1---1------------------------|


E|-3--2---2--3--2---2--3--2---2--3--2--2--2-2-|-3----3--3--3---3--2--2---2--2--2---2-2-|
B|-3--3---3--3--3---3--3--3---3--3--3--3--3-3-|-0----0--0--0---0--3--3---3--3--3---3-3-|
G|-2--2---2--2--2---2--2--2---2--2--2--2--2-2-|-0----0--0--0---0--2--2---2--2--2---2-2-|
D|-0--0---0--0--0---0--0--0---0--0--0--0--0-0-|-0----0--0--0---0--4--4---4--4--4---4-4-|
A|--------------------------------------------|-2----2--2--2---2-----------------------|
E|--------------------------------------------|-3----3--3--3---3--2--2---2--2--2---2-2-|


E|-0--0---0--0--0---0-0-0--0---0--0--0---0-0-|------------------------0--0---0--0--0--0--0--|
B|-0--0---0--0--0---0-0-0--0---0--0--0---0-0-|-1--1---1--1--1--1--1-1-1--1---1--1--1--1--1--|
G|-0--0---0--0--0---0-0-0--0---0--0--0---0-0-|-2--2---2--2--2--2--2-2-0--0---0--0--0--0--0--|
D|-2--2---2--2--2---2-2-2--2---2--2--2---2-2-|-3--3---3--3--3--3--3-3-2--2---2--2--2--2--2--|
A|-2--2---2--2--2---2-2-2--2---2--2--2---2-2-|-3--3---3--3--3--3--3-3-3--3---3--3--3--3--3--|
E|-0--0---0--0--0---0-0-0--0---0--0--0---0-0-|-1--1---1--1--1--1--1-1-----------------------|


E|-3--2---2--3--2---2--3--2---2--3--2---2--|-3--3---3--3--3---3--2--2---2--2--2--2--2--|
B|-3--3---3--3--3---3--3--3---3--3--3---3--|-0--0---0--0--0---0--3--3---3--3--3--3--3--|
G|-2--2---2--2--2---2--2--2---2--2--2---2--|-0--0---0--0--0---0--2--2---2--2--2--2--2--|
D|-0--0---0--0--0---0--0--0---0--0--0---0--|-0--0---0--0--0---0--4--4---4--4--4--4--4--|
A|-----------------------------------------|-2--2---2--2--2---2------------------------|
E|-----------------------------------------|-3--3---3--3--3---3--2--2---2--2--2--2--2--|


E|-0--0---0--0--0---0--0--0---0--0--0--0--0--|---------------------0--0---0--0--0--0--0--|
B|-0--0---0--0--0---0--0--0---0--0--0--0--0--|-1--1---1--1--1---1--1--1---1--1--1--1--1--|
G|-0--0---0--0--0---0--0--0---0--0--0--0--0--|-2--2---2--2--2---2--0--0---0--0--0--0--0--|
D|-2--2---2--2--2---2--2--2---2--2--2--2--2--|-3--3---3--3--3---3--2--2---2--2--2--2--2--|
A|-2--2---2--2--2---2--2--2---2--2--2--2--2--|-3--3---3--3--3---3--3--3---3--3--3--3--3--|
E|-0--0---0--0--0---0--0--0---0--0--0--0--0--|-1--1---1--1--1---1------------------------|


E|-3--2---2--3--2---2--3--2---2--3--2--2--2-2-|-3----3--3--3---3--2--2---2--2--2---2-2-|
B|-3--3---3--3--3---3--3--3---3--3--3--3--3-3-|-0----0--0--0---0--3--3---3--3--3---3-3-|
G|-2--2---2--2--2---2--2--2---2--2--2--2--2-2-|-0----0--0--0---0--2--2---2--2--2---2-2-|
D|-0--0---0--0--0---0--0--0---0--0--0--0--0-0-|-0----0--0--0---0--4--4---4--4--4---4-4-|
A|--------------------------------------------|-2----2--2--2---2-----------------------|
E|--------------------------------------------|-3----3--3--3---3--2--2---2--2--2---2-2-|


E|-0--0---0--0--0---0-0-0--0---0--0--0---0-0-|------------------------0--0---0--0--0--0--0--|
B|-0--0---0--0--0---0-0-0--0---0--0--0---0-0-|-1--1---1--1--1--1--1-1-1--1---1--1--1--1--1--|
G|-0--0---0--0--0---0-0-0--0---0--0--0---0-0-|-2--2---2--2--2--2--2-2-0--0---0--0--0--0--0--|
D|-2--2---2--2--2---2-2-2--2---2--2--2---2-2-|-3--3---3--3--3--3--3-3-2--2---2--2--2--2--2--|
A|-2--2---2--2--2---2-2-2--2---2--2--2---2-2-|-3--3---3--3--3--3--3-3-3--3---3--3--3--3--3--|
E|-0--0---0--0--0---0-0-0--0---0--0--0---0-0-|-1--1---1--1--1--1--1-1-----------------------|


E|-3--2---2--3--2---2--3--2---2--3--2---2--|---------------------0---0--0--0---0--0--|
B|-3--3---3--3--3---3--3--3---3--3--3---3--|-1---1--1--1---1--1--1---1--1--1---1--1--|
G|-2--2---2--2--2---2--2--2---2--2--2---2--|-2---2--2--2---2--2--0---2--0--0---2--0--|
D|-0--0---0--0--0---0--0--0---0--0--0---0--|-3---2--2--3---2--2--2---22-2--2---22-2--|
A|-----------------------------------------|-3---3--3--3---3--3--3---3--3--3---3--3--|
E|-----------------------------------------|-1---1--1--1---1--1----------------------|


E|-2---2--2--2---2--2--2--10-10-10-10--10-10-|---------------------0---0--0--0---0--0--|
B|-3---13-3--3---3--3--3--10-10-10-10--10-10-|-1---1--1--1---1--1--1---1--1--1---1--1--|
G|-2---2--2--2---2--2--2--11-11-11-11--11-11-|-2---2--2--2---2--2--0---2--0--0---2--0--|
D|-0---0--0--0---0--0--0--12-12-12-12--12-12-|-3---2--2--3---2--2--2---22-2--2---22-2--|
A|-------------------------------------------|-3---3--3--3---3--3--3---3--3--3---3--3--|
E|-------------------------------------------|-1---1--1--1---1--1----------------------|


E|-2---2--2--2---2--2--2--10-10-10-10--10-10-|---------------------0---0--0--0---0--0--|
B|-3---13-3--3---3--3--3--10-10-10-10--10-10-|-1---1--1--1---1--1--1---1--1--1---1--1--|
G|-2---2--2--2---2--2--2--11-11-11-11--11-11-|-2---2--2--2---2--2--0---2--0--0---2--0--|
D|-0---0--0--0---0--0--0--12-12-12-12--12-12-|-3---2--2--3---2--2--2---22-2--2---22-2--|
A|-------------------------------------------|-3---3--3--3---3--3--3---3--3--3---3--3--|
E|-------------------------------------------|-1---1--1--1---1--1----------------------|


E|-2---2--2--2---2--2--2--10-10-10-10--10-10-|---------------------0---0--0--0---0---|
B|-3---13-3--3---3--3--3--10-10-10-10--10-10-|-1---1--1--1---1--1--1---1--1--1---1---|
G|-2---2--2--2---2--2--2--11-11-11-11--11-11-|-2---2--2--2---2--2--0---2--0--0---0---|
D|-0---0--0--0---0--0--0--12-12-12-12--12-12-|-3---2--2--3---2--2--2---22-2--2---2---|
A|-------------------------------------------|-3---3--3--3---3--3--3---3--3--3---3---|
E|-------------------------------------------|-1---1--1--1---1--1--------------------|


E|-2--2--2--2--2--2--2--2--2--2--2--2--2--2--2--2--|-3---3---3---3---3---3---3-------|
B|-3--3--3--3--3--3--3--3--3--3--3--3--3--3--3--3--|-3---3---3---3---3---3---3-------|
G|-2--2--2--2--2--2--2--2--2--2--2--2--2--2--2--2--|-4---4---4---4---4---4---4---3---|
D|-0--0--0--0--0--0--0--0--0--0--0--0--0--0--0--0--|-5---5---5---5---5---5---5---3---|
A|-------------------------------------------------|-5---5---5---5---5---5---5---1---|
E|-------------------------------------------------|-3---3---3---3---3---3---3-------|


E|---------------------------------|---------------------------------|---------------------------------|
B|---------------------------------|-5---5---5---5---5---5---5---5---|-5---5---5---5---5---5---5-------|
G|-3---3---3---3---3---3---3-------|-5---5---5---5---5---5---5---5---|-5---5---5---5---5---5---5-------|
D|-3---3---3---3---3---3---3-------|-5---5---5---5---5---5---5---5---|-5---5---5---5---5---5---5-------|
A|-1---1---1---1---1---1---1-------|-3---3---3---3---3---3---3---3---|-3---3---3---3---3---3---3-------|
E|-----------------------------3---|---------------------------------|-----------------------------0---|


E|-3---3---3---3---3---3---3-------|---------------------------------|---------------------------------|
B|-3---3---3---3---3---3---3-------|---------------------------------|-5---5---5---5---5---5---5---5---|
G|-4---4---4---4---4---4---4---3---|-3---3---3---3---3---3---3-------|-5---5---5---5---5---5---5---5---|
D|-5---5---5---5---5---5---5---3---|-3---3---3---3---3---3---3-------|-5---5---5---5---5---5---5---5---|
A|-5---5---5---5---5---5---5---1---|-1---1---1---1---1---1---1-------|-3---3---3---3---3---3---3---3---|
E|-3---3---3---3---3---3---3-------|-----------------------------3---|---------------------------------|


E|---------------------------------|-3---3---3---3---3---3---3-------|---------------------------------|
B|-5---5---5---5---5---5---5-------|-3---3---3---3---3---3---3-------|---------------------------------|
G|-5---5---5---5---5---5---5-------|-4---4---4---4---4---4---4---3---|-3---3---3---3---3---3---3-------|
D|-5---5---5---5---5---5---5-------|-5---5---5---5---5---5---5---3---|-3---3---3---3---3---3---3-------|
A|-3---3---3---3---3---3---3-------|-5---5---5---5---5---5---5---1---|-1---1---1---1---1---1---1-------|
E|-----------------------------0---|-3---3---3---3---3---3---3-------|-----------------------------3---|


E|---------------------------------|---------------------------------|-3---3---3---3---3---3---3-------|
B|-5---5---5---5---5---5---5---5---|-5---5---5---5---5---5---5-------|-3---3---3---3---3---3---3-------|
G|-5---5---5---5---5---5---5---5---|-5---5---5---5---5---5---5-------|-4---4---4---4---4---4---4---3---|
D|-5---5---5---5---5---5---5---5---|-5---5---5---5---5---5---5-------|-5---5---5---5---5---5---5---3---|
A|-3---3---3---3---3---3---3---3---|-3---3---3---3---3---3---3-------|-5---5---5---5---5---5---5---1---|
E|---------------------------------|-----------------------------0---|-3---3---3---3---3---3---3-------|


E|---------------------------------|---------------------------------|---------------------------------|
B|---------------------------------|-5---5---5---5---5---5---5---5---|-5---5---5---5---5---5---5-------|
G|-3---3---3---3---3---3---3-------|-5---5---5---5---5---5---5---5---|-5---5---5---5---5---5---5-------|
D|-3---3---3---3---3---3---3-------|-5---5---5---5---5---5---5---5---|-5---5---5---5---5---5---5-------|
A|-1---1---1---1---1---1---1-------|-3---3---3---3---3---3---3---3---|-3---3---3---3---3---3---3-------|
E|-----------------------------3---|---------------------------------|-----------------------------0---|


E|-3---3---3---3---3---3---3-------|---------------------------------|---------------------------------|
B|-3---3---3---3---3---3---3-------|---------------------------------|-5---5---5---5---5---5---5---5---|
G|-4---4---4---4---4---4---4---3---|-3---3---3---3---3---3---3-------|-5---5---5---5---5---5---5---5---|
D|-5---5---5---5---5---5---5---3---|-3---3---3---3---3---3---3-------|-5---5---5---5---5---5---5---5---|
A|-5---5---5---5---5---5---5---1---|-1---1---1---1---1---1---1-------|-3---3---3---3---3---3---3---3---|
E|-3---3---3---3---3---3---3-------|-----------------------------3---|---------------------------------|


E|---------------------------------|-3---3---3---3---3---3---3-------|---------------------------------|
B|-5---5---5---5---5---5---5-------|-3---3---3---3---3---3---3-------|---------------------------------|
G|-5---5---5---5---5---5---5-------|-4---4---4---4---4---4---4---3---|-3---3---3---3---3---3---3-------|
D|-5---5---5---5---5---5---5-------|-5---5---5---5---5---5---5---3---|-3---3---3---3---3---3---3-------|
A|-3---3---3---3---3---3---3-------|-5---5---5---5---5---5---5---1---|-1---1---1---1---1---1---1-------|
E|-----------------------------0---|-3---3---3---3---3---3---3-------|-----------------------------3---|


E|---------------------------------|---------------------------------|-3----3----3---3---3---3---|
B|-5---5---5---5---5---5---5---5---|-5---5---5---5---5---5---5-------|-3----3----3---3---3---3---|
G|-5---5---5---5---5---5---5---5---|-5---5---5---5---5---5---5-------|-4----4----4---4---4---4---|
D|-5---5---5---5---5---5---5---5---|-5---5---5---5---5---5---5-------|-5----5----5---5---5---5---|
A|-3---3---3---3---3---3---3---3---|-3---3---3---3---3---3---3-------|-5----5----5---5---5---5---|
E|---------------------------------|-----------------------------0---|-3----3----3---3---3---3---|


E|---------------------------|---------------------------|---------------------------------|
B|-3----3----3---3---3---3---|-5----5----5---5---5---5---|-5---5---5---5---5---5---5---5---|
G|-3----3----3---3---3---3---|-5----5----5---5---5---5---|-5---5---5---5---5---5---5---5---|
D|-3----3----3---3---3---3---|-5----5----5---5---5---5---|-5---5---5---5---5---5---5---5---|
A|-1----1----1---1---1---1---|-3----3----3---3---3---3---|-3---3---3---3---3---3---3---3---|
E|---------------------------|---------------------------|---------------------------------|


E|-3----3----3---3---3---3---|---------------------------|---------------------------|
B|-3----3----3---3---3---3---|-3----3----3---3---3---3---|-5----5----5---5---5---5---|
G|-4----4----4---4---4---4---|-3----3----3---3---3---3---|-5----5----5---5---5---5---|
D|-5----5----5---5---5---5---|-3----3----3---3---3---3---|-5----5----5---5---5---5---|
A|-5----5----5---5---5---5---|-1----1----1---1---1---1---|-3----3----3---3---3---3---|
E|-3----3----3---3---3---3---|---------------------------|---------------------------|


E|---------------------------------|-3----3----3---3---3---3---|---------------------------|
B|-5---5---5---5---5---5---5---5---|-3----3----3---3---3---3---|-3----3----3---3---3---3---|
G|-5---5---5---5---5---5---5---5---|-4----4----4---4---4---4---|-3----3----3---3---3---3---|
D|-5---5---5---5---5---5---5---5---|-5----5----5---5---5---5---|-3----3----3---3---3---3---|
A|-3---3---3---3---3---3---3---3---|-5----5----5---5---5---5---|-1----1----1---1---1---1---|
E|---------------------------------|-3----3----3---3---3---3---|---------------------------|


E|---------------------------|---------------------------------|-3----3----3---3---3---3---|
B|-5----5----5---5---5---5---|-5---5---5---5---5---5---5---5---|-3----3----3---3---3---3---|
G|-5----5----5---5---5---5---|-5---5---5---5---5---5---5---5---|-4----4----4---4---4---4---|
D|-5----5----5---5---5---5---|-5---5---5---5---5---5---5---5---|-5----5----5---5---5---5---|
A|-3----3----3---3---3---3---|-3---3---3---3---3---3---3---3---|-5----5----5---5---5---5---|
E|---------------------------|---------------------------------|-3----3----3---3---3---3---|


E|---------------------------|---------------------------|---------------------------------|
B|-3----3----3---3---3---3---|-5----5----5---5---5---5---|-5---5---5---5---5---5---5---5---|
G|-3----3----3---3---3---3---|-5----5----5---5---5---5---|-5---5---5---5---5---5---5---5---|
D|-3----3----3---3---3---3---|-5----5----5---5---5---5---|-5---5---5---5---5---5---5---5---|
A|-1----1----1---1---1---1---|-3----3----3---3---3---3---|-3---3---3---3---3---3---3---3---|
E|---------------------------|---------------------------|---------------------------------|


E|-3---3---3---3---3---3---3-------|---------------------------------|---------------------------------|
B|-3---3---3---3---3---3---3-------|---------------------------------|-5---5---5---5---5---5---5---5---|
G|-4---4---4---4---4---4---4---3---|-3---3---3---3---3---3---3-------|-5---5---5---5---5---5---5---5---|
D|-5---5---5---5---5---5---5---3---|-3---3---3---3---3---3---3-------|-5---5---5---5---5---5---5---5---|
A|-5---5---5---5---5---5---5---1---|-1---1---1---1---1---1---1-------|-3---3---3---3---3---3---3---3---|
E|-3---3---3---3---3---3---3-------|-----------------------------3---|---------------------------------|


E|---------------------------------|-3---3---3---3---3---3---3-------|---------------------------------|
B|-5---5---5---5---5---5---5---5---|-3---3---3---3---3---3---3-------|---------------------------------|
G|-5---5---5---5---5---5---5---5---|-4---4---4---4---4---4---4---3---|-3---3---3---3---3---3---3-------|
D|-5---5---5---5---5---5---5---5---|-5---5---5---5---5---5---5---3---|-3---3---3---3---3---3---3-------|
A|-3---3---3---3---3---3---3---3---|-5---5---5---5---5---5---5---1---|-1---1---1---1---1---1---1-------|
E|---------------------------------|-3---3---3---3---3---3---3-------|-----------------------------3---|


E|---------------------------------|--------|--------|--------|--------|--------|--------|
B|-5---5---5---5---5---5---5---5---|--------|--------|--------|--------|--------|--------|
G|-5---5---5---5---5---5---5---5---|--------|--------|--------|--------|--------|--------|
D|-5---5---5---5---5---5---5---5---|--------|--------|--------|--------|--------|--------|
A|-3---3---3---3---3---3---3---3---|--------|--------|--------|--------|--------|--------|
E|---------------------------------|--------|--------|--------|--------|--------|--------|


E|--------|--------|--------|--------|--------|--------|--------|--------|--------|
B|--------|--------|--------|--------|--------|--------|--------|--------|--------|
G|--------|--------|--------|--------|--------|--------|--------|--------|--------|
D|--------|--------|--------|--------|--------|--------|--------|--------|--------|
A|--------|--------|--------|--------|--------|--------|--------|--------|--------|
E|--------|--------|--------|--------|--------|--------|--------|--------|--------|


E|--------|--------|--------|--------|--------|--------|--------|--------|-----------------|
B|--------|--------|--------|--------|--------|--------|--------|--------|-5----5----------|
G|--------|--------|--------|--------|--------|--------|--------|--------|-5----5----------|
D|--------|--------|--------|--------|--------|--------|--------|--------|-5----5----------|
A|--------|--------|--------|--------|--------|--------|--------|--------|-3----3----------|
E|--------|--------|--------|--------|--------|--------|--------|--------|-----------------|


E|-----------------------------------------|-3----3----------|-----------------|-----------------|
B|-5---5--5--5---5--5--5---5--5--5---5--5--|-3----3----------|-----------------|-5----5----------|
G|-5---5--5--5---5--5--5---5--5--5---5--5--|-4----4----------|-3----3----------|-5----5----------|
D|-5---5--5--5---5--5--5---5--5--5---5--5--|-5----5----------|-3----3----------|-5----5----------|
A|-3---3--3--3---3--3--3---3--3--3---3--3--|-5----5----------|-1----1----------|-3----3----------|
E|-----------------------------------------|-3----3----------|-----------------|-----------------|


E|-----------------------------------------|-3----3----------|-----------------|-----------------|
B|-5---5--5--5---5--5--5---5--5--5---5--5--|-3----3----------|-----------------|-5----5----------|
G|-5---5--5--5---5--5--5---5--5--5---5--5--|-4----4----------|-3----3----------|-5----5----------|
D|-5---5--5--5---5--5--5---5--5--5---5--5--|-5----5----------|-3----3----------|-5----5----------|
A|-3---3--3--3---3--3--3---3--3--3---3--3--|-5----5----------|-1----1----------|-3----3----------|
E|-----------------------------------------|-3----3----------|-----------------|-----------------|


E|-----------------------------------------|-3----3----------|-----------------|-----------------|
B|-5---5--5--5---5--5--5---5--5--5---5--5--|-3----3----------|-----------------|-5----5----------|
G|-5---5--5--5---5--5--5---5--5--5---5--5--|-4----4----------|-3----3----------|-5----5----------|
D|-5---5--5--5---5--5--5---5--5--5---5--5--|-5----5----------|-3----3----------|-5----5----------|
A|-3---3--3--3---3--3--3---3--3--3---3--3--|-5----5----------|-1----1----------|-3----3----------|
E|-----------------------------------------|-3----3----------|-----------------|-----------------|


E|-----------------------------------------|-3---3---3---3---3---3---3-------|---------------------------------|
B|-5---5--5--5---5--5--5---5--5--5---5--5--|-3---3---3---3---3---3---3-------|---------------------------------|
G|-5---5--5--5---5--5--5---5--5--5---5--5--|-4---4---4---4---4---4---4---3---|-3---3---3---3---3---3---3-------|
D|-5---5--5--5---5--5--5---5--5--5---5--5--|-5---5---5---5---5---5---5---3---|-3---3---3---3---3---3---3-------|
A|-3---3--3--3---3--3--3---3--3--3---3--3--|-5---5---5---5---5---5---5---1---|-1---1---1---1---1---1---1-------|
E|-----------------------------------------|-3---3---3---3---3---3---3-------|-----------------------------3---|


E|---------------------------------|---------------------------------|-3---3---3---3---3---3---3-------|
B|-5---5---5---5---5---5---5---5---|-5---5---5---5---5---5---5---5---|-3---3---3---3---3---3---3-------|
G|-5---5---5---5---5---5---5---5---|-5---5---5---5---5---5---5---5---|-4---4---4---4---4---4---4---3---|
D|-5---5---5---5---5---5---5---5---|-5---5---5---5---5---5---5---5---|-5---5---5---5---5---5---5---3---|
A|-3---3---3---3---3---3---3---3---|-3---3---3---3---3---3---3---3---|-5---5---5---5---5---5---5---1---|
E|---------------------------------|---------------------------------|-3---3---3---3---3---3---3-------|


E|---------------------------------|---------------------------------|---------------------------------|
B|---------------------------------|-5---5---5---5---5---5---5---5---|-5---5---5---5---5---5---5---5---|
G|-3---3---3---3---3---3---3-------|-5---5---5---5---5---5---5---5---|-5---5---5---5---5---5---5---5---|
D|-3---3---3---3---3---3---3-------|-5---5---5---5---5---5---5---5---|-5---5---5---5---5---5---5---5---|
A|-1---1---1---1---1---1---1-------|-3---3---3---3---3---3---3---3---|-3---3---3---3---3---3---3---3---|
E|-----------------------------3---|---------------------------------|---------------------------------|


E|-3---3---3---3---3---3---3-------|---------------------------------|---------------------------------|
B|-3---3---3---3---3---3---3-------|---------------------------------|-5---5---5---5---5---5---5---5---|
G|-4---4---4---4---4---4---4---3---|-3---3---3---3---3---3---3-------|-5---5---5---5---5---5---5---5---|
D|-5---5---5---5---5---5---5---3---|-3---3---3---3---3---3---3-------|-5---5---5---5---5---5---5---5---|
A|-5---5---5---5---5---5---5---1---|-1---1---1---1---1---1---1-------|-3---3---3---3---3---3---3---3---|
E|-3---3---3---3---3---3---3-------|-----------------------------3---|---------------------------------|


E|---------------------------------|-3---3---3---3---3---3---3-------|---------------------------------|
B|-5---5---5---5---5---5---5---5---|-3---3---3---3---3---3---3-------|---------------------------------|
G|-5---5---5---5---5---5---5---5---|-4---4---4---4---4---4---4---3---|-3---3---3---3---3---3---3-------|
D|-5---5---5---5---5---5---5---5---|-5---5---5---5---5---5---5---3---|-3---3---3---3---3---3---3-------|
A|-3---3---3---3---3---3---3---3---|-5---5---5---5---5---5---5---1---|-1---1---1---1---1---1---1-------|
E|---------------------------------|-3---3---3---3---3---3---3-------|-----------------------------3---|


E|---------------------------------|---------------------------------|-----------------------------------------|
B|-5---5---5---5---5---5---5---5---|-5---5---5---5---5---5---5---5---|-----------------------------------------|
G|-5---5---5---5---5---5---5---5---|-5---5---5---5---5---5---5---5---|-4---4--4--4---4--4--4---4--4--4---4--4--|
D|-5---5---5---5---5---5---5---5---|-5---5---5---5---5---5---5---5---|-5---5--5--5---5--5--5---5--5--5---5--5--|
A|-3---3---3---3---3---3---3---3---|-3---3---3---3---3---3---3---3---|-5---5--5--5---5--5--5---5--5--5---5--5--|
E|---------------------------------|---------------------------------|-3---3--3--3---3--3--3---3--3--3---3--3--|


E|-----------------------------------------|-----------------------------------------|
B|-----------------------------------------|-5---5--5--5---5--5--5---5--5--5---5--5--|
G|-3---3--3--3---3--3--3---3--3--3---3--3--|-5---5--5--5---5--5--5---5--5--5---5--5--|
D|-3---3--3--3---3--3--3---3--3--3---3--3--|-5---5--5--5---5--5--5---5--5--5---5--5--|
A|-1---1--1--1---1--1--1---1--1--1---1--1--|-3---3--3--3---3--3--3---3--3--3---3--3--|
E|-----------------------------------------|-----------------------------------------|


E|-----------------------------------------|-----------------------------------------|
B|-5---5--5--5---5--5--5---5--5--5---5--5--|-----------------------------------------|
G|-5---5--5--5---5--5--5---5--5--5---5--5--|-4---4--4--4---4--4--4---4--4--4---4--4--|
D|-5---5--5--5---5--5--5---5--5--5---5--5--|-5---5--5--5---5--5--5---5--5--5---5--5--|
A|-3---3--3--3---3--3--3---3--3--3---3--3--|-5---5--5--5---5--5--5---5--5--5---5--5--|
E|-----------------------------------------|-3---3--3--3---3--3--3---3--3--3---3--3--|


E|-----------------------------------------|-----------------------------------------|
B|-----------------------------------------|-5---5--5--5---5--5--5---5--5--5---5--5--|
G|-3---3--3--3---3--3--3---3--3--3---3--3--|-5---5--5--5---5--5--5---5--5--5---5--5--|
D|-3---3--3--3---3--3--3---3--3--3---3--3--|-5---5--5--5---5--5--5---5--5--5---5--5--|
A|-1---1--1--1---1--1--1---1--1--1---1--1--|-3---3--3--3---3--3--3---3--3--3---3--3--|
E|-----------------------------------------|-----------------------------------------|


E|-----------------------------------------|-----------------------------------------|
B|-5---5--5--5---5--5--5---5--5--5---5--5--|-----------------------------------------|
G|-5---5--5--5---5--5--5---5--5--5---5--5--|-4---4--4--4---4--4--4---4--4--4---4--4--|
D|-5---5--5--5---5--5--5---5--5--5---5--5--|-5---5--5--5---5--5--5---5--5--5---5--5--|
A|-3---3--3--3---3--3--3---3--3--3---3--3--|-5---5--5--5---5--5--5---5--5--5---5--5--|
E|-----------------------------------------|-3---3--3--3---3--3--3---3--3--3---3--3--|


E|-----------------------------------------|-----------------------------------------|
B|-----------------------------------------|-5---5--5--5---5--5--5---5--5--5---5--5--|
G|-3---3--3--3---3--3--3---3--3--3---3--3--|-5---5--5--5---5--5--5---5--5--5---5--5--|
D|-3---3--3--3---3--3--3---3--3--3---3--3--|-5---5--5--5---5--5--5---5--5--5---5--5--|
A|-1---1--1--1---1--1--1---1--1--1---1--1--|-3---3--3--3---3--3--3---3--3--3---3--3--|
E|-----------------------------------------|-----------------------------------------|


E|-----------------------------------------|-----------------------------------------|
B|-5---5--5--5---5--5--5---5--5--5---5--5--|-----------------------------------------|
G|-5---5--5--5---5--5--5---5--5--5---5--5--|-4---4--4--4---4--4--4---4--4--4---4--4--|
D|-5---5--5--5---5--5--5---5--5--5---5--5--|-5---5--5--5---5--5--5---5--5--5---5--5--|
A|-3---3--3--3---3--3--3---3--3--3---3--3--|-5---5--5--5---5--5--5---5--5--5---5--5--|
E|-----------------------------------------|-3---3--3--3---3--3--3---3--3--3---3--3--|


E|-----------------------------------------|-----------------------------------------|
B|-----------------------------------------|-5---5--5--5---5--5--5---5--5--5---5--5--|
G|-3---3--3--3---3--3--3---3--3--3---3--3--|-5---5--5--5---5--5--5---5--5--5---5--5--|
D|-3---3--3--3---3--3--3---3--3--3---3--3--|-5---5--5--5---5--5--5---5--5--5---5--5--|
A|-1---1--1--1---1--1--1---1--1--1---1--1--|-3---3--3--3---3--3--3---3--3--3---3--3--|
E|-----------------------------------------|-----------------------------------------|


E|-----------------------------------------|-----------------------------------------|
B|-5---5--5--5---5--5--5---5--5--5---5--5--|-----------------------------------------|
G|-5---5--5--5---5--5--5---5--5--5---5--5--|-4---4--4--4---4--4--4---4--4--4---4--4--|
D|-5---5--5--5---5--5--5---5--5--5---5--5--|-5---5--5--5---5--5--5---5--5--5---5--5--|
A|-3---3--3--3---3--3--3---3--3--3---3--3--|-5---5--5--5---5--5--5---5--5--5---5--5--|
E|-----------------------------------------|-3---3--3--3---3--3--3---3--3--3---3--3--|


E|-----------------------------------------|-----------------------------------------|
B|-----------------------------------------|-5---5--5--5---5--5--5---5--5--5---5--5--|
G|-3---3--3--3---3--3--3---3--3--3---3--3--|-5---5--5--5---5--5--5---5--5--5---5--5--|
D|-3---3--3--3---3--3--3---3--3--3---3--3--|-5---5--5--5---5--5--5---5--5--5---5--5--|
A|-1---1--1--1---1--1--1---1--1--1---1--1--|-3---3--3--3---3--3--3---3--3--3---3--3--|
E|-----------------------------------------|-----------------------------------------|


E|-----------------------------------------|-----------------------------------------|
B|-5---5--5--5---5--5--5---5--5--5---5--5--|-----------------------------------------|
G|-5---5--5--5---5--5--5---5--5--5---5--5--|-4---4--4--4---4--4--4---4--4--4---4--4--|
D|-5---5--5--5---5--5--5---5--5--5---5--5--|-5---5--5--5---5--5--5---5--5--5---5--5--|
A|-3---3--3--3---3--3--3---3--3--3---3--3--|-5---5--5--5---5--5--5---5--5--5---5--5--|
E|-----------------------------------------|-3---3--3--3---3--3--3---3--3--3---3--3--|


E|-----------------------------------------|-----------------------------------------|
B|-----------------------------------------|-5---5--5--5---5--5--5---5--5--5---5--5--|
G|-3---3--3--3---3--3--3---3--3--3---3--3--|-5---5--5--5---5--5--5---5--5--5---5--5--|
D|-3---3--3--3---3--3--3---3--3--3---3--3--|-5---5--5--5---5--5--5---5--5--5---5--5--|
A|-1---1--1--1---1--1--1---1--1--1---1--1--|-3---3--3--3---3--3--3---3--3--3---3--3--|
E|-----------------------------------------|-----------------------------------------|


E|-----------------------------------------|-------------------------------------------------|
B|-5---5--5--5---5--5--5---5--5--5---5--5--|-------------------------------------------------|
G|-5---5--5--5---5--5--5---5--5--5---5--5--|-4--4--4--4--4--4--4--4--4--4--4--4--4--4--4--4--|
D|-5---5--5--5---5--5--5---5--5--5---5--5--|-5--5--5--5--5--5--5--5--5--5--5--5--5--5--5--5--|
A|-3---3--3--3---3--3--3---3--3--3---3--3--|-5--5--5--5--5--5--5--5--5--5--5--5--5--5--5--5--|
E|-----------------------------------------|-3--3--3--3--3--3--3--3--3--3--3--3--3--3--3--3--|


E|-------------------------------------------------|-------------------------------------------------|
B|-------------------------------------------------|-5--5--5--5--5--5--5--5--5--5--5--5--5--5--5--5--|
G|-3--3--3--3--3--3--3--3--3--3--3--3--3--3--3--3--|-5--5--5--5--5--5--5--5--5--5--5--5--5--5--5--5--|
D|-3--3--3--3--3--3--3--3--3--3--3--3--3--3--3--3--|-5--5--5--5--5--5--5--5--5--5--5--5--5--5--5--5--|
A|-1--1--1--1--1--1--1--1--1--1--1--1--1--1--1--1--|-3--3--3--3--3--3--3--3--3--3--3--3--3--3--3--3--|
E|-------------------------------------------------|-------------------------------------------------|


E|-------------------------------------------------|-------------------------------------------------|
B|-5--5--5--5--5--5--5--5--5--5--5--5--5--5--5--5--|-------------------------------------------------|
G|-5--5--5--5--5--5--5--5--5--5--5--5--5--5--5--5--|-4--4--4--4--4--4--4--4--4--4--4--4--4--4--4--4--|
D|-5--5--5--5--5--5--5--5--5--5--5--5--5--5--5--5--|-5--5--5--5--5--5--5--5--5--5--5--5--5--5--5--5--|
A|-3--3--3--3--3--3--3--3--3--3--3--3--3--3--3--3--|-5--5--5--5--5--5--5--5--5--5--5--5--5--5--5--5--|
E|-------------------------------------------------|-3--3--3--3--3--3--3--3--3--3--3--3--3--3--3--3--|


E|-------------------------------------------------|-------------------------------------------------|
B|-------------------------------------------------|-5--5--5--5--5--5--5--5--5--5--5--5--5--5--5--5--|
G|-3--3--3--3--3--3--3--3--3--3--3--3--3--3--3--3--|-5--5--5--5--5--5--5--5--5--5--5--5--5--5--5--5--|
D|-3--3--3--3--3--3--3--3--3--3--3--3--3--3--3--3--|-5--5--5--5--5--5--5--5--5--5--5--5--5--5--5--5--|
A|-1--1--1--1--1--1--1--1--1--1--1--1--1--1--1--1--|-3--3--3--3--3--3--3--3--3--3--3--3--3--3--3--3--|
E|-------------------------------------------------|-------------------------------------------------|


E|------------------------------------------|---------------------------------|---------------------------------|
B|-5--5--5--5--5--5--5--5--5--5--5--5--5----|---------------------------------|---------------------------------|
G|-5--5--5--5--5--5--5--5--5--5--5--5--5----|-4---4---4---4---4---4---4---4---|-3---3---3---3---3---3---3---3---|
D|-5--5--5--5--5--5--5--5--5--5--5--5--5----|-5---5---5---5---5---5---5---5---|-3---3---3---3---3---3---3---3---|
A|-3--3--3--3--3--3--3--3--3--3--3--3--3----|-5---5---5---5---5---5---5---5---|-1---1---1---1---1---1---1---1---|
E|------------------------------------------|-3---3---3---3---3---3---3---3---|---------------------------------|


E|---------------------------------|---------------------------|---------------------------------|
B|-5---5---5---5---5---5---5---5---|-5---5---5---5---5---------|---------------------------------|
G|-5---5---5---5---5---5---5---5---|-5---5---5---5---5----3----|-4---4---4---4---4---4---4---4---|
D|-5---5---5---5---5---5---5---5---|-5---5---5---5---5----3----|-5---5---5---5---5---5---5---5---|
A|-3---3---3---3---3---3---3---3---|-3---3---3---3---3----1----|-5---5---5---5---5---5---5---5---|
E|---------------------------------|---------------------------|-3---3---3---3---3---3---3---3---|


E|---------------------------------|---------------------------------|---------------------------|
B|---------------------------------|-5---5---5---5---5---5---5---5---|-5---5---5---5---5---------|
G|-3---3---3---3---3---3---3---3---|-5---5---5---5---5---5---5---5---|-5---5---5---5---5----3----|
D|-3---3---3---3---3---3---3---3---|-5---5---5---5---5---5---5---5---|-5---5---5---5---5----3----|
A|-1---1---1---1---1---1---1---1---|-3---3---3---3---3---3---3---3---|-3---3---3---3---3----1----|
E|---------------------------------|---------------------------------|---------------------------|


E|---------------------------------|---------------------------------|---------------------------------|
B|---------------------------------|---------------------------------|-5---5---5---5---5---5---5---5---|
G|-4---4---4---4---4---4---4---4---|-3---3---3---3---3---3---3---3---|-5---5---5---5---5---5---5---5---|
D|-5---5---5---5---5---5---5---5---|-3---3---3---3---3---3---3---3---|-5---5---5---5---5---5---5---5---|
A|-5---5---5---5---5---5---5---5---|-1---1---1---1---1---1---1---1---|-3---3---3---3---3---3---3---3---|
E|-3---3---3---3---3---3---3---3---|---------------------------------|---------------------------------|


E|---------------------------|---------------------------------|---------------------------------|
B|-5---5---5---5---5---------|---------------------------------|---------------------------------|
G|-5---5---5---5---5----3----|-4---4---4---4---4---4---4---4---|-3---3---3---3---3---3---3---3---|
D|-5---5---5---5---5----3----|-5---5---5---5---5---5---5---5---|-3---3---3---3---3---3---3---3---|
A|-3---3---3---3---3----1----|-5---5---5---5---5---5---5---5---|-1---1---1---1---1---1---1---1---|
E|---------------------------|-3---3---3---3---3---3---3---3---|---------------------------------|


E|---------------------------------|---------------------------------|---------------------------|
B|-5---5---5---5---5---5---5---5---|-5---5---------------------------|---------------------------|
G|-5---5---5---5---5---5---5---5---|-5---5---4---4---3---3---2---2---|-4----4----4---4---4---4---|
D|-5---5---5---5---5---5---5---5---|-5---5---4---4---3---3---2---2---|-5----5----5---5---5---5---|
A|-3---3---3---3---3---3---3---3---|-3---3---2---2---1---1---0---0---|-5----5----5---5---5---5---|
E|---------------------------------|---------------------------------|-3----3----3---3---3---3---|


E|---------------------------|---------------------------|---------------------------|
B|---------------------------|-5----5----5---5---5---5---|-5---5---5---5---5---------|
G|-3----3----3---3---3---3---|-5----5----5---5---5---5---|-5---5---5---5---5---3-----|
D|-3----3----3---3---3---3---|-5----5----5---5---5---5---|-5---5---5---5---5---3-----|
A|-1----1----1---1---1---1---|-3----3----3---3---3---3---|-3---3---3---3---3---1-----|
E|---------------------------|---------------------------|---------------------------|


E|---------------------------|---------------------------|---------------------------|
B|---------------------------|---------------------------|-5----5----5---5---5---5---|
G|-4----4----4---4---4---4---|-3----3----3---3---3---3---|-5----5----5---5---5---5---|
D|-5----5----5---5---5---5---|-3----3----3---3---3---3---|-5----5----5---5---5---5---|
A|-5----5----5---5---5---5---|-1----1----1---1---1---1---|-3----3----3---3---3---3---|
E|-3----3----3---3---3---3---|---------------------------|---------------------------|


E|---------------------------|--------|--------|--------|--------|--------|--------|
B|-5---5---5---5---5---------|--------|--------|--------|--------|--------|--------|
G|-5---5---5---5---5---3-----|--------|--------|--------|--------|--------|--------|
D|-5---5---5---5---5---3-----|--------|--------|--------|--------|--------|--------|
A|-3---3---3---3---3---1-----|--------|--------|--------|--------|--------|--------|
E|---------------------------|--------|--------|--------|--------|--------|--------|





Track 2: Clean Gtr.

E|--------|--------|--------|-------------------|---------------------------------------|
B|--------|--------|--------|-------------------|---------------------------------------|
G|--------|--------|--------|-------------------|---------------------------------------|
D|--------|--------|--------|-------------------|-----0---------0--0------0---------0---|
A|--------|--------|--------|-------------------|---------2-------------------0---------|
E|--------|--------|--------|-------------0--2--|-3----------3--------2----------2------|


E|-----------------------------------------------|-----------------------------------------------|
B|-----------------------------------------------|-----------------------------------------------|
G|-----------------------------------0--------0--|-----------0-----------------0--------------0--|
D|-------2---2-----2-----2--2--------2--0--------|-------3---3-----3--------2-----2--3--2--0-----|
A|----2------2--2-----2--------2-----------2-----|----3---------3-----3--3-----------------------|
E|-0------------0-----------------0--------------|-1---------------------------------------------|


E|------------------------------------|---------------------------------------|-----------------------------------------------|
B|--------3---------3---------3-------|---------------------------------------|-----------------------------------------------|
G|-0--2------0--2------0--2------2----|---------------------------------------|-----------------------------------0--------0--|
D|------------------------------------|-----0---------0--0------0---------0---|-------2---2-----2-----2--2--------2--0--------|
A|------------------------------------|---------2-------------------0---------|----2------2--2-----2--------2-----------2-----|
E|------------------------------------|-3----------3--------2----------2------|-0------------0-----------------0--------------|


E|-----------------------------------------------|------------------------------------|
B|-----------------------------------------------|--------3---------3---------3-------|
G|-----------0-----------------0--------------0--|-0--2------0--2------0--2------2----|
D|-------3---3-----3--------2-----2--3--2--0-----|------------------------------------|
A|----3---------3-----3--3-----------------------|------------------------------------|
E|-1---------------------------------------------|------------------------------------|


E|---------------------------------------|-----------------------------------------------|
B|---------------------------------------|-----------------------------------------------|
G|---------------------------------------|-----------------------------------0--------0--|
D|-----0---------0--0------0---------0---|-------2---2-----2-----2--2--------2--0--------|
A|---------2-------------------0---------|----2------2--2-----2--------2-----------2-----|
E|-3----------3--------2----------2------|-0------------0-----------------0--------------|


E|-----------------------------------------------|------------------------------------|
B|-----------------------------------------------|--------3---------3---------3-------|
G|-----------0-----------------0--------------0--|-0--2------0--2------0--2------2----|
D|-------3---3-----3--------2-----2--3--2--0-----|------------------------------------|
A|----3---------3-----3--3-----------------------|------------------------------------|
E|-1---------------------------------------------|------------------------------------|


E|---------------------------------------|-----------------------------------------------|
B|---------------------------------------|-----------------------------------------------|
G|---------------------------------------|-----------------------------------0--------0--|
D|-----0---------0--0------0---------0---|-------2---2-----2-----2--2--------2--0--------|
A|---------2-------------------0---------|----2------2--2-----2--------2-----------2-----|
E|-3----------3--------2----------2------|-0------------0-----------------0--------------|


E|-----------------------------------------------|------------------------------------|
B|-----------------------------------------------|--------3---------3---------3-------|
G|-----------0-----------------0--------------0--|-0--2------0--2------0--2------2----|
D|-------3---3-----3--------2-----2--3--2--0-----|------------------------------------|
A|----3---------3-----3--3-----------------------|------------------------------------|
E|-1---------------------------------------------|------------------------------------|


E|---------------------------------------|-----------------------------------------------|
B|---------------------------------------|-----------------------------------------------|
G|---------------------------------------|-----------------------------------0--------0--|
D|-----0---------0--0------0---------0---|-------2---2-----2-----2--2--------2--0--------|
A|---------2-------------------0---------|----2------2--2-----2--------2-----------2-----|
E|-3----------3--------2----------2------|-0------------0-----------------0--------------|


E|-----------------------------------------------|------------------------------------|
B|-----------------------------------------------|--------3---------3---------3-------|
G|-----------0-----------------0--------------0--|-0--2------0--2------0--2------2----|
D|-------3---3-----3--------2-----2--3--2--0-----|------------------------------------|
A|----3---------3-----3--3-----------------------|------------------------------------|
E|-1---------------------------------------------|------------------------------------|


E|---------------------------------------|-----------------------------------------------|
B|---------------------------------------|-----------------------------------------------|
G|---------------------------------------|-----------------------------------0--------0--|
D|-----0---------0--0------0---------0---|-------2---2-----2-----2--2--------2--0--------|
A|---------2-------------------0---------|----2------2--2-----2--------2-----------2-----|
E|-3----------3--------2----------2------|-0------------0-----------------0--------------|


E|-----------------------------------------------|------------------------------------|
B|-----------------------------------------------|--------3---------3---------3-------|
G|-----------0-----------------0--------------0--|-0--2------0--2------0--2------2----|
D|-------3---3-----3--------2-----2--3--2--0-----|------------------------------------|
A|----3---------3-----3--3-----------------------|------------------------------------|
E|-1---------------------------------------------|------------------------------------|


E|---------------------------------------|-----------------------------------------------|
B|---------------------------------------|-----------------------------------------------|
G|---------------------------------------|-----------------------------------0--------0--|
D|-----0---------0--0------0---------0---|-------2---2-----2-----2--2--------2--0--------|
A|---------2-------------------0---------|----2------2--2-----2--------2-----------2-----|
E|-3----------3--------2----------2------|-0------------0-----------------0--------------|


E|-----------------------------------------------|------------------------------------|
B|-----------------------------------------------|--------3---------3---------3-------|
G|-----------0-----------------0--------------0--|-0--2------0--2------0--2------2----|
D|-------3---3-----3--------2-----2--3--2--0-----|------------------------------------|
A|----3---------3-----3--3-----------------------|------------------------------------|
E|-1---------------------------------------------|------------------------------------|


E|---------------------0---0--0--0---0--0--|-2---2--2--2---2--2--2--2--2--2--2--2--2--2--|
B|-1---1--1--1---1--1--1---1--1--1---1--1--|-3---13-3--3---3--3--3--3--3--3--3--3--3--3--|
G|-2---2--2--2---2--2--0---2--0--0---2--0--|-2---2--2--2---2--2--2--2--2--2--2--2--2--2--|
D|-3---2--2--3---2--2--2---22-2--2---22-2--|-0---0--0--0---0--0--0--0--0--0--0--0--0--0--|
A|-3---3--3--3---3--3--3---3--3--3---3--3--|---------------------------------------------|
E|-1---1--1--1---1--1----------------------|---------------------------------------------|


E|--------|--------|--------|--------|---------------------------------------|-----------------------------------------------|
B|--------|--------|--------|--------|---------------------------------------|-----------------------------------------------|
G|--------|--------|--------|--------|---------------------------------------|-----------------------------------0--------0--|
D|--------|--------|--------|--------|-----0---------0--0------0---------0---|-------2---2-----2-----2--2--------2--0--------|
A|--------|--------|--------|--------|---------2-------------------0---------|----2------2--2-----2--------2-----------2-----|
E|--------|--------|--------|--------|-3----------3--------2----------2------|-0------------0-----------------0--------------|


E|-----------------------------------------------|------------------------------------|
B|-----------------------------------------------|--------3---------3---------3-------|
G|-----------0-----------------0--------------0--|-0--2------0--2------0--2------2----|
D|-------3---3-----3--------2-----2--3--2--0-----|------------------------------------|
A|----3---------3-----3--3-----------------------|------------------------------------|
E|-1---------------------------------------------|------------------------------------|


E|---------------------------------------|-----------------------------------------------|
B|---------------------------------------|-----------------------------------------------|
G|---------------------------------------|-----------------------------------0--------0--|
D|-----0---------0--0------0---------0---|-------2---2-----2-----2--2--------2--0--------|
A|---------2-------------------0---------|----2------2--2-----2--------2-----------2-----|
E|-3----------3--------2----------2------|-0------------0-----------------0--------------|


E|-----------------------------------------------|------------------------------------|
B|-----------------------------------------------|--------3---------3---------3-------|
G|-----------0-----------------0--------------0--|-0--2------0--2------0--2------2----|
D|-------3---3-----3--------2-----2--3--2--0-----|------------------------------------|
A|----3---------3-----3--3-----------------------|------------------------------------|
E|-1---------------------------------------------|------------------------------------|


E|---------------------------------------|-----------------------------------------------|
B|---------------------------------------|-----------------------------------------------|
G|---------------------------------------|-----------------------------------0--------0--|
D|-----0---------0--0------0---------0---|-------2---2-----2-----2--2--------2--0--------|
A|---------2-------------------0---------|----2------2--2-----2--------2-----------2-----|
E|-3----------3--------2----------2------|-0------------0-----------------0--------------|


E|-----------------------------------------------|------------------------------------|
B|-----------------------------------------------|--------3---------3---------3-------|
G|-----------0-----------------0--------------0--|-0--2------0--2------0--2------2----|
D|-------3---3-----3--------2-----2--3--2--0-----|------------------------------------|
A|----3---------3-----3--3-----------------------|------------------------------------|
E|-1---------------------------------------------|------------------------------------|


E|---------------------------------------|-----------------------------------------------|
B|---------------------------------------|-----------------------------------------------|
G|---------------------------------------|-----------------------------------0--------0--|
D|-----0---------0--0------0---------0---|-------2---2-----2-----2--2--------2--0--------|
A|---------2-------------------0---------|----2------2--2-----2--------2-----------2-----|
E|-3----------3--------2----------2------|-0------------0-----------------0--------------|


E|-----------------------------------------------|------------------------------------|
B|-----------------------------------------------|--------3---------3---------3-------|
G|-----------0-----------------0--------------0--|-0--2------0--2------0--2------2----|
D|-------3---3-----3--------2-----2--3--2--0-----|------------------------------------|
A|----3---------3-----3--3-----------------------|------------------------------------|
E|-1---------------------------------------------|------------------------------------|


E|---------------------------------------|-----------------------------------------------|
B|---------------------------------------|-----------------------------------------------|
G|---------------------------------------|-----------------------------------0--------0--|
D|-----0---------0--0------0---------0---|-------2---2-----2-----2--2--------2--0--------|
A|---------2-------------------0---------|----2------2--2-----2--------2-----------2-----|
E|-3----------3--------2----------2------|-0------------0-----------------0--------------|


E|-----------------------------------------------|------------------------------------|
B|-----------------------------------------------|--------3---------3---------3-------|
G|-----------0-----------------0--------------0--|-0--2------0--2------0--2------2----|
D|-------3---3-----3--------2-----2--3--2--0-----|------------------------------------|
A|----3---------3-----3--3-----------------------|------------------------------------|
E|-1---------------------------------------------|------------------------------------|


E|---------------------------------------|-----------------------------------------------|
B|---------------------------------------|-----------------------------------------------|
G|---------------------------------------|-----------------------------------0--------0--|
D|-----0---------0--0------0---------0---|-------2---2-----2-----2--2--------2--0--------|
A|---------2-------------------0---------|----2------2--2-----2--------2-----------2-----|
E|-3----------3--------2----------2------|-0------------0-----------------0--------------|


E|-----------------------------------------------|------------------------------------|
B|-----------------------------------------------|--------3---------3---------3-------|
G|-----------0-----------------0--------------0--|-0--2------0--2------0--2------2----|
D|-------3---3-----3--------2-----2--3--2--0-----|------------------------------------|
A|----3---------3-----3--3-----------------------|------------------------------------|
E|-1---------------------------------------------|------------------------------------|


E|---------------------0---0--0--0---0--0--|--------|--------|--------|--------|--------|
B|-1---1--1--1---1--1--1---1--1--1---1--1--|--------|--------|--------|--------|--------|
G|-2---2--2--2---2--2--0---2--0--0---2--0--|--------|--------|--------|--------|--------|
D|-3---2--2--3---2--2--2---22-2--2---22-2--|--------|--------|--------|--------|--------|
A|-3---3--3--3---3--3--3---3--3--3---3--3--|--------|--------|--------|--------|--------|
E|-1---1--1--1---1--1----------------------|--------|--------|--------|--------|--------|


E|--------|--------|--------|--------|--------|--------|--------|--------|--------|
B|--------|--------|--------|--------|--------|--------|--------|--------|--------|
G|--------|--------|--------|--------|--------|--------|--------|--------|--------|
D|--------|--------|--------|--------|--------|--------|--------|--------|--------|
A|--------|--------|--------|--------|--------|--------|--------|--------|--------|
E|--------|--------|--------|--------|--------|--------|--------|--------|--------|


E|--------|--------|--------|--------|--------|--------|--------|--------|--------|
B|--------|--------|--------|--------|--------|--------|--------|--------|--------|
G|--------|--------|--------|--------|--------|--------|--------|--------|--------|
D|--------|--------|--------|--------|--------|--------|--------|--------|--------|
A|--------|--------|--------|--------|--------|--------|--------|--------|--------|
E|--------|--------|--------|--------|--------|--------|--------|--------|--------|


E|--------|--------|--------|--------|--------|--------|--------|--------|--------|
B|--------|--------|--------|--------|--------|--------|--------|--------|--------|
G|--------|--------|--------|--------|--------|--------|--------|--------|--------|
D|--------|--------|--------|--------|--------|--------|--------|--------|--------|
A|--------|--------|--------|--------|--------|--------|--------|--------|--------|
E|--------|--------|--------|--------|--------|--------|--------|--------|--------|


E|--------|--------|--------|--------|--------|--------|--------|--------|--------|
B|--------|--------|--------|--------|--------|--------|--------|--------|--------|
G|--------|--------|--------|--------|--------|--------|--------|--------|--------|
D|--------|--------|--------|--------|--------|--------|--------|--------|--------|
A|--------|--------|--------|--------|--------|--------|--------|--------|--------|
E|--------|--------|--------|--------|--------|--------|--------|--------|--------|


E|--------|--------|--------|--------|--------|--------|--------|--------|--------|
B|--------|--------|--------|--------|--------|--------|--------|--------|--------|
G|--------|--------|--------|--------|--------|--------|--------|--------|--------|
D|--------|--------|--------|--------|--------|--------|--------|--------|--------|
A|--------|--------|--------|--------|--------|--------|--------|--------|--------|
E|--------|--------|--------|--------|--------|--------|--------|--------|--------|


E|--------|--------|--------|--------|--------|--------|--------|--------|--------|
B|--------|--------|--------|--------|--------|--------|--------|--------|--------|
G|--------|--------|--------|--------|--------|--------|--------|--------|--------|
D|--------|--------|--------|--------|--------|--------|--------|--------|--------|
A|--------|--------|--------|--------|--------|--------|--------|--------|--------|
E|--------|--------|--------|--------|--------|--------|--------|--------|--------|


E|--------|--------|--------|--------|--------|--------|--------|--------|--------|
B|--------|--------|--------|--------|--------|--------|--------|--------|--------|
G|--------|--------|--------|--------|--------|--------|--------|--------|--------|
D|--------|--------|--------|--------|--------|--------|--------|--------|--------|
A|--------|--------|--------|--------|--------|--------|--------|--------|--------|
E|--------|--------|--------|--------|--------|--------|--------|--------|--------|


E|--------|--------|--------|--------|--------|--------|--------|--------|--------|
B|--------|--------|--------|--------|--------|--------|--------|--------|--------|
G|--------|--------|--------|--------|--------|--------|--------|--------|--------|
D|--------|--------|--------|--------|--------|--------|--------|--------|--------|
A|--------|--------|--------|--------|--------|--------|--------|--------|--------|
E|--------|--------|--------|--------|--------|--------|--------|--------|--------|


E|--------|--------|--------|--------|--------|--------|--------|--------|--------|
B|--------|--------|--------|--------|--------|--------|--------|--------|--------|
G|--------|--------|--------|--------|--------|--------|--------|--------|--------|
D|--------|--------|--------|--------|--------|--------|--------|--------|--------|
A|--------|--------|--------|--------|--------|--------|--------|--------|--------|
E|--------|--------|--------|--------|--------|--------|--------|--------|--------|


E|--------|--------|--------|--------|--------|--------|--------|--------|--------|
B|--------|--------|--------|--------|--------|--------|--------|--------|--------|
G|--------|--------|--------|--------|--------|--------|--------|--------|--------|
D|--------|--------|--------|--------|--------|--------|--------|--------|--------|
A|--------|--------|--------|--------|--------|--------|--------|--------|--------|
E|--------|--------|--------|--------|--------|--------|--------|--------|--------|


E|--------|--------|--------|--------|--------|--------|--------|--------|--------|
B|--------|--------|--------|--------|--------|--------|--------|--------|--------|
G|--------|--------|--------|--------|--------|--------|--------|--------|--------|
D|--------|--------|--------|--------|--------|--------|--------|--------|--------|
A|--------|--------|--------|--------|--------|--------|--------|--------|--------|
E|--------|--------|--------|--------|--------|--------|--------|--------|--------|


E|--------|--------|--------|--------|--------|--------|--------|--------|--------|
B|--------|--------|--------|--------|--------|--------|--------|--------|--------|
G|--------|--------|--------|--------|--------|--------|--------|--------|--------|
D|--------|--------|--------|--------|--------|--------|--------|--------|--------|
A|--------|--------|--------|--------|--------|--------|--------|--------|--------|
E|--------|--------|--------|--------|--------|--------|--------|--------|--------|


E|--------|--------|--------|--------|--------|--------|--------|--------|--------|
B|--------|--------|--------|--------|--------|--------|--------|--------|--------|
G|--------|--------|--------|--------|--------|--------|--------|--------|--------|
D|--------|--------|--------|--------|--------|--------|--------|--------|--------|
A|--------|--------|--------|--------|--------|--------|--------|--------|--------|
E|--------|--------|--------|--------|--------|--------|--------|--------|--------|


E|--------|--------|--------|--------|--------|--------|--------|--------|--------|
B|--------|--------|--------|--------|--------|--------|--------|--------|--------|
G|--------|--------|--------|--------|--------|--------|--------|--------|--------|
D|--------|--------|--------|--------|--------|--------|--------|--------|--------|
A|--------|--------|--------|--------|--------|--------|--------|--------|--------|
E|--------|--------|--------|--------|--------|--------|--------|--------|--------|


E|--------|--------|--------|--------|--------|--------|--------|--------|--------|
B|--------|--------|--------|--------|--------|--------|--------|--------|--------|
G|--------|--------|--------|--------|--------|--------|--------|--------|--------|
D|--------|--------|--------|--------|--------|--------|--------|--------|--------|
A|--------|--------|--------|--------|--------|--------|--------|--------|--------|
E|--------|--------|--------|--------|--------|--------|--------|--------|--------|


E|--------|--------|--------|--------|--------|--------|--------|--------|--------|
B|--------|--------|--------|--------|--------|--------|--------|--------|--------|
G|--------|--------|--------|--------|--------|--------|--------|--------|--------|
D|--------|--------|--------|--------|--------|--------|--------|--------|--------|
A|--------|--------|--------|--------|--------|--------|--------|--------|--------|
E|--------|--------|--------|--------|--------|--------|--------|--------|--------|


E|--------|--------|--------|--------|--------|--------|--------|--------|--------|
B|--------|--------|--------|--------|--------|--------|--------|--------|--------|
G|--------|--------|--------|--------|--------|--------|--------|--------|--------|
D|--------|--------|--------|--------|--------|--------|--------|--------|--------|
A|--------|--------|--------|--------|--------|--------|--------|--------|--------|
E|--------|--------|--------|--------|--------|--------|--------|--------|--------|


E|--------|--------|--------|--------|--------|--------|--------|--------|--------|
B|--------|--------|--------|--------|--------|--------|--------|--------|--------|
G|--------|--------|--------|--------|--------|--------|--------|--------|--------|
D|--------|--------|--------|--------|--------|--------|--------|--------|--------|
A|--------|--------|--------|--------|--------|--------|--------|--------|--------|
E|--------|--------|--------|--------|--------|--------|--------|--------|--------|


E|--------|--------|
B|--------|--------|
G|--------|--------|
D|--------|--------|
A|--------|--------|
E|--------|--------|





Track 3: Organ

E|-3-----2-----|-0------0-------|-------------|-3----2----0----2----|-3-----2-----|
B|-3-----3-----|-0------0--3----|-1-----1-----|-3-------------------|-3-----3-----|
G|-4-----2-----|-0------0-------|-2-----0-----|-2-------------------|-4-----2-----|
D|-5-----4-----|-2--------------|-3-----2-----|-0-------------------|-5-----4-----|
A|-------------|----------------|-------------|---------------------|-------------|
E|-------------|----------------|-------------|---------------------|-------------|


E|-0------0-------|-------------|--------|--------|--------|--------|--------|--------|
B|-0------0--3----|-1-----1-----|--------|--------|--------|--------|--------|--------|
G|-0------0-------|-2-----0-----|--------|--------|--------|--------|--------|--------|
D|-2--------------|-3-----2-----|--------|--------|--------|--------|--------|--------|
A|----------------|-------------|--------|--------|--------|--------|--------|--------|
E|----------------|-------------|--------|--------|--------|--------|--------|--------|


E|--------|--------|--------|--------|--------|--------|--------|--------|--------|
B|--------|--------|--------|--------|--------|--------|--------|--------|--------|
G|--------|--------|--------|--------|--------|--------|--------|--------|--------|
D|--------|--------|--------|--------|--------|--------|--------|--------|--------|
A|--------|--------|--------|--------|--------|--------|--------|--------|--------|
E|--------|--------|--------|--------|--------|--------|--------|--------|--------|


E|--------|--------|--------|--------|--------|--------|--------|--------|--------|
B|--------|--------|--------|--------|--------|--------|--------|--------|--------|
G|--------|--------|--------|--------|--------|--------|--------|--------|--------|
D|--------|--------|--------|--------|--------|--------|--------|--------|--------|
A|--------|--------|--------|--------|--------|--------|--------|--------|--------|
E|--------|--------|--------|--------|--------|--------|--------|--------|--------|


E|--------|--------|--------|--------|--------|--------|--------|--------|--------|
B|--------|--------|--------|--------|--------|--------|--------|--------|--------|
G|--------|--------|--------|--------|--------|--------|--------|--------|--------|
D|--------|--------|--------|--------|--------|--------|--------|--------|--------|
A|--------|--------|--------|--------|--------|--------|--------|--------|--------|
E|--------|--------|--------|--------|--------|--------|--------|--------|--------|


E|--------|--------|--------|--------|--------|--------|--------|--------|--------|
B|--------|--------|--------|--------|--------|--------|--------|--------|--------|
G|--------|--------|--------|--------|--------|--------|--------|--------|--------|
D|--------|--------|--------|--------|--------|--------|--------|--------|--------|
A|--------|--------|--------|--------|--------|--------|--------|--------|--------|
E|--------|--------|--------|--------|--------|--------|--------|--------|--------|


E|--------|--------|--------|--------|--------|--------|--------|--------|--------|
B|--------|--------|--------|--------|--------|--------|--------|--------|--------|
G|--------|--------|--------|--------|--------|--------|--------|--------|--------|
D|--------|--------|--------|--------|--------|--------|--------|--------|--------|
A|--------|--------|--------|--------|--------|--------|--------|--------|--------|
E|--------|--------|--------|--------|--------|--------|--------|--------|--------|


E|--------|--------|--------|--------|--------|--------|--------|--------|--------|
B|--------|--------|--------|--------|--------|--------|--------|--------|--------|
G|--------|--------|--------|--------|--------|--------|--------|--------|--------|
D|--------|--------|--------|--------|--------|--------|--------|--------|--------|
A|--------|--------|--------|--------|--------|--------|--------|--------|--------|
E|--------|--------|--------|--------|--------|--------|--------|--------|--------|


E|--------|--------|--------|--------|--------|--------|--------|--------|--------|
B|--------|--------|--------|--------|--------|--------|--------|--------|--------|
G|--------|--------|--------|--------|--------|--------|--------|--------|--------|
D|--------|--------|--------|--------|--------|--------|--------|--------|--------|
A|--------|--------|--------|--------|--------|--------|--------|--------|--------|
E|--------|--------|--------|--------|--------|--------|--------|--------|--------|


E|--------|--------|--------|--------|--------|--------|--------|--------|--------|
B|--------|--------|--------|--------|--------|--------|--------|--------|--------|
G|--------|--------|--------|--------|--------|--------|--------|--------|--------|
D|--------|--------|--------|--------|--------|--------|--------|--------|--------|
A|--------|--------|--------|--------|--------|--------|--------|--------|--------|
E|--------|--------|--------|--------|--------|--------|--------|--------|--------|


E|--------|--------|--------|--------|--------|--------|--------|--------|--------|
B|--------|--------|--------|--------|--------|--------|--------|--------|--------|
G|--------|--------|--------|--------|--------|--------|--------|--------|--------|
D|--------|--------|--------|--------|--------|--------|--------|--------|--------|
A|--------|--------|--------|--------|--------|--------|--------|--------|--------|
E|--------|--------|--------|--------|--------|--------|--------|--------|--------|


E|--------|--------|--------|--------|--------|--------|--------|--------|--------|
B|--------|--------|--------|--------|--------|--------|--------|--------|--------|
G|--------|--------|--------|--------|--------|--------|--------|--------|--------|
D|--------|--------|--------|--------|--------|--------|--------|--------|--------|
A|--------|--------|--------|--------|--------|--------|--------|--------|--------|
E|--------|--------|--------|--------|--------|--------|--------|--------|--------|


E|--------|--------|--------|--------|--------|--------|--------|--------|--------|
B|--------|--------|--------|--------|--------|--------|--------|--------|--------|
G|--------|--------|--------|--------|--------|--------|--------|--------|--------|
D|--------|--------|--------|--------|--------|--------|--------|--------|--------|
A|--------|--------|--------|--------|--------|--------|--------|--------|--------|
E|--------|--------|--------|--------|--------|--------|--------|--------|--------|


E|--------|--------|--------|--------|--------|--------|--------|--------|--------|
B|--------|--------|--------|--------|--------|--------|--------|--------|--------|
G|--------|--------|--------|--------|--------|--------|--------|--------|--------|
D|--------|--------|--------|--------|--------|--------|--------|--------|--------|
A|--------|--------|--------|--------|--------|--------|--------|--------|--------|
E|--------|--------|--------|--------|--------|--------|--------|--------|--------|


E|--------|--------|--------|--------|--------|--------|--------|--------|--------|
B|--------|--------|--------|--------|--------|--------|--------|--------|--------|
G|--------|--------|--------|--------|--------|--------|--------|--------|--------|
D|--------|--------|--------|--------|--------|--------|--------|--------|--------|
A|--------|--------|--------|--------|--------|--------|--------|--------|--------|
E|--------|--------|--------|--------|--------|--------|--------|--------|--------|


E|--------|--------|--------|--------|--------|--------|--------|--------|--------|
B|--------|--------|--------|--------|--------|--------|--------|--------|--------|
G|--------|--------|--------|--------|--------|--------|--------|--------|--------|
D|--------|--------|--------|--------|--------|--------|--------|--------|--------|
A|--------|--------|--------|--------|--------|--------|--------|--------|--------|
E|--------|--------|--------|--------|--------|--------|--------|--------|--------|


E|--------|--------|--------|--------|--------|--------|--------|--------|--------|
B|--------|--------|--------|--------|--------|--------|--------|--------|--------|
G|--------|--------|--------|--------|--------|--------|--------|--------|--------|
D|--------|--------|--------|--------|--------|--------|--------|--------|--------|
A|--------|--------|--------|--------|--------|--------|--------|--------|--------|
E|--------|--------|--------|--------|--------|--------|--------|--------|--------|


E|--------|--------|--------|--------|--------|--------|--------|--------|--------|
B|--------|--------|--------|--------|--------|--------|--------|--------|--------|
G|--------|--------|--------|--------|--------|--------|--------|--------|--------|
D|--------|--------|--------|--------|--------|--------|--------|--------|--------|
A|--------|--------|--------|--------|--------|--------|--------|--------|--------|
E|--------|--------|--------|--------|--------|--------|--------|--------|--------|


E|--------|--------|--------|--------|--------|--------|--------|--------|--------|
B|--------|--------|--------|--------|--------|--------|--------|--------|--------|
G|--------|--------|--------|--------|--------|--------|--------|--------|--------|
D|--------|--------|--------|--------|--------|--------|--------|--------|--------|
A|--------|--------|--------|--------|--------|--------|--------|--------|--------|
E|--------|--------|--------|--------|--------|--------|--------|--------|--------|


E|--------|--------|--------|--------|--------|--------|--------|--------|--------|
B|--------|--------|--------|--------|--------|--------|--------|--------|--------|
G|--------|--------|--------|--------|--------|--------|--------|--------|--------|
D|--------|--------|--------|--------|--------|--------|--------|--------|--------|
A|--------|--------|--------|--------|--------|--------|--------|--------|--------|
E|--------|--------|--------|--------|--------|--------|--------|--------|--------|


E|--------|--------|--------|--------|--------|--------|--------|--------|--------|
B|--------|--------|--------|--------|--------|--------|--------|--------|--------|
G|--------|--------|--------|--------|--------|--------|--------|--------|--------|
D|--------|--------|--------|--------|--------|--------|--------|--------|--------|
A|--------|--------|--------|--------|--------|--------|--------|--------|--------|
E|--------|--------|--------|--------|--------|--------|--------|--------|--------|


E|--------|--------|--------|--------|--------|--------|--------|--------|--------|
B|--------|--------|--------|--------|--------|--------|--------|--------|--------|
G|--------|--------|--------|--------|--------|--------|--------|--------|--------|
D|--------|--------|--------|--------|--------|--------|--------|--------|--------|
A|--------|--------|--------|--------|--------|--------|--------|--------|--------|
E|--------|--------|--------|--------|--------|--------|--------|--------|--------|


E|--------|--------|--------|--------|--------|--------|--------|--------|--------|
B|--------|--------|--------|--------|--------|--------|--------|--------|--------|
G|--------|--------|--------|--------|--------|--------|--------|--------|--------|
D|--------|--------|--------|--------|--------|--------|--------|--------|--------|
A|--------|--------|--------|--------|--------|--------|--------|--------|--------|
E|--------|--------|--------|--------|--------|--------|--------|--------|--------|


E|--------|--------|--------|--------|--------|--------|--------|--------|--------|
B|--------|--------|--------|--------|--------|--------|--------|--------|--------|
G|--------|--------|--------|--------|--------|--------|--------|--------|--------|
D|--------|--------|--------|--------|--------|--------|--------|--------|--------|
A|--------|--------|--------|--------|--------|--------|--------|--------|--------|
E|--------|--------|--------|--------|--------|--------|--------|--------|--------|


E|--------|--------|--------|--------|--------|--------|--------|--------|--------|
B|--------|--------|--------|--------|--------|--------|--------|--------|--------|
G|--------|--------|--------|--------|--------|--------|--------|--------|--------|
D|--------|--------|--------|--------|--------|--------|--------|--------|--------|
A|--------|--------|--------|--------|--------|--------|--------|--------|--------|
E|--------|--------|--------|--------|--------|--------|--------|--------|--------|


E|--------|--------|--------|--------|--------|--------|--------|--------|--------|
B|--------|--------|--------|--------|--------|--------|--------|--------|--------|
G|--------|--------|--------|--------|--------|--------|--------|--------|--------|
D|--------|--------|--------|--------|--------|--------|--------|--------|--------|
A|--------|--------|--------|--------|--------|--------|--------|--------|--------|
E|--------|--------|--------|--------|--------|--------|--------|--------|--------|


E|--------|--------|--------|
B|--------|--------|--------|
G|--------|--------|--------|
D|--------|--------|--------|
A|--------|--------|--------|
E|--------|--------|--------|





Track 4: Solo Gtr.

E|--------|--------|--------|--------|--------|--------|--------|----------------|
B|--------|--------|--------|--------|--------|--------|--------|----------------|
G|--------|--------|--------|--------|--------|--------|--------|------------7---|
D|--------|--------|--------|--------|--------|--------|--------|----------------|
A|--------|--------|--------|--------|--------|--------|--------|----------------|
E|--------|--------|--------|--------|--------|--------|--------|----------------|


E|-------------------------|---------------------------------------------|-----------------------------------------|
B|-------------------------|---------------------------------------------|-----------------------------------------|
G|-12------11--12-11----12-|-12-11-9--7--9--11----7--9----9--9--7--------|-----10-10-10-9----------------4--5---7--|
D|-------------------------|---------------------------------------9--9--|-10--------------10---------5------------|
A|-------------------------|---------------------------------------------|--------------------10-10----------------|
E|-------------------------|---------------------------------------------|-----------------------------------------|


E|------------------------------------|-------------------------------|------------------------------------|
B|------------------------------------|-------------------------------|------------------------------------|
G|-7--5--7----7---19-17----18-19--19--|-11-12---12-11--12-11----12-12-|-12-11-9---9----4---4---9--7--------|
D|----------------------19------------|-------------------------------|------------------------------9--9--|
A|------------------------------------|-------------------------------|------------------------------------|
E|------------------------------------|-------------------------------|------------------------------------|


E|---------------------------------------|-----------------------------------|-------------|
B|---------------------------------------|-----------------------------------|-------------|
G|-----10--10-9----------------4--5---7--|-7--5--7-----7--6-----7--7-----9---|-12----------|
D|-10------------10---------5------------|-------------------7--------7------|-------------|
A|------------------10-10----------------|-----------------------------------|-------------|
E|---------------------------------------|-----------------------------------|-------------|


E|-------------------------------|-----------------------------|---------------------------------------|
B|-------------------------------|-----------------------------|---------------------------------------|
G|-7----9----9----9--9--8--------|-------------------4--5---7--|-7--6--7---7----19-19-17----18-19---19-|
D|-------------------------9--9--|-10-------1--2--5------------|-------------------------19------------|
A|-------------------------------|-----------------------------|---------------------------------------|
E|-------------------------------|-----------------------------|---------------------------------------|


E|-----------------|------------------------|------------------------------------|
B|-----------------|------------------------|------------------------------------|
G|-11--12----------|-7----9-----9--8--------|--------------------------4--5---7--|
D|-----------------|------------------9--7--|-10-9--10---7------1---5------------|
A|-----------------|------------------------|------------------------------------|
E|-----------------|------------------------|------------------------------------|


E|--------------------------------------|----------------------|------------------------|
B|--------------------------------------|----------------------|------------------------|
G|-7-6-7-6-7---7----19-1918191819---19--|-11--12-12-12---------|-7----9-----9--8--------|
D|--------------------------------------|----------------------|------------------9--9--|
A|--------------------------------------|----------------------|------------------------|
E|--------------------------------------|----------------------|------------------------|


E|---------------------------|-------------------------------------|----------------------|
B|---------------------------|-------------------------------------|----------------------|
G|-----------------4--5---7--|-7--6--7-----7--6-----7--7-----9--9--|-12----12--11------12-|
D|-10-------1---5------------|-------------------7--------7--------|----------------------|
A|---------------------------|-------------------------------------|----------------------|
E|---------------------------|-------------------------------------|----------------------|


E|---------------------------------|---------------------------|-----------------------------------|
B|---------------------------------|---------------------------|-----------------------------------|
G|-12-11-9---9---------9--7--------|---------------------------|-----------------------------------|
D|---------------------------9--9--|-10--------------9--10--12-|-12-11-12----12-11-12-11-12-11-12--|
A|---------------------------------|----------3---10-----------|-----------------------------------|
E|---------------------------------|---------------------------|-----------------------------------|


E|------------------------------------|-----------------------------------------------|
B|------------------------------------|-------------------------------------17-24-----|
G|-10---10-9------------------9----19-|-19-17----19-17----19-17----19-17--------------|
D|------------10----------------------|-------19-------19-------19-------19-------24--|
A|---------------10-5--5---10---------|-----------------------------------------------|
E|------------------------------------|-----------------------------------------------|


E|--------------------------------------|-----------------|--------------------------------------|
B|--------------------------------------|-----------------|--------------------------------------|
G|-10---10-9------------------9--10--10-|-12----12--7-----|-10---10-9------------------4--5---7--|
D|------------10------------------------|-----------------|------------10------------------------|
A|---------------10----5---10-----------|-----------------|---------------10-10-7---10-----------|
E|--------------------------------------|-----------------|--------------------------------------|


E|---------------------------------|---------------------------|------------------------------------------|
B|---------------------------------|---------------------------|------------------------------------------|
G|-7--6--7-----7--6--7--6--7--7----|-12---12--11--12--11----12-|-12-11-9--7--9--11----7--9----9--8--------|
D|---------------------------------|---------------------------|------------------------------------9--9--|
A|---------------------------------|---------------------------|------------------------------------------|
E|---------------------------------|---------------------------|------------------------------------------|


E|---------------------------------------|---------------------------------------|
B|---------------------------------------|----------------------------17-22------|
G|-----10--10-9----------------4--5---7--|-7--6--7---7----19-19-17---------------|
D|-10------------10---------5------------|-------------------------19--------24--|
A|------------------10-10----------------|---------------------------------------|
E|---------------------------------------|---------------------------------------|


E|----------------------------|---------------------------------------------|-----------------------------------------|
B|----------------------------|---------------------------------------------|-----------------------------------------|
G|-11-12---12-11-12--11----12-|-12-11-9--7--9----7-----4--9--9--9--7--------|-----10-10-10-9----------------4--5---7--|
D|----------------------------|---------------------------------------9--9--|-10--------------10---------5------------|
A|----------------------------|---------------------------------------------|--------------------10-10----------------|
E|----------------------------|---------------------------------------------|-----------------------------------------|


E|--------------------------------------|--------------------|------------------------|
B|--------------------------------------|--------------------|------------------------|
G|-7--6--7---7----7--6-----7--7-----9---|-11-12---12---------|-7----9-----9--8--------|
D|----------------------7--------7------|--------------------|------------------9--9--|
A|--------------------------------------|--------------------|------------------------|
E|--------------------------------------|--------------------|------------------------|


E|-----------------------------------|---------------------------------------|-----------------------|
B|-----------------------------------|---------------------------------------|-----------------------|
G|-------------------------4--5---7--|-7--6--7---7----19-19-17----18-19---19-|-11-12---12--12--12----|
D|-9--10---10---10----1--------------|-------------------------19------------|-----------------------|
A|-----------------------------------|---------------------------------------|-----------------------|
E|-----------------------------------|---------------------------------------|-----------------------|


E|------------------------|-------------------------------|--------------------------------------|
B|------------------------|-------------------------------|--------------------------------------|
G|-7----9-----9--8--------|---------------------4--5---7--|-7-6-7-6-7---7----19-1918191819--19---|
D|------------------9--9--|-10-9--10----------------------|--------------------------------------|
A|------------------------|----------------5--------------|--------------------------------------|
E|------------------------|-------------------------------|--------------------------------------|


E|--------------------|------------------------|----------------------------------|
B|--------------------|------------------------|----------------------------------|
G|-11-12---12---------|-7----9-----9--8--------|------------------------4--5---7--|
D|--------------------|------------------9--9--|-10-9--10--10---------------------|
A|--------------------|------------------------|-------------------5--------------|
E|--------------------|------------------------|----------------------------------|


E|-------------------------------------|------------------------|------------------------------------|
B|-------------------------------------|------------------------|------------------------------------|
G|-7--6--7---7----19-1917---17-17-19---|-11--12----12--------12-|-12-11-9---9--9---------9--7--------|
D|-----------------------19------------|------------------------|------------------------------9--9--|
A|-------------------------------------|------------------------|------------------------------------|
E|-------------------------------------|------------------------|------------------------------------|


E|-------------------------|-------------------------------------|----------------------------------|
B|-------------------------|-------------------------------------|----------------------------------|
G|---------------4--5---7--|-7--6--7-----7--6--7--6--7--6--7--5--|-10---10-9----------------5-------|
D|-10----------------------|-------------------------------------|------------10---------------5----|
A|----------5--------------|-------------------------------------|---------------10----5------------|
E|-------------------------|-------------------------------------|----------------------------------|


E|-------------------------------------------------------|--------------------------------------|
B|-------------------------------------------------------|--------------------------------------|
G|-1917--1917--17---17---19-17-191719--17---17--17---19--|-10---10-9------------------4--5---4--|
D|-----19----19---19---19------------19---19--19---19----|------------10------------------------|
A|-------------------------------------------------------|---------------10-10-5---10-----------|
E|-------------------------------------------------------|--------------------------------------|


E|--------------------|------------------------------------|-----------------------------------------------------------|
B|--------------------|------------------------------------|-----------------------------------------------------------|
G|-7---7---7----2-----|-10---10-9---------------------10---|-1917--1717--17--17----17----17----19--19--19--19--19--19--|
D|--------------------|------------10--------------10------|-----19----19--19---19----19----19-------19--19--19--19----|
A|--------------------|---------------10-10-5---10---------|-----------------------------------------------------------|
E|--------------------|------------------------------------|-----------------------------------------------------------|


E|--------------------------------------|-------------------------------------------------|
B|--------------------------------------|-------------------------------------------------|
G|-10---10-9------------------4--5---6--|-7--6--7--6--7--6--7--6--7--6--7--6--7--6--7--6--|
D|------------10------------------------|-------------------------------------------------|
A|---------------10-10-5---10-----------|-------------------------------------------------|
E|--------------------------------------|-------------------------------------------------|


E|--------|--------|--------|--------|--------|--------|--------|---------------15------|
B|--------|--------|--------|--------|--------|--------|--------|-----------15------15--|
G|-12-----|--------|--------|--------|--------|--------|--------|-----------------------|
D|--------|--------|--------|--------|--------|--------|--------|-----------------------|
A|--------|--------|--------|--------|--------|--------|--------|-----------------------|
E|--------|--------|--------|--------|--------|--------|--------|-----------------------|


E|-----15--------------------|------------------------------|----------18-------18------|
B|-18------18---18---18--15--|-18--18--18--15--18---18--15--|-18--18-------18-------18--|
G|---------------------------|------------------------------|---------------------------|
D|---------------------------|------------------------------|---------------------------|
A|---------------------------|------------------------------|---------------------------|
E|---------------------------|------------------------------|---------------------------|


E|-----18-------18---------15------|-----15--------------------|------------------------------|
B|-18------18------18----------15--|-18------18---18---18--15--|-18--18--18--15--18---18--15--|
G|---------------------16----------|---------------------------|------------------------------|
D|---------------------------------|---------------------------|------------------------------|
A|---------------------------------|---------------------------|------------------------------|
E|---------------------------------|---------------------------|------------------------------|


E|----------18-------18------|-----18-------18------18------18-|------18------18------18------18-|
B|-18--18-------18-------18--|-18------18------18------18------|-18------18------18------18------|
G|---------------------------|---------------------------------|---------------------------------|
D|---------------------------|---------------------------------|---------------------------------|
A|---------------------------|---------------------------------|---------------------------------|
E|---------------------------|---------------------------------|---------------------------------|


E|------18------18------18------18-|------18------18------18------18-|------18------18------18-------------|
B|-18------18------18------18------|-18------18------18------18------|-18------18------18------18--15--18--|
G|---------------------------------|---------------------------------|-------------------------------------|
D|---------------------------------|---------------------------------|-------------------------------------|
A|---------------------------------|---------------------------------|-------------------------------------|
E|---------------------------------|---------------------------------|-------------------------------------|


E|-------------------------------------------------------------|----------------------------------------------------------------|
B|-18-18-15-18-18-18-15-18-18-18-15-18-18-18-15-18-18-18-15-18-|-18-18-15-18-18-18-18-15-18-18-18-18-15-18-18-18-15-18-18-18-15-|
G|-------------------------------------------------------------|----------------------------------------------------------------|
D|-------------------------------------------------------------|----------------------------------------------------------------|
A|-------------------------------------------------------------|----------------------------------------------------------------|
E|-------------------------------------------------------------|----------------------------------------------------------------|


E|--------------------------------------------------------|---------------------------------------------------|
B|-18--18-18-15-18-18-18-15-18-18-18-15-18-18-18-15-18-18-|-18-18-15-18-18-18-15-18-18-18-15-18-18--18-18-15--|
G|--------------------------------------------------------|---------------------------------------------------|
D|--------------------------------------------------------|---------------------------------------------------|
A|--------------------------------------------------------|---------------------------------------------------|
E|--------------------------------------------------------|---------------------------------------------------|


E|-----------------------------------|-------------------------------------------------|
B|-18---18---18-15----15-18-15----15-|-18-15----15-18-15----15-18-15----15-18-15----15-|
G|-----------------17----------17----|-------17----------17----------17----------17----|
D|-----------------------------------|-------------------------------------------------|
A|-----------------------------------|-------------------------------------------------|
E|-----------------------------------|-------------------------------------------------|


E|-------------------------------------------------|-----------------------------------------------|
B|-18-15----15-18-15----15-18-15----15-18-15----15-|-18-15----15-18-15----15-18-15----15-----------|
G|-------17----------17----------17----------17----|-------17----------17----------17----15--------|
D|-------------------------------------------------|-----------------------------------------17-15-|
A|-------------------------------------------------|-----------------------------------------------|
E|-------------------------------------------------|-----------------------------------------------|


E|-----------------------------------------|-------------------------------------------|
B|-----------------------------------------|-----------------------------15-18------18-|
G|-----15------------15-----15-17-15-17-15-|----15-17-15-17-15----15-17--------17------|
D|-17------17-15-17------17----------------|-17----------------17----------------------|
A|-----------------------------------------|-------------------------------------------|
E|-----------------------------------------|-------------------------------------------|


E|---------------------------------|---------------------------------------------|
B|------0---------------18------18-|--------18-------18--------18-------18-------|
G|-17------17---17-17------17------|-17--17----17-17-----17-17----17-17----17-17-|
D|---------------------------------|---------------------------------------------|
A|---------------------------------|---------------------------------------------|
E|---------------------------------|---------------------------------------------|


E|-----------------------------------------------|-----------------------------------------------|
B|----18-------18-------18-------18--------18----|----18-------18-------18-------18--------18----|
G|-17----17-17----17-17----17-17-----17-17----17-|-17----17-17----17-17----17-17-----17-17----17-|
D|-----------------------------------------------|-----------------------------------------------|
A|-----------------------------------------------|-----------------------------------------------|
E|-----------------------------------------------|-----------------------------------------------|


E|-----------------------------------------------|-----------------------------------------|
B|----18-------18-------18-------18--------18----|--------18--------18--------18-----------|
G|-17----17-17----17-17----17-17-----17-17----17-|-17--17----17--17----17--17----17-15-----|
D|-----------------------------------------------|-------------------------------------17--|
A|-----------------------------------------------|-----------------------------------------|
E|-----------------------------------------------|-----------------------------------------|


E|---------------------------------------|-------------------------------------|----------------------------------------|
B|-15------------15------------15--------|-----15------------15----------------|----------------------------------------|
G|-15------------15------------15--------|-----15------------15----------------|-------------------------------------15-|
D|-----17-15---------17-15---------17-15-|---------17-15---------17-15-----15--|-17---15-----15-17-15----15-17-15----15-|
A|-----------17------------17------------|-17------------17------------17------|----------17----------17----------17----|
E|---------------------------------------|-------------------------------------|----------------------------------------|


E|----------------------------------------|--------------------------------|----------------------------------------|
B|----------------------------------------|--------------------------------|----------------------------------------|
G|----------------------------------------|--------------------------------|----------------------------------------|
D|-17---15-----15-17-15----15-17-15----15-|-17---15------15--17--17-15-----|-17---15-----15-17-15----15-17-15----15-|
A|----------17----------17----------17----|----------17----------------17--|----------17----------17----------17----|
E|----------------------------------------|--------------------------------|----------------------------------------|


E|-------------------------------|-------------------------------|-------------------------------------------------|
B|-------------------------------|-------------------------------|-------------------------------------------------|
G|------15-----15------15-----15-|------15-----15------15--17-17-|-17-15-------17-17-17-15-------17-17-17-15-------|
D|-17---15--------17---15--------|-17---15--------17---15--------|-------17-15-------------17-15-------------17-15-|
A|----------17-------------17----|----------17-------------------|-------------------------------------------------|
E|-------------------------------|-------------------------------|-------------------------------------------------|


E|-------------------------------------------------|-------------------------------------------------|
B|-------------------------------------------------|-------------------------------------------------|
G|-17-17-17-15-------17-17-17-15-------17-17-17-15-|-------17-17-17-15-------17-17-17-15-------17-17-|
D|-------------17-15-------------17-15-------------|-17-15-------------17-15-------------17-15-------|
A|-------------------------------------------------|-------------------------------------------------|
E|-------------------------------------------------|-------------------------------------------------|


E|---------------------------------|------------------------------|---------------------------------|
B|---------------------------------|----------3---6---6---6---3---|-6---6---6---3---6---6---6---3---|
G|-17--17--17--17--17--17--17--17--|------4-----------------------|---------------------------------|
D|---------------------------------|-17---------------------------|---------------------------------|
A|---------------------------------|------------------------------|---------------------------------|
E|---------------------------------|------------------------------|---------------------------------|


E|-------------6-----------6-------|-----6-------------------3-------|-------3---------------------------|
B|-6---6---6-------6---6-------6---|-6-------6---6---6-----------3---|-6--6------6---6---6---6---6---3---|
G|---------------------------------|---------------------4-----------|-----------------------------------|
D|---------------------------------|---------------------------------|-----------------------------------|
A|---------------------------------|---------------------------------|-----------------------------------|
E|---------------------------------|---------------------------------|-----------------------------------|


E|---------------------------------|---------------6-----------6-------|-----6----6---6---6---6-------|
B|-6---6---6---3---6---6---6---3---|-6--6--6---6-------6---6-------6---|-6--------6---6---6---6---6---|
G|---------------------------------|-----------------------------------|------------------------------|
D|---------------------------------|-----------------------------------|------------------------------|
A|---------------------------------|-----------------------------------|------------------------------|
E|---------------------------------|-----------------------------------|------------------------------|


E|---------------------------|---------------------------|---------------------------|
B|-8----8---6---8----8---6---|-8----8---6---8----8---6---|-8----8---6---8----8---6---|
G|---------------------------|---------------------------|---------------------------|
D|---------------------------|---------------------------|---------------------------|
A|---------------------------|---------------------------|---------------------------|
E|---------------------------|---------------------------|---------------------------|


E|---------------------------------|---------------------------|---------6--7--8--8---8---6-----------|
B|-8---8---8---8---8---8---8---6---|-8----8---6---8----8---6---|-8----8-----------------------8---6---|
G|---------------------------------|---------------------------|--------------------------------------|
D|---------------------------------|---------------------------|--------------------------------------|
A|---------------------------------|---------------------------|--------------------------------------|
E|---------------------------------|---------------------------|--------------------------------------|


E|---------------------------|---------------------------------|-----------------------------|
B|-8----8---6---8----8---6---|-8---8---8---8---8---8---8-------|-----------------------------|
G|---------------------------|---------------------------------|-12-------12---12--14-12-----|
D|---------------------------|-----------------------------14--|------14-----------------14--|
A|---------------------------|---------------------------------|-----------------------------|
E|---------------------------|---------------------------------|-----------------------------|


E|-----------------------------|---------------------------|-----------------------------|
B|-----------------------------|---------------------------|-----------------------------|
G|-12-------12---12--14-12-----|-12-------12-------12--12--|-12--12---12-------12--15-12-|
D|------14-----------------14--|------14-------14----------|---------------14------------|
A|-----------------------------|---------------------------|-----------------------------|
E|-----------------------------|---------------------------|-----------------------------|


E|-------------------------------------------------|-------------------------------------------------|
B|-------------------------------------------------|-------------------------------------------------|
G|-14-12----12-15-12-14-12----12-15-12-14-12----12-|-15-12-14-12----12-15-12-14-12----12-15-12-14-12-|
D|-------15----------------15----------------15----|-------------15----------------15----------------|
A|-------------------------------------------------|-------------------------------------------------|
E|-------------------------------------------------|-------------------------------------------------|


E|-------------------------------------------------|------------------------------------------15-|
B|-------------------------------------------------|---------------------------------------------|
G|----12-15-12-14-12----12-15-12-14-12----12-15-12-|-14-12----12-15-12-14-12-12-12-12--0---16----|
D|-15----------------15----------------15----------|-------15------------------------------------|
A|-------------------------------------------------|---------------------------------------------|
E|-------------------------------------------------|---------------------------------------------|


E|----------15----------15----------15----------15-|----------15----------15----------15----------15-|
B|-18-15-------18-15-------18-15-------18-15-------|-18-15-------18-15-------18-15-------18-15-------|
G|-------17----------17----------17----------17----|-------17----------17----------17----------17----|
D|-------------------------------------------------|-------------------------------------------------|
A|-------------------------------------------------|-------------------------------------------------|
E|-------------------------------------------------|-------------------------------------------------|


E|----------15----------15----------15----------15-|----------15----------15----------15----------15-|
B|-18-15-------18-15-------18-15-------18-15-------|-18-15-------18-15-------18-15-------18-15-------|
G|-------17----------17----------17----------17----|-------17----------17----------17----------17----|
D|-------------------------------------------------|-------------------------------------------------|
A|-------------------------------------------------|-------------------------------------------------|
E|-------------------------------------------------|-------------------------------------------------|


E|----------15----------15----------15----------15-|----------15----------15----------15----------15-|
B|-18-15-------18-15-------18-15-------18-15-------|-18-15-------18-15-------18-15-------18-15-------|
G|-------17----------17----------17----------17----|-------17----------17----------17----------17----|
D|-------------------------------------------------|-------------------------------------------------|
A|-------------------------------------------------|-------------------------------------------------|
E|-------------------------------------------------|-------------------------------------------------|


E|----------15----------15----------15----------15-|----------15----------15----------15----------15-|
B|-18-15-------18-15-------18-15-------18-15-------|-18-15-------18-15-------18-15-------18-15-------|
G|-------17----------17----------17----------17----|-------17----------17----------17----------17----|
D|-------------------------------------------------|-------------------------------------------------|
A|-------------------------------------------------|-------------------------------------------------|
E|-------------------------------------------------|-------------------------------------------------|


E|-18-15----18-15----18-15----18-15----18-15----18-15----|-18-15----18-15----18-15----18-15----18-15----18-15----18-15----18-15-|
B|-------15-------15-------15-------15-------15-------15-|-------15-------15-------15-------15-------15-------15-------15-------|
G|-------------------------------------------------------|----------------------------------------------------------------------|
D|-------------------------------------------------------|----------------------------------------------------------------------|
A|-------------------------------------------------------|----------------------------------------------------------------------|
E|-------------------------------------------------------|----------------------------------------------------------------------|


E|---------------------------------------------------------|---------------------------------------------------------|
B|-15----18-15-15--181515--181515--181515--181518-15----18-|-1815--1815--1815--1815--1815--1815----18-15-15----18-15-|
G|----15---------15------15------15------15----------15----|-----15----15----15----15----15-----15----------15-------|
D|---------------------------------------------------------|---------------------------------------------------------|
A|---------------------------------------------------------|---------------------------------------------------------|
E|---------------------------------------------------------|---------------------------------------------------------|


E|-15--15--15--15--15--15--15--15--|-15------15--15--15------15--15--|------15--15--15--------------|
B|-18--18--18--18--18--18--18--18--|-18--18--18--18--18--15--15--15--|-15---15--15--15--------------|
G|---------------------------------|---------------------------------|-17---17--17--17--17--17--17--|
D|---------------------------------|---------------------------------|------------------------------|
A|---------------------------------|---------------------------------|------------------------------|
E|---------------------------------|---------------------------------|------------------------------|


E|-15------15--15--15--15--15--15--|---------------------------------|------15--15--15--------------|
B|-15------15--15--15--15--15--15--|---------------------------------|-15---15--15--15--------------|
G|-17--15--15--15--15--15--15--15--|-----------15--15-15-15-------15-|-17---17--17--17--17--17--17--|
D|---------------------------------|-17---17---17--17-17-17-15-------|------------------------------|
A|---------------------------------|---------------------------17----|------------------------------|
E|---------------------------------|---------------------------------|------------------------------|


E|------------------------------------------|-------------------------------------------|
B|------------------------------------------|-------------------------------------------|
G|---------------15-------------------------|-------------------------------------------|
D|-17---17-15-------17-15----15-17-15----15-|-17-15----15-17-15----15-17-15-----15--17--|
A|------------17----------17----------17----|-------17----------17----------17----------|
E|------------------------------------------|-------------------------------------------|


E|-----------------------------|------------------------|------------------------|
B|-----------------------------|------------------------|-------------------15---|
G|----------12-------14-12-----|-12-------12----12--12--|-12-------12---12--14---|
D|-14---14-------14--------14--|------14--------14--14--|------14----------------|
A|-----------------------------|------------------------|------------------------|
E|-----------------------------|------------------------|------------------------|


E|---------------------------------|-----------------------------|-----------------------------|
B|-15--15--15--15--15--15----------|-----------------------------|-----------------------------|
G|-14--14--14--14--14--12--14------|-12-------12---12--15-12-----|-12-------12---12--15-12-----|
D|-----------------------------14--|------14-----------------15--|------14-----------------15--|
A|---------------------------------|-----------------------------|-----------------------------|
E|---------------------------------|-----------------------------|-----------------------------|


E|---------------------------------------|----------------------------------|---------------------------|
B|---------------------------------------|----------------------------------|------------------------15-|
G|-12---12-15-12-----15-12-----15-12-----|-15-12-----15---15--15-15-12------|-12-------12---12--14---14-|
D|---------------15--------15--------15--|-------15---------------------15--|------14-------------------|
A|---------------------------------------|----------------------------------|---------------------------|
E|---------------------------------------|----------------------------------|---------------------------|


E|------------------------------|---------------------------|-----------------------------------|
B|------------------------------|---------------------------|-15--15--15--15--15--15------------|
G|-14--12--12---12------12--14--|-12-------12---12--14--14--|-14--14--14--14--14--14--14-12-----|
D|------------------14----------|------14-------------------|-------------------------------14--|
A|------------------------------|---------------------------|-----------------------------------|
E|------------------------------|---------------------------|-----------------------------------|


E|-----------------------------|---------------------------|---------------------------|
B|-----------------------------|---------------------------|-------------------15--15--|
G|-12-------12---12--14-12-----|-12-------12---12------12--|-12-------12---12--14--14--|
D|------14-----------------14--|------14-----------14------|------14-------------------|
A|-----------------------------|---------------------------|---------------------------|
E|-----------------------------|---------------------------|---------------------------|


E|-----------------------------------|---------------------------|---------------------------|
B|-15--15--15--15--15--15--15-15-----|-15---15--15---15--15------|-15---15--15---15--15------|
G|-14--14--14--14--14--14--14-14-14--|-12---14--12---12--14--14--|-12---14--12---12--14--14--|
D|-----------------------------------|---------------------------|---------------------------|
A|-----------------------------------|---------------------------|---------------------------|
E|-----------------------------------|---------------------------|---------------------------|


E|---------------------------|--------------------------------|---------------------------|
B|-15---15--15---15--15--15--|-15--15--15--15--15---15--------|-15-------15---15--15--15--|
G|-12---14--12---12--14--14--|-14--14--14--14--12---14-12-----|-12-------12---12--14--14--|
D|---------------------------|----------------------------14--|------14-------------------|
A|---------------------------|--------------------------------|---------------------------|
E|---------------------------|--------------------------------|---------------------------|


E|-----------------------------|---------------------------------|---------------------------------|
B|-15-15-----15---15---15--15--|-15--15--15--15--15--15--15--15--|-15--15--15--15--15--15--15------|
G|-14-14-12--12---12---12--12--|-14--14--14--14--14--14--14--14--|-14--14--14--14--14--14--12------|
D|-----------------------------|---------------------------------|-----------------------------14--|
A|-----------------------------|---------------------------------|---------------------------------|
E|-----------------------------|---------------------------------|---------------------------------|


E|---------------------------------|---------------------------------|-----------------------------------------|
B|---------18----------18----------|-18----------18------------------|--------18--------18--------18--------18-|
G|-17--17------17--17------17--17--|-----17--17------17--17--17--17--|-17--17----17--17----17--17----17--17----|
D|---------------------------------|---------------------------------|-----------------------------------------|
A|---------------------------------|---------------------------------|-----------------------------------------|
E|---------------------------------|---------------------------------|-----------------------------------------|


E|-------------------------------------0---|---------18----------18----------|-18----------18----------18------|
B|--------18--------18--------18-------0---|-18--18------18--18------18--18--|-----18--18------18--18------18--|
G|-17--17----17--17----17--17----17-17-----|---------------------------------|---------------------------------|
D|-----------------------------------------|---------------------------------|---------------------------------|
A|-----------------------------------------|---------------------------------|---------------------------------|
E|-----------------------------------------|---------------------------------|---------------------------------|


E|------18--------18--------18--------18-|--------18--------18--------18-------18--|
B|-18------18--18----18--18----18--18----|-18--18----18--18----18--18----18-18-----|
G|---------------------------------------|-----------------------------------------|
D|---------------------------------------|-----------------------------------------|
A|---------------------------------------|-----------------------------------------|
E|---------------------------------------|-----------------------------------------|


E|---------22----------22----------|-22----------22----------22------|------22--------22--------22--------22-|
B|-22--22------22--22------22--22--|-----22--22------22--22------22--|-22------22--22----22--22----22--22----|
G|---------------------------------|---------------------------------|---------------------------------------|
D|---------------------------------|---------------------------------|---------------------------------------|
A|---------------------------------|---------------------------------|---------------------------------------|
E|---------------------------------|---------------------------------|---------------------------------------|


E|--------22--------22--------22--------22-|--------22--------22--------22--------22-|
B|-22--22----22--22----22--22----22--22----|-22--22----22--22----22--22----22--22----|
G|-----------------------------------------|-----------------------------------------|
D|-----------------------------------------|-----------------------------------------|
A|-----------------------------------------|-----------------------------------------|
E|-----------------------------------------|-----------------------------------------|


E|--------22--------22--------22--------22-|-22--22--22--22--22--22--22--22--|-22--22--22--22--22--22--22--22--|
B|-22--22----22--22----22--22----22--22----|-22--22--22--22--22--22--22--22--|-22--22--22--22--22--22--22--22--|
G|-----------------------------------------|---------------------------------|---------------------------------|
D|-----------------------------------------|---------------------------------|---------------------------------|
A|-----------------------------------------|---------------------------------|---------------------------------|
E|-----------------------------------------|---------------------------------|---------------------------------|


E|------------------------------|-----------------------------------|-------------------------------------|
B|------------------------------|---------------------------15------|-------------------------------------|
G|-19--15--15-------15------17--|-17--15--17------15--17-17-----15--|-17------15-15-17--15-15-----17------|
D|-------------17-------17------|-------------17--------------------|-----17------------------17------17--|
A|------------------------------|-----------------------------------|-------------------------------------|
E|------------------------------|-----------------------------------|-------------------------------------|


E|---------------------------|-----15-----------15----------15----------15-|----------15----------15----------15----------15-|
B|---------------------------|---------18-15-------18-15-------18-15-------|-18-15-------18-15-------18-15-------18-15-------|
G|-15--17--15--15-------15---|-16------------17----------17----------17----|-------17----------17----------17----------17----|
D|-----------------17--------|---------------------------------------------|-------------------------------------------------|
A|---------------------------|---------------------------------------------|-------------------------------------------------|
E|---------------------------|---------------------------------------------|-------------------------------------------------|


E|----------15----------15----------15----------15-|----------15----------15----------15----------15-|
B|-18-15-------18-15-------18-15-------18-15-------|-18-15-------18-15-------18-15-------18-15-------|
G|-------17----------17----------17----------17----|-------17----------17----------17----------17----|
D|-------------------------------------------------|-------------------------------------------------|
A|-------------------------------------------------|-------------------------------------------------|
E|-------------------------------------------------|-------------------------------------------------|


E|----------15----------15----------15----------15-|----------15----------15----------15----------15-|
B|-18-15-------18-15-------18-15-------18-15-------|-18-15-------18-15-------18-15-------18-15-------|
G|-------17----------17----------17----------17----|-------17----------17----------17----------17----|
D|-------------------------------------------------|-------------------------------------------------|
A|-------------------------------------------------|-------------------------------------------------|
E|-------------------------------------------------|-------------------------------------------------|


E|-15--15--15--15--15---15--15--|-15--15--15--15--15---15------|-----------------------------|
B|-15--15--15--15--15---15--15--|-15--15--15--15--15---15------|-----------------------------|
G|-17--17--17--17--17---17--17--|-17------17--17--17---17------|-12-------12---12--14-12-----|
D|------------------------------|--------------------------14--|------14-----------------14--|
A|------------------------------|------------------------------|-----------------------------|
E|------------------------------|------------------------------|-----------------------------|


E|-----------------------------|---------------------------|-------------------------------------|
B|-----------------------------|-------------------15--15--|-------------------------------------|
G|-12-------12---12--14-12-----|-12-------12---12----------|-14--14--12------12--14-12-14-12-----|
D|------14-----------------14--|------14-------------------|-------------14------------------14--|
A|-----------------------------|---------------------------|-------------------------------------|
E|-----------------------------|---------------------------|-------------------------------------|


E|---------------------------------------|-----------------------------------------|
B|---------------------------------------|---------------------------------15--15--|
G|-12----------12--------12-14-14-14-14--|-------12-14-14--14--------12-14-14--14--|
D|-----14--14------12-14-----------------|-12-14---------------12-14---------------|
A|---------------------------------------|-----------------------------------------|
E|---------------------------------------|-----------------------------------------|


E|-----------------------------|-----------------------------------------|---------------------------------|
B|--------------------------15-|--------15--------15--------15--------15-|-----------------------------12--|
G|-12-------12---12--14--14----|-14--14----14--14----14--14----14--14----|-14--14--14--14--14--14--14------|
D|------14---------------------|-----------------------------------------|---------------------------------|
A|-----------------------------|-----------------------------------------|---------------------------------|
E|-----------------------------|-----------------------------------------|---------------------------------|


E|---------------------------|---------------------------------|-----------------------------|
B|-13--15--15---15---15--15--|-15--13--13--12--12--13--12------|-----------------------------|
G|---------------------------|---------------------------------|-12-------12---12--14-12-----|
D|---------------------------|-----------------------------14--|------14-----------------14--|
A|---------------------------|---------------------------------|-----------------------------|
E|---------------------------|---------------------------------|-----------------------------|


E|--------|--------|--------|--------|--------|--------|
B|--------|--------|--------|--------|--------|--------|
G|--------|--------|--------|--------|--------|--------|
D|--------|--------|--------|--------|--------|--------|
A|--------|--------|--------|--------|--------|--------|
E|--------|--------|--------|--------|--------|--------|





Track 5: 2nd Solo Gtr

E|--------|--------|--------|--------|--------|--------|--------|--------|--------|
B|--------|--------|--------|--------|--------|--------|--------|--------|--------|
G|--------|--------|--------|--------|--------|--------|--------|--------|--------|
D|--------|--------|--------|--------|--------|--------|--------|--------|--------|
A|--------|--------|--------|--------|--------|--------|--------|--------|--------|
E|--------|--------|--------|--------|--------|--------|--------|--------|--------|


E|--------|--------|--------|--------|--------|--------|--------|--------|--------|
B|--------|--------|--------|--------|--------|--------|--------|--------|--------|
G|--------|--------|--------|--------|--------|--------|--------|--------|--------|
D|--------|--------|--------|--------|--------|--------|--------|--------|--------|
A|--------|--------|--------|--------|--------|--------|--------|--------|--------|
E|--------|--------|--------|--------|--------|--------|--------|--------|--------|


E|--------|--------|--------|--------|--------|--------|--------|--------|--------|
B|--------|--------|--------|--------|--------|--------|--------|--------|--------|
G|--------|--------|--------|--------|--------|--------|--------|--------|--------|
D|--------|--------|--------|--------|--------|--------|--------|--------|--------|
A|--------|--------|--------|--------|--------|--------|--------|--------|--------|
E|--------|--------|--------|--------|--------|--------|--------|--------|--------|


E|--------|--------|--------|--------|--------|--------|--------|--------|--------|
B|--------|--------|--------|--------|--------|--------|--------|--------|--------|
G|--------|--------|--------|--------|--------|--------|--------|--------|--------|
D|--------|--------|--------|--------|--------|--------|--------|--------|--------|
A|--------|--------|--------|--------|--------|--------|--------|--------|--------|
E|--------|--------|--------|--------|--------|--------|--------|--------|--------|


E|--------|--------|--------|--------|--------|--------|--------|--------|--------|
B|--------|--------|--------|--------|--------|--------|--------|--------|--------|
G|--------|--------|--------|--------|--------|--------|--------|--------|--------|
D|--------|--------|--------|--------|--------|--------|--------|--------|--------|
A|--------|--------|--------|--------|--------|--------|--------|--------|--------|
E|--------|--------|--------|--------|--------|--------|--------|--------|--------|


E|--------|--------|--------|--------|--------|--------|--------|--------|--------|
B|--------|--------|--------|--------|--------|--------|--------|--------|--------|
G|--------|--------|--------|--------|--------|--------|--------|--------|--------|
D|--------|--------|--------|--------|--------|--------|--------|--------|--------|
A|--------|--------|--------|--------|--------|--------|--------|--------|--------|
E|--------|--------|--------|--------|--------|--------|--------|--------|--------|


E|--------|--------|--------|--------|--------|--------|--------|--------|--------|
B|--------|--------|--------|--------|--------|--------|--------|--------|--------|
G|--------|--------|--------|--------|--------|--------|--------|--------|--------|
D|--------|--------|--------|--------|--------|--------|--------|--------|--------|
A|--------|--------|--------|--------|--------|--------|--------|--------|--------|
E|--------|--------|--------|--------|--------|--------|--------|--------|--------|


E|--------|--------|--------|--------|--------|--------|--------|--------|--------|
B|--------|--------|--------|--------|--------|--------|--------|--------|--------|
G|--------|--------|--------|--------|--------|--------|--------|--------|--------|
D|--------|--------|--------|--------|--------|--------|--------|--------|--------|
A|--------|--------|--------|--------|--------|--------|--------|--------|--------|
E|--------|--------|--------|--------|--------|--------|--------|--------|--------|


E|--------|--------|--------|--------|--------|--------|--------|--------|--------|
B|--------|--------|--------|--------|--------|--------|--------|--------|--------|
G|--------|--------|--------|--------|--------|--------|--------|--------|--------|
D|--------|--------|--------|--------|--------|--------|--------|--------|--------|
A|--------|--------|--------|--------|--------|--------|--------|--------|--------|
E|--------|--------|--------|--------|--------|--------|--------|--------|--------|


E|--------|--------|--------|--------|--------|--------|--------|--------|--------|
B|--------|--------|--------|--------|--------|--------|--------|--------|--------|
G|--------|--------|--------|--------|--------|--------|--------|--------|--------|
D|--------|--------|--------|--------|--------|--------|--------|--------|--------|
A|--------|--------|--------|--------|--------|--------|--------|--------|--------|
E|--------|--------|--------|--------|--------|--------|--------|--------|--------|


E|--------|--------|--------|--------|--------|--------|--------|--------|--------|
B|--------|--------|--------|--------|--------|--------|--------|--------|--------|
G|--------|--------|--------|--------|--------|--------|--------|--------|--------|
D|--------|--------|--------|--------|--------|--------|--------|--------|--------|
A|--------|--------|--------|--------|--------|--------|--------|--------|--------|
E|--------|--------|--------|--------|--------|--------|--------|--------|--------|


E|--------|--------|--------|--------|--------|--------|--------|--------|--------|
B|--------|--------|--------|--------|--------|--------|--------|--------|--------|
G|--------|--------|--------|--------|--------|--------|--------|--------|--------|
D|--------|--------|--------|--------|--------|--------|--------|--------|--------|
A|--------|--------|--------|--------|--------|--------|--------|--------|--------|
E|--------|--------|--------|--------|--------|--------|--------|--------|--------|


E|--------|--------------------------------------|--------------------------------------|
B|--------|--------------------------------------|--------------------------------------|
G|--------|--------------------------------------|--------------------------------------|
D|--------|-17---15-----15-15--17-15-17-15----15-|-17---15-----15-17-15----15-17-15-----|
A|--------|----------17--------------------17----|----------17----------17----------17--|
E|--------|--------------------------------------|--------------------------------------|


E|------------------------------------|--------|--------|--------|--------|--------|
B|------------------------------------|--------|--------|--------|--------|--------|
G|------------------------------------|--------|--------|--------|--------|--------|
D|-17---15------15--17-15-17-15----15-|--------|--------|--------|--------|--------|
A|----------17------------------17----|--------|--------|--------|--------|--------|
E|------------------------------------|--------|--------|--------|--------|--------|


E|-------------------------------------------------|---------------------------------------------|
B|-------------------------------------------------|---------------------------------------------|
G|-17-15-------17-17-17-15-------17-17-17-15-------|-17-17-17-15-------17-17-17-15-------17--17--|
D|-------17-15-------------17-15-------------17-15-|-------------17-15-------------17-15---------|
A|-------------------------------------------------|---------------------------------------------|
E|-------------------------------------------------|---------------------------------------------|


E|---------------------------------|---------------------------|----------------------3-------|
B|---------------------------------|---------------------------|--------------------------3---|
G|-17--17--17--17--17--17--17--15--|----------15-------15------|-----15-----------4-----------|
D|---------------------------------|-17---17------17-------17--|-17------17---17--------------|
A|---------------------------------|---------------------------|------------------------------|
E|---------------------------------|---------------------------|------------------------------|


E|--------|--------|--------|--------|--------|--------|--------|--------|----------------------6--7--8--|
B|--------|--------|--------|--------|--------|--------|--------|--------|-8----8---6---8----8-----------|
G|--------|--------|--------|--------|--------|--------|--------|--------|-------------------------------|
D|--------|--------|--------|--------|--------|--------|--------|--------|-------------------------------|
A|--------|--------|--------|--------|--------|--------|--------|--------|-------------------------------|
E|--------|--------|--------|--------|--------|--------|--------|--------|-------------------------------|


E|-8---8---6------------------------|--------|--------|--------|--------|-----------------------------|
B|-------------8---6---8----8---6---|--------|--------|--------|--------|-----------------------------|
G|----------------------------------|--------|--------|--------|--------|-12---12-15-12-----12--15----|
D|----------------------------------|--------|--------|--------|--------|---------------15------------|
A|----------------------------------|--------|--------|--------|--------|-----------------------------|
E|----------------------------------|--------|--------|--------|--------|-----------------------------|


E|-----------------------|--------|--------|--------|--------|--------|--------|--------|
B|-----------------------|--------|--------|--------|--------|--------|--------|--------|
G|-15----15--15--12------|--------|--------|--------|--------|--------|--------|--------|
D|-------------------15--|--------|--------|--------|--------|--------|--------|--------|
A|-----------------------|--------|--------|--------|--------|--------|--------|--------|
E|-----------------------|--------|--------|--------|--------|--------|--------|--------|


E|--------|--------|--------|--------|--------|--------|--------|--------|--------|
B|--------|--------|--------|--------|--------|--------|--------|--------|--------|
G|--------|--------|--------|--------|--------|--------|--------|--------|--------|
D|--------|--------|--------|--------|--------|--------|--------|--------|--------|
A|--------|--------|--------|--------|--------|--------|--------|--------|--------|
E|--------|--------|--------|--------|--------|--------|--------|--------|--------|


E|--------|--------|--------|--------|--------|--------|----------------------------------------|
B|--------|--------|--------|--------|--------|--------|----------------------------------------|
G|--------|--------|--------|--------|--------|--------|---------------15--------------------15-|
D|--------|--------|--------|--------|--------|--------|-17---17-15-------17-----15-17-15-------|
A|--------|--------|--------|--------|--------|--------|------------17--------17----------17----|
E|--------|--------|--------|--------|--------|--------|----------------------------------------|


E|--------------------------------------|-------------------------------------------------|
B|--------------------------------------|-------------------------------------------------|
G|---------------15---------------17-17-|-17-15-------17-17-17-15-------17-17-17-15-------|
D|-17---17-15-------17-----15-----------|-------17-15-------------17-15-------------17-15-|
A|------------17--------17----15--------|-------------------------------------------------|
E|--------------------------------------|-------------------------------------------------|


E|-------------------------------------------------|-----------------------------------------|
B|-------------------------------------------------|-----------------------------------------|
G|-17-17-17-15-------17-17-17-15-------17-17-17-15-|-------17-17-17-15-------17--17--17--17--|
D|-------------17-15-------------17-15-------------|-17-15-------------17-15-----------------|
A|-------------------------------------------------|-----------------------------------------|
E|-------------------------------------------------|-----------------------------------------|


E|---------------------------------|------------------------------|---------------------------------|
B|-18------------------------------|------------------------------|---------------------------------|
G|-----17--17--15--17------15------|-----12--12------12-------14--|-14--12--14------12--14--12------|
D|---------------------17------17--|-14----------14-------14------|-------------14--------------14--|
A|---------------------------------|------------------------------|---------------------------------|
E|---------------------------------|------------------------------|---------------------------------|


E|---------------------------|---------------------------------|-----------------------------|
B|-------------------15--15--|---------------------------------|-----------------------------|
G|-12-------12---12----------|-14--14--12--14--12--14--12------|-12-------12---12--14-12-----|
D|------14-------------------|-----------------------------14--|------14-----------------14--|
A|---------------------------|---------------------------------|-----------------------------|
E|---------------------------|---------------------------------|-----------------------------|


E|-----------------------------|-----------------------------|-----------------------------------------|
B|-----------------------------|--------------------------15-|--------15--------15--------15-----------|
G|-12-------12---12--14-12-----|-12-------12---12--14--14----|-14--14----14--14----14--14----14-12-----|
D|------14-----------------14--|------14---------------------|-------------------------------------14--|
A|-----------------------------|-----------------------------|-----------------------------------------|
E|-----------------------------|-----------------------------|-----------------------------------------|


E|-----------------------------|-------------------------------|-------------------------------|
B|-----------------------------|-------------------------------|-------------------------------|
G|-12-------12---12--14-12-----|-12-------12-------------12-14-|-12-------12-14-12-------12-14-|
D|------14-----------------14--|------14-------12--12-14-------|------14-------------14--------|
A|-----------------------------|-------------------------------|-------------------------------|
E|-----------------------------|-------------------------------|-------------------------------|


E|--------------------------------|---------------------------|---------------------------------|
B|----------15--15--15--15--------|-------------------15--15--|-15--15--15--15--15--15--15--15--|
G|-12-------14--14--14--14-12-14--|-12-------12---12--14--14--|-14--14--14--14--14--14--14--14--|
D|------14------------------------|------14-------------------|---------------------------------|
A|--------------------------------|---------------------------|---------------------------------|
E|--------------------------------|---------------------------|---------------------------------|


E|--------------------------------|---------------------------------|---------------------------|
B|----------15--15--15--15--------|-15--15--15--15--15--15--15--15--|-15---15--15---15--15------|
G|-12-------14--14--14--14-12-14--|-14--14--14--14--14--14--14--14--|-12---14--12---12--14--14--|
D|------14------------------------|---------------------------------|---------------------------|
A|--------------------------------|---------------------------------|---------------------------|
E|--------------------------------|---------------------------------|---------------------------|


E|---------------------------------|---------------------------------|------------------------|
B|-15--15--15--15--15--15--15--15--|-15--15--15--15--15--15--15--15--|-15---15--15---15--15---|
G|-14--14--14--14--14--14--14--14--|-14--14--14--14--14--14--14--14--|-12---14--12---12--14---|
D|---------------------------------|---------------------------------|------------------------|
A|---------------------------------|---------------------------------|------------------------|
E|---------------------------------|---------------------------------|------------------------|


E|--------|--------|--------|--------|--------|--------|--------|--------|--------|
B|--------|--------|--------|--------|--------|--------|--------|--------|--------|
G|--------|--------|--------|--------|--------|--------|--------|--------|--------|
D|--------|--------|--------|--------|--------|--------|--------|--------|--------|
A|--------|--------|--------|--------|--------|--------|--------|--------|--------|
E|--------|--------|--------|--------|--------|--------|--------|--------|--------|


E|--------|--------|--------|--------|--------|--------|--------|--------|--------|
B|--------|--------|--------|--------|--------|--------|--------|--------|--------|
G|--------|--------|--------|--------|--------|--------|--------|--------|--------|
D|--------|--------|--------|--------|--------|--------|--------|--------|--------|
A|--------|--------|--------|--------|--------|--------|--------|--------|--------|
E|--------|--------|--------|--------|--------|--------|--------|--------|--------|


E|--------|--------|--------|--------|--------|--------|---------15--15------------------|
B|--------|--------|--------|--------|--------|--------|-18--18--18--18--18--18--18--18--|
G|--------|--------|--------|--------|--------|--------|---------------------------------|
D|--------|--------|--------|--------|--------|--------|---------------------------------|
A|--------|--------|--------|--------|--------|--------|---------------------------------|
E|--------|--------|--------|--------|--------|--------|---------------------------------|


E|---------15--15------15--15--15--|---------------------------|---------------------------------|
B|-18--18--18--18--18--15--15--15--|------15--15--15-------15--|-15------15--15--15--15----------|
G|---------------------------------|-17---17--17--17---17--17--|-17--17--17--17--17--17--17--17--|
D|---------------------------------|---------------------------|---------------------------------|
A|---------------------------------|---------------------------|---------------------------------|
E|---------------------------------|---------------------------|---------------------------------|


E|------------------------------|-----------------------------------------|---------------------------------------------|
B|-------------------15---------|-----------------------------------------|---------------------------------------------|
G|-15------15---15------15------|-----15--15--15-15-15--15-15----------15-|-15--15-15----------15-15--15-15----------15-|
D|-15--17--17---17----------17--|-17--17--17--17-17-17--17-17-17-15-------|-17--17-17-17-15-------17--17-17-17-15-------|
A|------------------------------|-----------------------------------17----|-----------------17--------------------17----|
E|------------------------------|-----------------------------------------|---------------------------------------------|


E|--------------------0---|--------------------------|-----------------------------|
B|--------------------0---|--------------------------|-----------------------------|
G|-15---15---15---15------|-12-------12----14-12-----|-12-------12---12--15-12-----|
D|-17---17---17---17------|------14--------------14--|------14-----------------15--|
A|------------------------|--------------------------|-----------------------------|
E|------------------------|--------------------------|-----------------------------|


E|----------------------------------|---------------------------------------|---------------------------|
B|----------------------------------|---------------------------------------|---------------------------|
G|-12---15-12-----12---12-15-12-----|-15-12-----15-12-----15-12-----15--15--|-15------12---12-------12--|
D|------------15----------------15--|-------15--------15--------15----------|-----15------------15------|
A|----------------------------------|---------------------------------------|---------------------------|
E|----------------------------------|---------------------------------------|---------------------------|


E|---------------------------|-----------------------------------|-----------------------------------|
B|---------------------------|-----------------------------------|-----------------------------------|
G|-12--12-------12---12------|-12--15--13-13-----12--15--15--15--|-15--15--15--15-15-15--15--12------|
D|----------15-----------15--|---------------15------------------|-------------------------------15--|
A|---------------------------|-----------------------------------|-----------------------------------|
E|---------------------------|-----------------------------------|-----------------------------------|


E|--------|--------|--------|--------|--------|--------|
B|--------|--------|--------|--------|--------|--------|
G|--------|--------|--------|--------|--------|--------|
D|--------|--------|--------|--------|--------|--------|
A|--------|--------|--------|--------|--------|--------|
E|--------|--------|--------|--------|--------|--------|





Track 6: Acoustic

E|--------|--------|--------|--------|--------|--------|--------|--------|--------|
B|--------|--------|--------|--------|--------|--------|--------|--------|--------|
G|--------|--------|--------|--------|--------|--------|--------|--------|--------|
D|--------|--------|--------|--------|--------|--------|--------|--------|--------|
A|--------|--------|--------|--------|--------|--------|--------|--------|--------|
E|--------|--------|--------|--------|--------|--------|--------|--------|--------|


E|--------|--------|--------|--------|--------|--------|--------|--------|--------|
B|--------|--------|--------|--------|--------|--------|--------|--------|--------|
G|--------|--------|--------|--------|--------|--------|--------|--------|--------|
D|--------|--------|--------|--------|--------|--------|--------|--------|--------|
A|--------|--------|--------|--------|--------|--------|--------|--------|--------|
E|--------|--------|--------|--------|--------|--------|--------|--------|--------|


E|--------|--------|--------|--------|--------|--------|--------|--------|--------|
B|--------|--------|--------|--------|--------|--------|--------|--------|--------|
G|--------|--------|--------|--------|--------|--------|--------|--------|--------|
D|--------|--------|--------|--------|--------|--------|--------|--------|--------|
A|--------|--------|--------|--------|--------|--------|--------|--------|--------|
E|--------|--------|--------|--------|--------|--------|--------|--------|--------|


E|--------|--------|--------|--------|--------|--------|--------|--------|--------|
B|--------|--------|--------|--------|--------|--------|--------|--------|--------|
G|--------|--------|--------|--------|--------|--------|--------|--------|--------|
D|--------|--------|--------|--------|--------|--------|--------|--------|--------|
A|--------|--------|--------|--------|--------|--------|--------|--------|--------|
E|--------|--------|--------|--------|--------|--------|--------|--------|--------|


E|--------|--------|--------|--------|--------|--------|--------|--------|--------|
B|--------|--------|--------|--------|--------|--------|--------|--------|--------|
G|--------|--------|--------|--------|--------|--------|--------|--------|--------|
D|--------|--------|--------|--------|--------|--------|--------|--------|--------|
A|--------|--------|--------|--------|--------|--------|--------|--------|--------|
E|--------|--------|--------|--------|--------|--------|--------|--------|--------|


E|--------|--------|--------|--------|--------|--------|--------|--------|--------|
B|--------|--------|--------|--------|--------|--------|--------|--------|--------|
G|--------|--------|--------|--------|--------|--------|--------|--------|--------|
D|--------|--------|--------|--------|--------|--------|--------|--------|--------|
A|--------|--------|--------|--------|--------|--------|--------|--------|--------|
E|--------|--------|--------|--------|--------|--------|--------|--------|--------|


E|--------|--------|--------|--------|--------|--------|--------|--------|--------|
B|--------|--------|--------|--------|--------|--------|--------|--------|--------|
G|--------|--------|--------|--------|--------|--------|--------|--------|--------|
D|--------|--------|--------|--------|--------|--------|--------|--------|--------|
A|--------|--------|--------|--------|--------|--------|--------|--------|--------|
E|--------|--------|--------|--------|--------|--------|--------|--------|--------|


E|--------|--------|--------|--------|--------|--------|--------|--------|--------|
B|--------|--------|--------|--------|--------|--------|--------|--------|--------|
G|--------|--------|--------|--------|--------|--------|--------|--------|--------|
D|--------|--------|--------|--------|--------|--------|--------|--------|--------|
A|--------|--------|--------|--------|--------|--------|--------|--------|--------|
E|--------|--------|--------|--------|--------|--------|--------|--------|--------|


E|--------|--------|--------|--------|--------|--------|--------|--------|--------|
B|--------|--------|--------|--------|--------|--------|--------|--------|--------|
G|--------|--------|--------|--------|--------|--------|--------|--------|--------|
D|--------|--------|--------|--------|--------|--------|--------|--------|--------|
A|--------|--------|--------|--------|--------|--------|--------|--------|--------|
E|--------|--------|--------|--------|--------|--------|--------|--------|--------|


E|--------|--------|--------|--------|--------|--------|--------|--------|--------|
B|--------|--------|--------|--------|--------|--------|--------|--------|--------|
G|--------|--------|--------|--------|--------|--------|--------|--------|--------|
D|--------|--------|--------|--------|--------|--------|--------|--------|--------|
A|--------|--------|--------|--------|--------|--------|--------|--------|--------|
E|--------|--------|--------|--------|--------|--------|--------|--------|--------|


E|--------|--------|--------|--------|--------|--------|--------|--------|--------|
B|--------|--------|--------|--------|--------|--------|--------|--------|--------|
G|--------|--------|--------|--------|--------|--------|--------|--------|--------|
D|--------|--------|--------|--------|--------|--------|--------|--------|--------|
A|--------|--------|--------|--------|--------|--------|--------|--------|--------|
E|--------|--------|--------|--------|--------|--------|--------|--------|--------|


E|--------|--------|--------|--------|--------|--------|--------|--------|--------|
B|--------|--------|--------|--------|--------|--------|--------|--------|--------|
G|--------|--------|--------|--------|--------|--------|--------|--------|--------|
D|--------|--------|--------|--------|--------|--------|--------|--------|--------|
A|--------|--------|--------|--------|--------|--------|--------|--------|--------|
E|--------|--------|--------|--------|--------|--------|--------|--------|--------|


E|--------|--------|--------|--------|--------|--------|--------|--------|--------|
B|--------|--------|--------|--------|--------|--------|--------|--------|--------|
G|--------|--------|--------|--------|--------|--------|--------|--------|--------|
D|--------|--------|--------|--------|--------|--------|--------|--------|--------|
A|--------|--------|--------|--------|--------|--------|--------|--------|--------|
E|--------|--------|--------|--------|--------|--------|--------|--------|--------|


E|---------------------------------|-3---3---3---3---3---3---3-------|---------------------------------|
B|-5---5---5---5---5---5---5---5---|-3---3---3---3---3---3---3-------|---------------------------------|
G|-5---5---5---5---5---5---5---5---|-4---4---4---4---4---4---4---3---|-3---3---3---3---3---3---3-------|
D|-5---5---5---5---5---5---5---5---|-5---5---5---5---5---5---5---3---|-3---3---3---3---3---3---3-------|
A|-3---3---3---3---3---3---3---3---|-5---5---5---5---5---5---5---1---|-1---1---1---1---1---1---1-------|
E|---------------------------------|-3---3---3---3---3---3---3-------|-----------------------------3---|


E|---------------------------------|---------------------------------|--------|--------|
B|-5---5---5---5---5---5---5---5---|-5---5---5---5---5---5---5---5---|--------|--------|
G|-5---5---5---5---5---5---5---5---|-5---5---5---5---5---5---5---5---|--------|--------|
D|-5---5---5---5---5---5---5---5---|-5---5---5---5---5---5---5---5---|--------|--------|
A|-3---3---3---3---3---3---3---3---|-3---3---3---3---3---3---3---3---|--------|--------|
E|---------------------------------|---------------------------------|--------|--------|


E|--------|--------|--------|--------|--------|--------|--------|--------|--------|
B|--------|--------|--------|--------|--------|--------|--------|--------|--------|
G|--------|--------|--------|--------|--------|--------|--------|--------|--------|
D|--------|--------|--------|--------|--------|--------|--------|--------|--------|
A|--------|--------|--------|--------|--------|--------|--------|--------|--------|
E|--------|--------|--------|--------|--------|--------|--------|--------|--------|


E|--------|--------|--------|--------|--------|--------|--------|--------|--------|
B|--------|--------|--------|--------|--------|--------|--------|--------|--------|
G|--------|--------|--------|--------|--------|--------|--------|--------|--------|
D|--------|--------|--------|--------|--------|--------|--------|--------|--------|
A|--------|--------|--------|--------|--------|--------|--------|--------|--------|
E|--------|--------|--------|--------|--------|--------|--------|--------|--------|


E|--------|--------|--------|--------|--------|--------|--------|--------|--------|
B|--------|--------|--------|--------|--------|--------|--------|--------|--------|
G|--------|--------|--------|--------|--------|--------|--------|--------|--------|
D|--------|--------|--------|--------|--------|--------|--------|--------|--------|
A|--------|--------|--------|--------|--------|--------|--------|--------|--------|
E|--------|--------|--------|--------|--------|--------|--------|--------|--------|


E|--------|--------|--------|--------|--------|--------|--------|--------|--------|
B|--------|--------|--------|--------|--------|--------|--------|--------|--------|
G|--------|--------|--------|--------|--------|--------|--------|--------|--------|
D|--------|--------|--------|--------|--------|--------|--------|--------|--------|
A|--------|--------|--------|--------|--------|--------|--------|--------|--------|
E|--------|--------|--------|--------|--------|--------|--------|--------|--------|


E|--------|--------|--------|--------|--------|--------|--------|--------|--------|
B|--------|--------|--------|--------|--------|--------|--------|--------|--------|
G|--------|--------|--------|--------|--------|--------|--------|--------|--------|
D|--------|--------|--------|--------|--------|--------|--------|--------|--------|
A|--------|--------|--------|--------|--------|--------|--------|--------|--------|
E|--------|--------|--------|--------|--------|--------|--------|--------|--------|


E|--------|--------|--------|--------|--------|--------|--------|--------|--------|
B|--------|--------|--------|--------|--------|--------|--------|--------|--------|
G|--------|--------|--------|--------|--------|--------|--------|--------|--------|
D|--------|--------|--------|--------|--------|--------|--------|--------|--------|
A|--------|--------|--------|--------|--------|--------|--------|--------|--------|
E|--------|--------|--------|--------|--------|--------|--------|--------|--------|


E|--------|--------|--------|--------|--------|--------|--------|--------|--------|
B|--------|--------|--------|--------|--------|--------|--------|--------|--------|
G|--------|--------|--------|--------|--------|--------|--------|--------|--------|
D|--------|--------|--------|--------|--------|--------|--------|--------|--------|
A|--------|--------|--------|--------|--------|--------|--------|--------|--------|
E|--------|--------|--------|--------|--------|--------|--------|--------|--------|


E|--------|--------|--------|--------|--------|--------|--------|--------|--------|
B|--------|--------|--------|--------|--------|--------|--------|--------|--------|
G|--------|--------|--------|--------|--------|--------|--------|--------|--------|
D|--------|--------|--------|--------|--------|--------|--------|--------|--------|
A|--------|--------|--------|--------|--------|--------|--------|--------|--------|
E|--------|--------|--------|--------|--------|--------|--------|--------|--------|


E|--------|--------|--------|--------|--------|--------|--------|--------|--------|
B|--------|--------|--------|--------|--------|--------|--------|--------|--------|
G|--------|--------|--------|--------|--------|--------|--------|--------|--------|
D|--------|--------|--------|--------|--------|--------|--------|--------|--------|
A|--------|--------|--------|--------|--------|--------|--------|--------|--------|
E|--------|--------|--------|--------|--------|--------|--------|--------|--------|


E|--------|--------|--------|--------|--------|--------|--------|--------|--------|
B|--------|--------|--------|--------|--------|--------|--------|--------|--------|
G|--------|--------|--------|--------|--------|--------|--------|--------|--------|
D|--------|--------|--------|--------|--------|--------|--------|--------|--------|
A|--------|--------|--------|--------|--------|--------|--------|--------|--------|
E|--------|--------|--------|--------|--------|--------|--------|--------|--------|


E|--------|--------|--------|--------|--------|--------|--------|--------|--------|
B|--------|--------|--------|--------|--------|--------|--------|--------|--------|
G|--------|--------|--------|--------|--------|--------|--------|--------|--------|
D|--------|--------|--------|--------|--------|--------|--------|--------|--------|
A|--------|--------|--------|--------|--------|--------|--------|--------|--------|
E|--------|--------|--------|--------|--------|--------|--------|--------|--------|


E|--------|--------|--------|--------|--------|--------|--------|--------|--------|
B|--------|--------|--------|--------|--------|--------|--------|--------|--------|
G|--------|--------|--------|--------|--------|--------|--------|--------|--------|
D|--------|--------|--------|--------|--------|--------|--------|--------|--------|
A|--------|--------|--------|--------|--------|--------|--------|--------|--------|
E|--------|--------|--------|--------|--------|--------|--------|--------|--------|





Track 7: Acoustic

E|--------|--------|--------|--------|--------|--------|--------|--------|--------|
B|--------|--------|--------|--------|--------|--------|--------|--------|--------|
G|--------|--------|--------|--------|--------|--------|--------|--------|--------|
D|--------|--------|--------|--------|--------|--------|--------|--------|--------|
A|--------|--------|--------|--------|--------|--------|--------|--------|--------|
E|--------|--------|--------|--------|--------|--------|--------|--------|--------|


E|--------|--------|--------|--------|--------|--------|--------|--------|--------|
B|--------|--------|--------|--------|--------|--------|--------|--------|--------|
G|--------|--------|--------|--------|--------|--------|--------|--------|--------|
D|--------|--------|--------|--------|--------|--------|--------|--------|--------|
A|--------|--------|--------|--------|--------|--------|--------|--------|--------|
E|--------|--------|--------|--------|--------|--------|--------|--------|--------|


E|--------|--------|--------|--------|--------|--------|--------|--------|--------|
B|--------|--------|--------|--------|--------|--------|--------|--------|--------|
G|--------|--------|--------|--------|--------|--------|--------|--------|--------|
D|--------|--------|--------|--------|--------|--------|--------|--------|--------|
A|--------|--------|--------|--------|--------|--------|--------|--------|--------|
E|--------|--------|--------|--------|--------|--------|--------|--------|--------|


E|--------|--------|--------|--------|--------|--------|--------|--------|--------|
B|--------|--------|--------|--------|--------|--------|--------|--------|--------|
G|--------|--------|--------|--------|--------|--------|--------|--------|--------|
D|--------|--------|--------|--------|--------|--------|--------|--------|--------|
A|--------|--------|--------|--------|--------|--------|--------|--------|--------|
E|--------|--------|--------|--------|--------|--------|--------|--------|--------|


E|--------|--------|--------|--------|--------|--------|--------|--------|--------|
B|--------|--------|--------|--------|--------|--------|--------|--------|--------|
G|--------|--------|--------|--------|--------|--------|--------|--------|--------|
D|--------|--------|--------|--------|--------|--------|--------|--------|--------|
A|--------|--------|--------|--------|--------|--------|--------|--------|--------|
E|--------|--------|--------|--------|--------|--------|--------|--------|--------|


E|--------|--------|--------|--------|--------|--------|--------|--------|--------|
B|--------|--------|--------|--------|--------|--------|--------|--------|--------|
G|--------|--------|--------|--------|--------|--------|--------|--------|--------|
D|--------|--------|--------|--------|--------|--------|--------|--------|--------|
A|--------|--------|--------|--------|--------|--------|--------|--------|--------|
E|--------|--------|--------|--------|--------|--------|--------|--------|--------|


E|--------|--------|--------|--------|--------|--------|--------|--------|--------|
B|--------|--------|--------|--------|--------|--------|--------|--------|--------|
G|--------|--------|--------|--------|--------|--------|--------|--------|--------|
D|--------|--------|--------|--------|--------|--------|--------|--------|--------|
A|--------|--------|--------|--------|--------|--------|--------|--------|--------|
E|--------|--------|--------|--------|--------|--------|--------|--------|--------|


E|--------|--------|--------|--------|--------|--------|--------|--------|--------|
B|--------|--------|--------|--------|--------|--------|--------|--------|--------|
G|--------|--------|--------|--------|--------|--------|--------|--------|--------|
D|--------|--------|--------|--------|--------|--------|--------|--------|--------|
A|--------|--------|--------|--------|--------|--------|--------|--------|--------|
E|--------|--------|--------|--------|--------|--------|--------|--------|--------|


E|--------|--------|--------|--------|--------|--------|--------|--------|--------|
B|--------|--------|--------|--------|--------|--------|--------|--------|--------|
G|--------|--------|--------|--------|--------|--------|--------|--------|--------|
D|--------|--------|--------|--------|--------|--------|--------|--------|--------|
A|--------|--------|--------|--------|--------|--------|--------|--------|--------|
E|--------|--------|--------|--------|--------|--------|--------|--------|--------|


E|--------|--------|--------|--------|--------|--------|--------|--------|--------|
B|--------|--------|--------|--------|--------|--------|--------|--------|--------|
G|--------|--------|--------|--------|--------|--------|--------|--------|--------|
D|--------|--------|--------|--------|--------|--------|--------|--------|--------|
A|--------|--------|--------|--------|--------|--------|--------|--------|--------|
E|--------|--------|--------|--------|--------|--------|--------|--------|--------|


E|--------|--------|--------|--------|--------|--------|--------|--------|--------|
B|--------|--------|--------|--------|--------|--------|--------|--------|--------|
G|--------|--------|--------|--------|--------|--------|--------|--------|--------|
D|--------|--------|--------|--------|--------|--------|--------|--------|--------|
A|--------|--------|--------|--------|--------|--------|--------|--------|--------|
E|--------|--------|--------|--------|--------|--------|--------|--------|--------|


E|--------|--------|--------|--------|--------|--------|--------|--------|--------|
B|--------|--------|--------|--------|--------|--------|--------|--------|--------|
G|--------|--------|--------|--------|--------|--------|--------|--------|--------|
D|--------|--------|--------|--------|--------|--------|--------|--------|--------|
A|--------|--------|--------|--------|--------|--------|--------|--------|--------|
E|--------|--------|--------|--------|--------|--------|--------|--------|--------|


E|--------|--------|--------|--------|--------|--------|--------|--------|--------|
B|--------|--------|--------|--------|--------|--------|--------|--------|--------|
G|--------|--------|--------|--------|--------|--------|--------|--------|--------|
D|--------|--------|--------|--------|--------|--------|--------|--------|--------|
A|--------|--------|--------|--------|--------|--------|--------|--------|--------|
E|--------|--------|--------|--------|--------|--------|--------|--------|--------|


E|--------|--------|--------|--------|--------|-3---3---3---3---3---3---3-------|---------------------------------|
B|--------|--------|--------|--------|--------|-3---3---3---3---3---3---3-------|---------------------------------|
G|--------|--------|--------|--------|--------|-4---4---4---4---4---4---4---3---|-3---3---3---3---3---3---3-------|
D|--------|--------|--------|--------|--------|-5---5---5---5---5---5---5---3---|-3---3---3---3---3---3---3-------|
A|--------|--------|--------|--------|--------|-5---5---5---5---5---5---5---1---|-1---1---1---1---1---1---1-------|
E|--------|--------|--------|--------|--------|-3---3---3---3---3---3---3-------|-----------------------------3---|


E|---------------------------------|------------------------|-3---3---3---3---3---3---3-------|
B|-5---5---5---5---5---5---5---5---|-5----------------------|-3---3---3---3---3---3---3-------|
G|-5---5---5---5---5---5---5---5---|-5----------------------|-4---4---4---4---4---4---4---3---|
D|-5---5---5---5---5---5---5---5---|-5---2----3----4----4---|-5---5---5---5---5---5---5---3---|
A|-3---3---3---3---3---3---3---3---|-3----------------------|-5---5---5---5---5---5---5---1---|
E|---------------------------------|------------------------|-3---3---3---3---3---3---3-------|


E|---------------------------------|---------------------------------|------------------------|
B|---------------------------------|-5---5---5---5---5---5---5---5---|-5----------------------|
G|-3---3---3---3---3---3---3-------|-5---5---5---5---5---5---5---5---|-5----------------------|
D|-3---3---3---3---3---3---3-------|-5---5---5---5---5---5---5---5---|-5---2----3----4----4---|
A|-1---1---1---1---1---1---1-------|-3---3---3---3---3---3---3---3---|-3----------------------|
E|-----------------------------3---|---------------------------------|------------------------|


E|--------|--------|--------|--------|--------|--------|--------|--------|--------|
B|--------|--------|--------|--------|--------|--------|--------|--------|--------|
G|--------|--------|--------|--------|--------|--------|--------|--------|--------|
D|--------|--------|--------|--------|--------|--------|--------|--------|--------|
A|--------|--------|--------|--------|--------|--------|--------|--------|--------|
E|--------|--------|--------|--------|--------|--------|--------|--------|--------|


E|--------|--------|--------|--------|--------|--------|--------|--------|--------|
B|--------|--------|--------|--------|--------|--------|--------|--------|--------|
G|--------|--------|--------|--------|--------|--------|--------|--------|--------|
D|--------|--------|--------|--------|--------|--------|--------|--------|--------|
A|--------|--------|--------|--------|--------|--------|--------|--------|--------|
E|--------|--------|--------|--------|--------|--------|--------|--------|--------|


E|--------|--------|--------|--------|--------|--------|--------|--------|--------|
B|--------|--------|--------|--------|--------|--------|--------|--------|--------|
G|--------|--------|--------|--------|--------|--------|--------|--------|--------|
D|--------|--------|--------|--------|--------|--------|--------|--------|--------|
A|--------|--------|--------|--------|--------|--------|--------|--------|--------|
E|--------|--------|--------|--------|--------|--------|--------|--------|--------|


E|--------|--------|--------|--------|--------|--------|--------|--------|--------|
B|--------|--------|--------|--------|--------|--------|--------|--------|--------|
G|--------|--------|--------|--------|--------|--------|--------|--------|--------|
D|--------|--------|--------|--------|--------|--------|--------|--------|--------|
A|--------|--------|--------|--------|--------|--------|--------|--------|--------|
E|--------|--------|--------|--------|--------|--------|--------|--------|--------|


E|--------|--------|--------|--------|--------|--------|--------|--------|--------|
B|--------|--------|--------|--------|--------|--------|--------|--------|--------|
G|--------|--------|--------|--------|--------|--------|--------|--------|--------|
D|--------|--------|--------|--------|--------|--------|--------|--------|--------|
A|--------|--------|--------|--------|--------|--------|--------|--------|--------|
E|--------|--------|--------|--------|--------|--------|--------|--------|--------|


E|--------|--------|--------|--------|--------|--------|--------|--------|--------|
B|--------|--------|--------|--------|--------|--------|--------|--------|--------|
G|--------|--------|--------|--------|--------|--------|--------|--------|--------|
D|--------|--------|--------|--------|--------|--------|--------|--------|--------|
A|--------|--------|--------|--------|--------|--------|--------|--------|--------|
E|--------|--------|--------|--------|--------|--------|--------|--------|--------|


E|--------|--------|--------|--------|--------|--------|--------|--------|--------|
B|--------|--------|--------|--------|--------|--------|--------|--------|--------|
G|--------|--------|--------|--------|--------|--------|--------|--------|--------|
D|--------|--------|--------|--------|--------|--------|--------|--------|--------|
A|--------|--------|--------|--------|--------|--------|--------|--------|--------|
E|--------|--------|--------|--------|--------|--------|--------|--------|--------|


E|--------|--------|--------|--------|--------|--------|--------|--------|--------|
B|--------|--------|--------|--------|--------|--------|--------|--------|--------|
G|--------|--------|--------|--------|--------|--------|--------|--------|--------|
D|--------|--------|--------|--------|--------|--------|--------|--------|--------|
A|--------|--------|--------|--------|--------|--------|--------|--------|--------|
E|--------|--------|--------|--------|--------|--------|--------|--------|--------|


E|--------|--------|--------|--------|--------|--------|--------|--------|--------|
B|--------|--------|--------|--------|--------|--------|--------|--------|--------|
G|--------|--------|--------|--------|--------|--------|--------|--------|--------|
D|--------|--------|--------|--------|--------|--------|--------|--------|--------|
A|--------|--------|--------|--------|--------|--------|--------|--------|--------|
E|--------|--------|--------|--------|--------|--------|--------|--------|--------|


E|--------|--------|--------|--------|--------|--------|--------|--------|--------|
B|--------|--------|--------|--------|--------|--------|--------|--------|--------|
G|--------|--------|--------|--------|--------|--------|--------|--------|--------|
D|--------|--------|--------|--------|--------|--------|--------|--------|--------|
A|--------|--------|--------|--------|--------|--------|--------|--------|--------|
E|--------|--------|--------|--------|--------|--------|--------|--------|--------|


E|--------|--------|--------|--------|--------|--------|--------|--------|--------|
B|--------|--------|--------|--------|--------|--------|--------|--------|--------|
G|--------|--------|--------|--------|--------|--------|--------|--------|--------|
D|--------|--------|--------|--------|--------|--------|--------|--------|--------|
A|--------|--------|--------|--------|--------|--------|--------|--------|--------|
E|--------|--------|--------|--------|--------|--------|--------|--------|--------|


E|--------|--------|--------|
B|--------|--------|--------|
G|--------|--------|--------|
D|--------|--------|--------|
A|--------|--------|--------|
E|--------|--------|--------|





Track 8: Acoustic

E|--------|--------|--------|--------|--------|--------|--------|--------|--------|
B|--------|--------|--------|--------|--------|--------|--------|--------|--------|
G|--------|--------|--------|--------|--------|--------|--------|--------|--------|
D|--------|--------|--------|--------|--------|--------|--------|--------|--------|
A|--------|--------|--------|--------|--------|--------|--------|--------|--------|
E|--------|--------|--------|--------|--------|--------|--------|--------|--------|


E|--------|--------|--------|--------|--------|--------|--------|--------|--------|
B|--------|--------|--------|--------|--------|--------|--------|--------|--------|
G|--------|--------|--------|--------|--------|--------|--------|--------|--------|
D|--------|--------|--------|--------|--------|--------|--------|--------|--------|
A|--------|--------|--------|--------|--------|--------|--------|--------|--------|
E|--------|--------|--------|--------|--------|--------|--------|--------|--------|


E|--------|--------|--------|--------|--------|--------|--------|--------|--------|
B|--------|--------|--------|--------|--------|--------|--------|--------|--------|
G|--------|--------|--------|--------|--------|--------|--------|--------|--------|
D|--------|--------|--------|--------|--------|--------|--------|--------|--------|
A|--------|--------|--------|--------|--------|--------|--------|--------|--------|
E|--------|--------|--------|--------|--------|--------|--------|--------|--------|


E|--------|--------|--------|--------|--------|--------|--------|--------|--------|
B|--------|--------|--------|--------|--------|--------|--------|--------|--------|
G|--------|--------|--------|--------|--------|--------|--------|--------|--------|
D|--------|--------|--------|--------|--------|--------|--------|--------|--------|
A|--------|--------|--------|--------|--------|--------|--------|--------|--------|
E|--------|--------|--------|--------|--------|--------|--------|--------|--------|


E|--------|--------|--------|--------|--------|--------|--------|--------|--------|
B|--------|--------|--------|--------|--------|--------|--------|--------|--------|
G|--------|--------|--------|--------|--------|--------|--------|--------|--------|
D|--------|--------|--------|--------|--------|--------|--------|--------|--------|
A|--------|--------|--------|--------|--------|--------|--------|--------|--------|
E|--------|--------|--------|--------|--------|--------|--------|--------|--------|


E|--------|--------|--------|--------|--------|--------|--------|--------|--------|
B|--------|--------|--------|--------|--------|--------|--------|--------|--------|
G|--------|--------|--------|--------|--------|--------|--------|--------|--------|
D|--------|--------|--------|--------|--------|--------|--------|--------|--------|
A|--------|--------|--------|--------|--------|--------|--------|--------|--------|
E|--------|--------|--------|--------|--------|--------|--------|--------|--------|


E|--------|--------|--------|--------|--------|--------|--------|--------|--------|
B|--------|--------|--------|--------|--------|--------|--------|--------|--------|
G|--------|--------|--------|--------|--------|--------|--------|--------|--------|
D|--------|--------|--------|--------|--------|--------|--------|--------|--------|
A|--------|--------|--------|--------|--------|--------|--------|--------|--------|
E|--------|--------|--------|--------|--------|--------|--------|--------|--------|


E|--------|--------|--------|--------|--------|--------|--------|--------|--------|
B|--------|--------|--------|--------|--------|--------|--------|--------|--------|
G|--------|--------|--------|--------|--------|--------|--------|--------|--------|
D|--------|--------|--------|--------|--------|--------|--------|--------|--------|
A|--------|--------|--------|--------|--------|--------|--------|--------|--------|
E|--------|--------|--------|--------|--------|--------|--------|--------|--------|


E|--------|--------|--------|--------|--------|--------|--------|--------|--------|
B|--------|--------|--------|--------|--------|--------|--------|--------|--------|
G|--------|--------|--------|--------|--------|--------|--------|--------|--------|
D|--------|--------|--------|--------|--------|--------|--------|--------|--------|
A|--------|--------|--------|--------|--------|--------|--------|--------|--------|
E|--------|--------|--------|--------|--------|--------|--------|--------|--------|


E|--------|--------|--------|--------|--------|--------|--------|--------|--------|
B|--------|--------|--------|--------|--------|--------|--------|--------|--------|
G|--------|--------|--------|--------|--------|--------|--------|--------|--------|
D|--------|--------|--------|--------|--------|--------|--------|--------|--------|
A|--------|--------|--------|--------|--------|--------|--------|--------|--------|
E|--------|--------|--------|--------|--------|--------|--------|--------|--------|


E|--------|--------|--------|--------|--------|--------|--------|--------|--------|
B|--------|--------|--------|--------|--------|--------|--------|--------|--------|
G|--------|--------|--------|--------|--------|--------|--------|--------|--------|
D|--------|--------|--------|--------|--------|--------|--------|--------|--------|
A|--------|--------|--------|--------|--------|--------|--------|--------|--------|
E|--------|--------|--------|--------|--------|--------|--------|--------|--------|


E|--------|--------|--------|--------|--------|--------|--------|--------|--------|
B|--------|--------|--------|--------|--------|--------|--------|--------|--------|
G|--------|--------|--------|--------|--------|--------|--------|--------|--------|
D|--------|--------|--------|--------|--------|--------|--------|--------|--------|
A|--------|--------|--------|--------|--------|--------|--------|--------|--------|
E|--------|--------|--------|--------|--------|--------|--------|--------|--------|


E|--------|--------|--------|--------|--------|--------|--------|--------|--------|
B|--------|--------|--------|--------|--------|--------|--------|--------|--------|
G|--------|--------|--------|--------|--------|--------|--------|--------|--------|
D|--------|--------|--------|--------|--------|--------|--------|--------|--------|
A|--------|--------|--------|--------|--------|--------|--------|--------|--------|
E|--------|--------|--------|--------|--------|--------|--------|--------|--------|


E|--------|--------|--------|--------|--------|--------|--------|--------|--------|
B|--------|--------|--------|--------|--------|--------|--------|--------|--------|
G|--------|--------|--------|--------|--------|--------|--------|--------|--------|
D|--------|--------|--------|--------|--------|--------|--------|--------|--------|
A|--------|--------|--------|--------|--------|--------|--------|--------|--------|
E|--------|--------|--------|--------|--------|--------|--------|--------|--------|


E|--------|--------|--------|--------|-3---3---3---3---3---3---3-------|---------------------------------|
B|--------|--------|--------|--------|-3---3---3---3---3---3---3-------|---------------------------------|
G|--------|--------|--------|--------|-4---4---4---4---4---4---4---3---|-3---3---3---3---3---3---3-------|
D|--------|--------|--------|--------|-5---5---5---5---5---5---5---3---|-3---3---3---3---3---3---3-------|
A|--------|--------|--------|--------|-5---5---5---5---5---5---5---1---|-1---1---1---1---1---1---1-------|
E|--------|--------|--------|--------|-3---3---3---3---3---3---3-------|-----------------------------3---|


E|--------|--------|--------|--------|--------|--------|--------|--------|--------|
B|--------|--------|--------|--------|--------|--------|--------|--------|--------|
G|--------|--------|--------|--------|--------|--------|--------|--------|--------|
D|--------|--------|--------|--------|--------|--------|--------|--------|--------|
A|--------|--------|--------|--------|--------|--------|--------|--------|--------|
E|--------|--------|--------|--------|--------|--------|--------|--------|--------|


E|--------|--------|--------|--------|--------|--------|--------|--------|--------|
B|--------|--------|--------|--------|--------|--------|--------|--------|--------|
G|--------|--------|--------|--------|--------|--------|--------|--------|--------|
D|--------|--------|--------|--------|--------|--------|--------|--------|--------|
A|--------|--------|--------|--------|--------|--------|--------|--------|--------|
E|--------|--------|--------|--------|--------|--------|--------|--------|--------|


E|--------|--------|--------|--------|--------|--------|--------|--------|--------|
B|--------|--------|--------|--------|--------|--------|--------|--------|--------|
G|--------|--------|--------|--------|--------|--------|--------|--------|--------|
D|--------|--------|--------|--------|--------|--------|--------|--------|--------|
A|--------|--------|--------|--------|--------|--------|--------|--------|--------|
E|--------|--------|--------|--------|--------|--------|--------|--------|--------|


E|--------|--------|--------|--------|--------|--------|--------|--------|--------|
B|--------|--------|--------|--------|--------|--------|--------|--------|--------|
G|--------|--------|--------|--------|--------|--------|--------|--------|--------|
D|--------|--------|--------|--------|--------|--------|--------|--------|--------|
A|--------|--------|--------|--------|--------|--------|--------|--------|--------|
E|--------|--------|--------|--------|--------|--------|--------|--------|--------|


E|--------|--------|--------|--------|--------|--------|--------|--------|--------|
B|--------|--------|--------|--------|--------|--------|--------|--------|--------|
G|--------|--------|--------|--------|--------|--------|--------|--------|--------|
D|--------|--------|--------|--------|--------|--------|--------|--------|--------|
A|--------|--------|--------|--------|--------|--------|--------|--------|--------|
E|--------|--------|--------|--------|--------|--------|--------|--------|--------|


E|--------|--------|--------|--------|--------|--------|--------|--------|--------|
B|--------|--------|--------|--------|--------|--------|--------|--------|--------|
G|--------|--------|--------|--------|--------|--------|--------|--------|--------|
D|--------|--------|--------|--------|--------|--------|--------|--------|--------|
A|--------|--------|--------|--------|--------|--------|--------|--------|--------|
E|--------|--------|--------|--------|--------|--------|--------|--------|--------|


E|--------|--------|--------|--------|--------|--------|--------|--------|--------|
B|--------|--------|--------|--------|--------|--------|--------|--------|--------|
G|--------|--------|--------|--------|--------|--------|--------|--------|--------|
D|--------|--------|--------|--------|--------|--------|--------|--------|--------|
A|--------|--------|--------|--------|--------|--------|--------|--------|--------|
E|--------|--------|--------|--------|--------|--------|--------|--------|--------|


E|--------|--------|--------|--------|--------|--------|--------|--------|--------|
B|--------|--------|--------|--------|--------|--------|--------|--------|--------|
G|--------|--------|--------|--------|--------|--------|--------|--------|--------|
D|--------|--------|--------|--------|--------|--------|--------|--------|--------|
A|--------|--------|--------|--------|--------|--------|--------|--------|--------|
E|--------|--------|--------|--------|--------|--------|--------|--------|--------|


E|--------|--------|--------|--------|--------|--------|--------|--------|--------|
B|--------|--------|--------|--------|--------|--------|--------|--------|--------|
G|--------|--------|--------|--------|--------|--------|--------|--------|--------|
D|--------|--------|--------|--------|--------|--------|--------|--------|--------|
A|--------|--------|--------|--------|--------|--------|--------|--------|--------|
E|--------|--------|--------|--------|--------|--------|--------|--------|--------|


E|--------|--------|--------|--------|--------|--------|--------|--------|--------|
B|--------|--------|--------|--------|--------|--------|--------|--------|--------|
G|--------|--------|--------|--------|--------|--------|--------|--------|--------|
D|--------|--------|--------|--------|--------|--------|--------|--------|--------|
A|--------|--------|--------|--------|--------|--------|--------|--------|--------|
E|--------|--------|--------|--------|--------|--------|--------|--------|--------|


E|--------|--------|--------|--------|--------|--------|--------|--------|--------|
B|--------|--------|--------|--------|--------|--------|--------|--------|--------|
G|--------|--------|--------|--------|--------|--------|--------|--------|--------|
D|--------|--------|--------|--------|--------|--------|--------|--------|--------|
A|--------|--------|--------|--------|--------|--------|--------|--------|--------|
E|--------|--------|--------|--------|--------|--------|--------|--------|--------|


E|--------|
B|--------|
G|--------|
D|--------|
A|--------|
E|--------|





Track 9: Acoustic

E|--------|--------|--------|--------|--------|--------|--------|--------|--------|
B|--------|--------|--------|--------|--------|--------|--------|--------|--------|
G|--------|--------|--------|--------|--------|--------|--------|--------|--------|
D|--------|--------|--------|--------|--------|--------|--------|--------|--------|
A|--------|--------|--------|--------|--------|--------|--------|--------|--------|
E|--------|--------|--------|--------|--------|--------|--------|--------|--------|


E|--------|--------|--------|--------|--------|--------|--------|--------|--------|
B|--------|--------|--------|--------|--------|--------|--------|--------|--------|
G|--------|--------|--------|--------|--------|--------|--------|--------|--------|
D|--------|--------|--------|--------|--------|--------|--------|--------|--------|
A|--------|--------|--------|--------|--------|--------|--------|--------|--------|
E|--------|--------|--------|--------|--------|--------|--------|--------|--------|


E|--------|--------|--------|--------|--------|--------|--------|--------|--------|
B|--------|--------|--------|--------|--------|--------|--------|--------|--------|
G|--------|--------|--------|--------|--------|--------|--------|--------|--------|
D|--------|--------|--------|--------|--------|--------|--------|--------|--------|
A|--------|--------|--------|--------|--------|--------|--------|--------|--------|
E|--------|--------|--------|--------|--------|--------|--------|--------|--------|


E|--------|--------|--------|--------|--------|--------|--------|--------|--------|
B|--------|--------|--------|--------|--------|--------|--------|--------|--------|
G|--------|--------|--------|--------|--------|--------|--------|--------|--------|
D|--------|--------|--------|--------|--------|--------|--------|--------|--------|
A|--------|--------|--------|--------|--------|--------|--------|--------|--------|
E|--------|--------|--------|--------|--------|--------|--------|--------|--------|


E|--------|--------|--------|--------|--------|--------|--------|--------|--------|
B|--------|--------|--------|--------|--------|--------|--------|--------|--------|
G|--------|--------|--------|--------|--------|--------|--------|--------|--------|
D|--------|--------|--------|--------|--------|--------|--------|--------|--------|
A|--------|--------|--------|--------|--------|--------|--------|--------|--------|
E|--------|--------|--------|--------|--------|--------|--------|--------|--------|


E|--------|--------|--------|--------|--------|--------|--------|--------|--------|
B|--------|--------|--------|--------|--------|--------|--------|--------|--------|
G|--------|--------|--------|--------|--------|--------|--------|--------|--------|
D|--------|--------|--------|--------|--------|--------|--------|--------|--------|
A|--------|--------|--------|--------|--------|--------|--------|--------|--------|
E|--------|--------|--------|--------|--------|--------|--------|--------|--------|


E|--------|--------|--------|--------|--------|--------|--------|--------|--------|
B|--------|--------|--------|--------|--------|--------|--------|--------|--------|
G|--------|--------|--------|--------|--------|--------|--------|--------|--------|
D|--------|--------|--------|--------|--------|--------|--------|--------|--------|
A|--------|--------|--------|--------|--------|--------|--------|--------|--------|
E|--------|--------|--------|--------|--------|--------|--------|--------|--------|


E|--------|--------|--------|--------|--------|--------|--------|--------|--------|
B|--------|--------|--------|--------|--------|--------|--------|--------|--------|
G|--------|--------|--------|--------|--------|--------|--------|--------|--------|
D|--------|--------|--------|--------|--------|--------|--------|--------|--------|
A|--------|--------|--------|--------|--------|--------|--------|--------|--------|
E|--------|--------|--------|--------|--------|--------|--------|--------|--------|


E|--------|--------|--------|--------|--------|--------|--------|--------|--------|
B|--------|--------|--------|--------|--------|--------|--------|--------|--------|
G|--------|--------|--------|--------|--------|--------|--------|--------|--------|
D|--------|--------|--------|--------|--------|--------|--------|--------|--------|
A|--------|--------|--------|--------|--------|--------|--------|--------|--------|
E|--------|--------|--------|--------|--------|--------|--------|--------|--------|


E|--------|--------|--------|--------|--------|--------|--------|--------|--------|
B|--------|--------|--------|--------|--------|--------|--------|--------|--------|
G|--------|--------|--------|--------|--------|--------|--------|--------|--------|
D|--------|--------|--------|--------|--------|--------|--------|--------|--------|
A|--------|--------|--------|--------|--------|--------|--------|--------|--------|
E|--------|--------|--------|--------|--------|--------|--------|--------|--------|


E|--------|--------|--------|--------|--------|--------|--------|--------|--------|
B|--------|--------|--------|--------|--------|--------|--------|--------|--------|
G|--------|--------|--------|--------|--------|--------|--------|--------|--------|
D|--------|--------|--------|--------|--------|--------|--------|--------|--------|
A|--------|--------|--------|--------|--------|--------|--------|--------|--------|
E|--------|--------|--------|--------|--------|--------|--------|--------|--------|


E|--------|--------|--------|--------|--------|--------|--------|--------|--------|
B|--------|--------|--------|--------|--------|--------|--------|--------|--------|
G|--------|--------|--------|--------|--------|--------|--------|--------|--------|
D|--------|--------|--------|--------|--------|--------|--------|--------|--------|
A|--------|--------|--------|--------|--------|--------|--------|--------|--------|
E|--------|--------|--------|--------|--------|--------|--------|--------|--------|


E|--------|--------|--------|--------|--------|--------|--------|--------|--------|
B|--------|--------|--------|--------|--------|--------|--------|--------|--------|
G|--------|--------|--------|--------|--------|--------|--------|--------|--------|
D|--------|--------|--------|--------|--------|--------|--------|--------|--------|
A|--------|--------|--------|--------|--------|--------|--------|--------|--------|
E|--------|--------|--------|--------|--------|--------|--------|--------|--------|


E|--------|--------|--------|--------|--------|--------|--------|--------|--------|
B|--------|--------|--------|--------|--------|--------|--------|--------|--------|
G|--------|--------|--------|--------|--------|--------|--------|--------|--------|
D|--------|--------|--------|--------|--------|--------|--------|--------|--------|
A|--------|--------|--------|--------|--------|--------|--------|--------|--------|
E|--------|--------|--------|--------|--------|--------|--------|--------|--------|


E|--------|--------|--------|--------|--------|--------|---------------------------------|
B|--------|--------|--------|--------|--------|--------|-5---5---5---5---5---5---5---5---|
G|--------|--------|--------|--------|--------|--------|-5---5---5---5---5---5---5---5---|
D|--------|--------|--------|--------|--------|--------|-5---5---5---5---5---5---5---5---|
A|--------|--------|--------|--------|--------|--------|-3---3---3---3---3---3---3---3---|
E|--------|--------|--------|--------|--------|--------|---------------------------------|


E|------------------------|-3---3---3---3---3---3---3-------|---------------------------------|
B|-5----------------------|-3---3---3---3---3---3---3-------|---------------------------------|
G|-5----------------------|-4---4---4---4---4---4---4---3---|-3---3---3---3---3---3---3-------|
D|-5---2----3----4----4---|-5---5---5---5---5---5---5---3---|-3---3---3---3---3---3---3-------|
A|-3----------------------|-5---5---5---5---5---5---5---1---|-1---1---1---1---1---1---1-------|
E|------------------------|-3---3---3---3---3---3---3-------|-----------------------------3---|


E|--------|--------|--------|--------|--------|--------|--------|--------|--------|
B|--------|--------|--------|--------|--------|--------|--------|--------|--------|
G|--------|--------|--------|--------|--------|--------|--------|--------|--------|
D|--------|--------|--------|--------|--------|--------|--------|--------|--------|
A|--------|--------|--------|--------|--------|--------|--------|--------|--------|
E|--------|--------|--------|--------|--------|--------|--------|--------|--------|


E|--------|--------|--------|--------|--------|--------|--------|--------|--------|
B|--------|--------|--------|--------|--------|--------|--------|--------|--------|
G|--------|--------|--------|--------|--------|--------|--------|--------|--------|
D|--------|--------|--------|--------|--------|--------|--------|--------|--------|
A|--------|--------|--------|--------|--------|--------|--------|--------|--------|
E|--------|--------|--------|--------|--------|--------|--------|--------|--------|


E|--------|--------|--------|--------|--------|--------|--------|--------|--------|
B|--------|--------|--------|--------|--------|--------|--------|--------|--------|
G|--------|--------|--------|--------|--------|--------|--------|--------|--------|
D|--------|--------|--------|--------|--------|--------|--------|--------|--------|
A|--------|--------|--------|--------|--------|--------|--------|--------|--------|
E|--------|--------|--------|--------|--------|--------|--------|--------|--------|


E|--------|--------|--------|--------|--------|--------|--------|--------|--------|
B|--------|--------|--------|--------|--------|--------|--------|--------|--------|
G|--------|--------|--------|--------|--------|--------|--------|--------|--------|
D|--------|--------|--------|--------|--------|--------|--------|--------|--------|
A|--------|--------|--------|--------|--------|--------|--------|--------|--------|
E|--------|--------|--------|--------|--------|--------|--------|--------|--------|


E|--------|--------|--------|--------|--------|--------|--------|--------|--------|
B|--------|--------|--------|--------|--------|--------|--------|--------|--------|
G|--------|--------|--------|--------|--------|--------|--------|--------|--------|
D|--------|--------|--------|--------|--------|--------|--------|--------|--------|
A|--------|--------|--------|--------|--------|--------|--------|--------|--------|
E|--------|--------|--------|--------|--------|--------|--------|--------|--------|


E|--------|--------|--------|--------|--------|--------|--------|--------|--------|
B|--------|--------|--------|--------|--------|--------|--------|--------|--------|
G|--------|--------|--------|--------|--------|--------|--------|--------|--------|
D|--------|--------|--------|--------|--------|--------|--------|--------|--------|
A|--------|--------|--------|--------|--------|--------|--------|--------|--------|
E|--------|--------|--------|--------|--------|--------|--------|--------|--------|


E|--------|--------|--------|--------|--------|--------|--------|--------|--------|
B|--------|--------|--------|--------|--------|--------|--------|--------|--------|
G|--------|--------|--------|--------|--------|--------|--------|--------|--------|
D|--------|--------|--------|--------|--------|--------|--------|--------|--------|
A|--------|--------|--------|--------|--------|--------|--------|--------|--------|
E|--------|--------|--------|--------|--------|--------|--------|--------|--------|


E|--------|--------|--------|--------|--------|--------|--------|--------|--------|
B|--------|--------|--------|--------|--------|--------|--------|--------|--------|
G|--------|--------|--------|--------|--------|--------|--------|--------|--------|
D|--------|--------|--------|--------|--------|--------|--------|--------|--------|
A|--------|--------|--------|--------|--------|--------|--------|--------|--------|
E|--------|--------|--------|--------|--------|--------|--------|--------|--------|


E|--------|--------|--------|--------|--------|--------|--------|--------|--------|
B|--------|--------|--------|--------|--------|--------|--------|--------|--------|
G|--------|--------|--------|--------|--------|--------|--------|--------|--------|
D|--------|--------|--------|--------|--------|--------|--------|--------|--------|
A|--------|--------|--------|--------|--------|--------|--------|--------|--------|
E|--------|--------|--------|--------|--------|--------|--------|--------|--------|


E|--------|--------|--------|--------|--------|--------|--------|--------|--------|
B|--------|--------|--------|--------|--------|--------|--------|--------|--------|
G|--------|--------|--------|--------|--------|--------|--------|--------|--------|
D|--------|--------|--------|--------|--------|--------|--------|--------|--------|
A|--------|--------|--------|--------|--------|--------|--------|--------|--------|
E|--------|--------|--------|--------|--------|--------|--------|--------|--------|


E|--------|--------|--------|--------|--------|--------|
B|--------|--------|--------|--------|--------|--------|
G|--------|--------|--------|--------|--------|--------|
D|--------|--------|--------|--------|--------|--------|
A|--------|--------|--------|--------|--------|--------|
E|--------|--------|--------|--------|--------|--------|





Track 10: Acoustic

E|--------|--------|--------|--------|--------|--------|--------|--------|--------|
B|--------|--------|--------|--------|--------|--------|--------|--------|--------|
G|--------|--------|--------|--------|--------|--------|--------|--------|--------|
D|--------|--------|--------|--------|--------|--------|--------|--------|--------|
A|--------|--------|--------|--------|--------|--------|--------|--------|--------|
E|--------|--------|--------|--------|--------|--------|--------|--------|--------|


E|--------|--------|--------|--------|--------|--------|--------|--------|--------|
B|--------|--------|--------|--------|--------|--------|--------|--------|--------|
G|--------|--------|--------|--------|--------|--------|--------|--------|--------|
D|--------|--------|--------|--------|--------|--------|--------|--------|--------|
A|--------|--------|--------|--------|--------|--------|--------|--------|--------|
E|--------|--------|--------|--------|--------|--------|--------|--------|--------|


E|--------|--------|--------|--------|--------|--------|--------|--------|--------|
B|--------|--------|--------|--------|--------|--------|--------|--------|--------|
G|--------|--------|--------|--------|--------|--------|--------|--------|--------|
D|--------|--------|--------|--------|--------|--------|--------|--------|--------|
A|--------|--------|--------|--------|--------|--------|--------|--------|--------|
E|--------|--------|--------|--------|--------|--------|--------|--------|--------|


E|--------|--------|--------|--------|--------|--------|--------|--------|--------|
B|--------|--------|--------|--------|--------|--------|--------|--------|--------|
G|--------|--------|--------|--------|--------|--------|--------|--------|--------|
D|--------|--------|--------|--------|--------|--------|--------|--------|--------|
A|--------|--------|--------|--------|--------|--------|--------|--------|--------|
E|--------|--------|--------|--------|--------|--------|--------|--------|--------|


E|--------|--------|--------|--------|--------|--------|--------|--------|--------|
B|--------|--------|--------|--------|--------|--------|--------|--------|--------|
G|--------|--------|--------|--------|--------|--------|--------|--------|--------|
D|--------|--------|--------|--------|--------|--------|--------|--------|--------|
A|--------|--------|--------|--------|--------|--------|--------|--------|--------|
E|--------|--------|--------|--------|--------|--------|--------|--------|--------|


E|--------|--------|--------|--------|--------|--------|--------|--------|--------|
B|--------|--------|--------|--------|--------|--------|--------|--------|--------|
G|--------|--------|--------|--------|--------|--------|--------|--------|--------|
D|--------|--------|--------|--------|--------|--------|--------|--------|--------|
A|--------|--------|--------|--------|--------|--------|--------|--------|--------|
E|--------|--------|--------|--------|--------|--------|--------|--------|--------|


E|--------|--------|--------|--------|--------|--------|--------|--------|--------|
B|--------|--------|--------|--------|--------|--------|--------|--------|--------|
G|--------|--------|--------|--------|--------|--------|--------|--------|--------|
D|--------|--------|--------|--------|--------|--------|--------|--------|--------|
A|--------|--------|--------|--------|--------|--------|--------|--------|--------|
E|--------|--------|--------|--------|--------|--------|--------|--------|--------|


E|--------|--------|--------|--------|--------|--------|--------|--------|--------|
B|--------|--------|--------|--------|--------|--------|--------|--------|--------|
G|--------|--------|--------|--------|--------|--------|--------|--------|--------|
D|--------|--------|--------|--------|--------|--------|--------|--------|--------|
A|--------|--------|--------|--------|--------|--------|--------|--------|--------|
E|--------|--------|--------|--------|--------|--------|--------|--------|--------|


E|--------|--------|--------|--------|--------|--------|--------|--------|--------|
B|--------|--------|--------|--------|--------|--------|--------|--------|--------|
G|--------|--------|--------|--------|--------|--------|--------|--------|--------|
D|--------|--------|--------|--------|--------|--------|--------|--------|--------|
A|--------|--------|--------|--------|--------|--------|--------|--------|--------|
E|--------|--------|--------|--------|--------|--------|--------|--------|--------|


E|--------|--------|--------|--------|--------|--------|--------|--------|--------|
B|--------|--------|--------|--------|--------|--------|--------|--------|--------|
G|--------|--------|--------|--------|--------|--------|--------|--------|--------|
D|--------|--------|--------|--------|--------|--------|--------|--------|--------|
A|--------|--------|--------|--------|--------|--------|--------|--------|--------|
E|--------|--------|--------|--------|--------|--------|--------|--------|--------|


E|--------|--------|--------|--------|--------|--------|--------|--------|--------|
B|--------|--------|--------|--------|--------|--------|--------|--------|--------|
G|--------|--------|--------|--------|--------|--------|--------|--------|--------|
D|--------|--------|--------|--------|--------|--------|--------|--------|--------|
A|--------|--------|--------|--------|--------|--------|--------|--------|--------|
E|--------|--------|--------|--------|--------|--------|--------|--------|--------|


E|--------|--------|--------|--------|--------|--------|--------|--------|--------|
B|--------|--------|--------|--------|--------|--------|--------|--------|--------|
G|--------|--------|--------|--------|--------|--------|--------|--------|--------|
D|--------|--------|--------|--------|--------|--------|--------|--------|--------|
A|--------|--------|--------|--------|--------|--------|--------|--------|--------|
E|--------|--------|--------|--------|--------|--------|--------|--------|--------|


E|--------|--------|--------|--------|--------|--------|--------|--------|--------|
B|--------|--------|--------|--------|--------|--------|--------|--------|--------|
G|--------|--------|--------|--------|--------|--------|--------|--------|--------|
D|--------|--------|--------|--------|--------|--------|--------|--------|--------|
A|--------|--------|--------|--------|--------|--------|--------|--------|--------|
E|--------|--------|--------|--------|--------|--------|--------|--------|--------|


E|--------|--------|--------|--------|--------|--------|--------|--------|--------|
B|--------|--------|--------|--------|--------|--------|--------|--------|--------|
G|--------|--------|--------|--------|--------|--------|--------|--------|--------|
D|--------|--------|--------|--------|--------|--------|--------|--------|--------|
A|--------|--------|--------|--------|--------|--------|--------|--------|--------|
E|--------|--------|--------|--------|--------|--------|--------|--------|--------|


E|--------|--------|--------|--------|--------|--------|--------|--------|--------|
B|--------|--------|--------|--------|--------|--------|--------|--------|--------|
G|--------|--------|--------|--------|--------|--------|--------|--------|--------|
D|--------|--------|--------|--------|--------|--------|--------|--------|--------|
A|--------|--------|--------|--------|--------|--------|--------|--------|--------|
E|--------|--------|--------|--------|--------|--------|--------|--------|--------|


E|--------|---------------------------------|------------------------|--------|--------|
B|--------|-5---5---5---5---5---5---5---5---|-5----------------------|--------|--------|
G|--------|-5---5---5---5---5---5---5---5---|-5----------------------|--------|--------|
D|--------|-5---5---5---5---5---5---5---5---|-5---2----3----4----4---|--------|--------|
A|--------|-3---3---3---3---3---3---3---3---|-3----------------------|--------|--------|
E|--------|---------------------------------|------------------------|--------|--------|


E|--------|--------|--------|--------|--------|--------|--------|--------|--------|
B|--------|--------|--------|--------|--------|--------|--------|--------|--------|
G|--------|--------|--------|--------|--------|--------|--------|--------|--------|
D|--------|--------|--------|--------|--------|--------|--------|--------|--------|
A|--------|--------|--------|--------|--------|--------|--------|--------|--------|
E|--------|--------|--------|--------|--------|--------|--------|--------|--------|


E|--------|--------|--------|--------|--------|--------|--------|--------|--------|
B|--------|--------|--------|--------|--------|--------|--------|--------|--------|
G|--------|--------|--------|--------|--------|--------|--------|--------|--------|
D|--------|--------|--------|--------|--------|--------|--------|--------|--------|
A|--------|--------|--------|--------|--------|--------|--------|--------|--------|
E|--------|--------|--------|--------|--------|--------|--------|--------|--------|


E|--------|--------|--------|--------|--------|--------|--------|--------|--------|
B|--------|--------|--------|--------|--------|--------|--------|--------|--------|
G|--------|--------|--------|--------|--------|--------|--------|--------|--------|
D|--------|--------|--------|--------|--------|--------|--------|--------|--------|
A|--------|--------|--------|--------|--------|--------|--------|--------|--------|
E|--------|--------|--------|--------|--------|--------|--------|--------|--------|


E|--------|--------|--------|--------|--------|--------|--------|--------|--------|
B|--------|--------|--------|--------|--------|--------|--------|--------|--------|
G|--------|--------|--------|--------|--------|--------|--------|--------|--------|
D|--------|--------|--------|--------|--------|--------|--------|--------|--------|
A|--------|--------|--------|--------|--------|--------|--------|--------|--------|
E|--------|--------|--------|--------|--------|--------|--------|--------|--------|


E|--------|--------|--------|--------|--------|--------|--------|--------|--------|
B|--------|--------|--------|--------|--------|--------|--------|--------|--------|
G|--------|--------|--------|--------|--------|--------|--------|--------|--------|
D|--------|--------|--------|--------|--------|--------|--------|--------|--------|
A|--------|--------|--------|--------|--------|--------|--------|--------|--------|
E|--------|--------|--------|--------|--------|--------|--------|--------|--------|


E|--------|--------|--------|--------|--------|--------|--------|--------|--------|
B|--------|--------|--------|--------|--------|--------|--------|--------|--------|
G|--------|--------|--------|--------|--------|--------|--------|--------|--------|
D|--------|--------|--------|--------|--------|--------|--------|--------|--------|
A|--------|--------|--------|--------|--------|--------|--------|--------|--------|
E|--------|--------|--------|--------|--------|--------|--------|--------|--------|


E|--------|--------|--------|--------|--------|--------|--------|--------|--------|
B|--------|--------|--------|--------|--------|--------|--------|--------|--------|
G|--------|--------|--------|--------|--------|--------|--------|--------|--------|
D|--------|--------|--------|--------|--------|--------|--------|--------|--------|
A|--------|--------|--------|--------|--------|--------|--------|--------|--------|
E|--------|--------|--------|--------|--------|--------|--------|--------|--------|


E|--------|--------|--------|--------|--------|--------|--------|--------|--------|
B|--------|--------|--------|--------|--------|--------|--------|--------|--------|
G|--------|--------|--------|--------|--------|--------|--------|--------|--------|
D|--------|--------|--------|--------|--------|--------|--------|--------|--------|
A|--------|--------|--------|--------|--------|--------|--------|--------|--------|
E|--------|--------|--------|--------|--------|--------|--------|--------|--------|


E|--------|--------|--------|--------|--------|--------|--------|--------|--------|
B|--------|--------|--------|--------|--------|--------|--------|--------|--------|
G|--------|--------|--------|--------|--------|--------|--------|--------|--------|
D|--------|--------|--------|--------|--------|--------|--------|--------|--------|
A|--------|--------|--------|--------|--------|--------|--------|--------|--------|
E|--------|--------|--------|--------|--------|--------|--------|--------|--------|


E|--------|--------|--------|--------|--------|--------|--------|--------|--------|
B|--------|--------|--------|--------|--------|--------|--------|--------|--------|
G|--------|--------|--------|--------|--------|--------|--------|--------|--------|
D|--------|--------|--------|--------|--------|--------|--------|--------|--------|
A|--------|--------|--------|--------|--------|--------|--------|--------|--------|
E|--------|--------|--------|--------|--------|--------|--------|--------|--------|


E|--------|--------|
B|--------|--------|
G|--------|--------|
D|--------|--------|
A|--------|--------|
E|--------|--------|





Track 11: Acoustic

E|--------|--------|--------|--------|--------|--------|--------|--------|--------|
B|--------|--------|--------|--------|--------|--------|--------|--------|--------|
G|--------|--------|--------|--------|--------|--------|--------|--------|--------|
D|--------|--------|--------|--------|--------|--------|--------|--------|--------|
A|--------|--------|--------|--------|--------|--------|--------|--------|--------|
E|--------|--------|--------|--------|--------|--------|--------|--------|--------|


E|--------|--------|--------|--------|--------|--------|--------|--------|--------|
B|--------|--------|--------|--------|--------|--------|--------|--------|--------|
G|--------|--------|--------|--------|--------|--------|--------|--------|--------|
D|--------|--------|--------|--------|--------|--------|--------|--------|--------|
A|--------|--------|--------|--------|--------|--------|--------|--------|--------|
E|--------|--------|--------|--------|--------|--------|--------|--------|--------|


E|--------|--------|--------|--------|--------|--------|--------|--------|--------|
B|--------|--------|--------|--------|--------|--------|--------|--------|--------|
G|--------|--------|--------|--------|--------|--------|--------|--------|--------|
D|--------|--------|--------|--------|--------|--------|--------|--------|--------|
A|--------|--------|--------|--------|--------|--------|--------|--------|--------|
E|--------|--------|--------|--------|--------|--------|--------|--------|--------|


E|--------|--------|--------|--------|--------|--------|--------|--------|--------|
B|--------|--------|--------|--------|--------|--------|--------|--------|--------|
G|--------|--------|--------|--------|--------|--------|--------|--------|--------|
D|--------|--------|--------|--------|--------|--------|--------|--------|--------|
A|--------|--------|--------|--------|--------|--------|--------|--------|--------|
E|--------|--------|--------|--------|--------|--------|--------|--------|--------|


E|--------|--------|--------|--------|--------|--------|--------|--------|--------|
B|--------|--------|--------|--------|--------|--------|--------|--------|--------|
G|--------|--------|--------|--------|--------|--------|--------|--------|--------|
D|--------|--------|--------|--------|--------|--------|--------|--------|--------|
A|--------|--------|--------|--------|--------|--------|--------|--------|--------|
E|--------|--------|--------|--------|--------|--------|--------|--------|--------|


E|--------|--------|--------|--------|--------|--------|--------|--------|--------|
B|--------|--------|--------|--------|--------|--------|--------|--------|--------|
G|--------|--------|--------|--------|--------|--------|--------|--------|--------|
D|--------|--------|--------|--------|--------|--------|--------|--------|--------|
A|--------|--------|--------|--------|--------|--------|--------|--------|--------|
E|--------|--------|--------|--------|--------|--------|--------|--------|--------|


E|--------|--------|--------|--------|--------|--------|--------|--------|--------|
B|--------|--------|--------|--------|--------|--------|--------|--------|--------|
G|--------|--------|--------|--------|--------|--------|--------|--------|--------|
D|--------|--------|--------|--------|--------|--------|--------|--------|--------|
A|--------|--------|--------|--------|--------|--------|--------|--------|--------|
E|--------|--------|--------|--------|--------|--------|--------|--------|--------|


E|--------|--------|--------|--------|--------|--------|--------|--------|--------|
B|--------|--------|--------|--------|--------|--------|--------|--------|--------|
G|--------|--------|--------|--------|--------|--------|--------|--------|--------|
D|--------|--------|--------|--------|--------|--------|--------|--------|--------|
A|--------|--------|--------|--------|--------|--------|--------|--------|--------|
E|--------|--------|--------|--------|--------|--------|--------|--------|--------|


E|--------|--------|--------|--------|--------|--------|--------|--------|--------|
B|--------|--------|--------|--------|--------|--------|--------|--------|--------|
G|--------|--------|--------|--------|--------|--------|--------|--------|--------|
D|--------|--------|--------|--------|--------|--------|--------|--------|--------|
A|--------|--------|--------|--------|--------|--------|--------|--------|--------|
E|--------|--------|--------|--------|--------|--------|--------|--------|--------|


E|--------|--------|--------|--------|--------|--------|--------|--------|--------|
B|--------|--------|--------|--------|--------|--------|--------|--------|--------|
G|--------|--------|--------|--------|--------|--------|--------|--------|--------|
D|--------|--------|--------|--------|--------|--------|--------|--------|--------|
A|--------|--------|--------|--------|--------|--------|--------|--------|--------|
E|--------|--------|--------|--------|--------|--------|--------|--------|--------|


E|--------|--------|--------|--------|--------|--------|--------|--------|--------|
B|--------|--------|--------|--------|--------|--------|--------|--------|--------|
G|--------|--------|--------|--------|--------|--------|--------|--------|--------|
D|--------|--------|--------|--------|--------|--------|--------|--------|--------|
A|--------|--------|--------|--------|--------|--------|--------|--------|--------|
E|--------|--------|--------|--------|--------|--------|--------|--------|--------|


E|--------|--------|--------|--------|--------|--------|--------|--------|--------|
B|--------|--------|--------|--------|--------|--------|--------|--------|--------|
G|--------|--------|--------|--------|--------|--------|--------|--------|--------|
D|--------|--------|--------|--------|--------|--------|--------|--------|--------|
A|--------|--------|--------|--------|--------|--------|--------|--------|--------|
E|--------|--------|--------|--------|--------|--------|--------|--------|--------|


E|--------|--------|--------|--------|--------|--------|--------|--------|--------|
B|--------|--------|--------|--------|--------|--------|--------|--------|--------|
G|--------|--------|--------|--------|--------|--------|--------|--------|--------|
D|--------|--------|--------|--------|--------|--------|--------|--------|--------|
A|--------|--------|--------|--------|--------|--------|--------|--------|--------|
E|--------|--------|--------|--------|--------|--------|--------|--------|--------|


E|--------|--------|--------|--------|--------|--------|--------|--------|--------|
B|--------|--------|--------|--------|--------|--------|--------|--------|--------|
G|--------|--------|--------|--------|--------|--------|--------|--------|--------|
D|--------|--------|--------|--------|--------|--------|--------|--------|--------|
A|--------|--------|--------|--------|--------|--------|--------|--------|--------|
E|--------|--------|--------|--------|--------|--------|--------|--------|--------|


E|--------|--------|--------|--------|--------|--------|--------|--------|--------|
B|--------|--------|--------|--------|--------|--------|--------|--------|--------|
G|--------|--------|--------|--------|--------|--------|--------|--------|--------|
D|--------|--------|--------|--------|--------|--------|--------|--------|--------|
A|--------|--------|--------|--------|--------|--------|--------|--------|--------|
E|--------|--------|--------|--------|--------|--------|--------|--------|--------|


E|--------|--------|--------|-3----3----------|-----------------|--------|--------|
B|--------|--------|--------|-3----3----------|-----------------|--------|--------|
G|--------|--------|--------|-4----4----------|-3----3----------|--------|--------|
D|--------|--------|--------|-5----5----------|-3----3----------|--------|--------|
A|--------|--------|--------|-5----5----------|-1----1----------|--------|--------|
E|--------|--------|--------|-3----3----------|-----------------|--------|--------|


E|--------|--------|--------|--------|--------|--------|--------|--------|--------|
B|--------|--------|--------|--------|--------|--------|--------|--------|--------|
G|--------|--------|--------|--------|--------|--------|--------|--------|--------|
D|--------|--------|--------|--------|--------|--------|--------|--------|--------|
A|--------|--------|--------|--------|--------|--------|--------|--------|--------|
E|--------|--------|--------|--------|--------|--------|--------|--------|--------|


E|--------|--------|--------|--------|--------|--------|--------|--------|--------|
B|--------|--------|--------|--------|--------|--------|--------|--------|--------|
G|--------|--------|--------|--------|--------|--------|--------|--------|--------|
D|--------|--------|--------|--------|--------|--------|--------|--------|--------|
A|--------|--------|--------|--------|--------|--------|--------|--------|--------|
E|--------|--------|--------|--------|--------|--------|--------|--------|--------|


E|--------|--------|--------|--------|--------|--------|--------|--------|--------|
B|--------|--------|--------|--------|--------|--------|--------|--------|--------|
G|--------|--------|--------|--------|--------|--------|--------|--------|--------|
D|--------|--------|--------|--------|--------|--------|--------|--------|--------|
A|--------|--------|--------|--------|--------|--------|--------|--------|--------|
E|--------|--------|--------|--------|--------|--------|--------|--------|--------|


E|--------|--------|--------|--------|--------|--------|--------|--------|--------|
B|--------|--------|--------|--------|--------|--------|--------|--------|--------|
G|--------|--------|--------|--------|--------|--------|--------|--------|--------|
D|--------|--------|--------|--------|--------|--------|--------|--------|--------|
A|--------|--------|--------|--------|--------|--------|--------|--------|--------|
E|--------|--------|--------|--------|--------|--------|--------|--------|--------|


E|--------|--------|--------|--------|--------|--------|--------|--------|--------|
B|--------|--------|--------|--------|--------|--------|--------|--------|--------|
G|--------|--------|--------|--------|--------|--------|--------|--------|--------|
D|--------|--------|--------|--------|--------|--------|--------|--------|--------|
A|--------|--------|--------|--------|--------|--------|--------|--------|--------|
E|--------|--------|--------|--------|--------|--------|--------|--------|--------|


E|--------|--------|--------|--------|--------|--------|--------|--------|--------|
B|--------|--------|--------|--------|--------|--------|--------|--------|--------|
G|--------|--------|--------|--------|--------|--------|--------|--------|--------|
D|--------|--------|--------|--------|--------|--------|--------|--------|--------|
A|--------|--------|--------|--------|--------|--------|--------|--------|--------|
E|--------|--------|--------|--------|--------|--------|--------|--------|--------|


E|--------|--------|--------|--------|--------|--------|--------|--------|--------|
B|--------|--------|--------|--------|--------|--------|--------|--------|--------|
G|--------|--------|--------|--------|--------|--------|--------|--------|--------|
D|--------|--------|--------|--------|--------|--------|--------|--------|--------|
A|--------|--------|--------|--------|--------|--------|--------|--------|--------|
E|--------|--------|--------|--------|--------|--------|--------|--------|--------|


E|--------|--------|--------|--------|--------|--------|--------|--------|--------|
B|--------|--------|--------|--------|--------|--------|--------|--------|--------|
G|--------|--------|--------|--------|--------|--------|--------|--------|--------|
D|--------|--------|--------|--------|--------|--------|--------|--------|--------|
A|--------|--------|--------|--------|--------|--------|--------|--------|--------|
E|--------|--------|--------|--------|--------|--------|--------|--------|--------|


E|--------|--------|--------|--------|--------|--------|--------|--------|--------|
B|--------|--------|--------|--------|--------|--------|--------|--------|--------|
G|--------|--------|--------|--------|--------|--------|--------|--------|--------|
D|--------|--------|--------|--------|--------|--------|--------|--------|--------|
A|--------|--------|--------|--------|--------|--------|--------|--------|--------|
E|--------|--------|--------|--------|--------|--------|--------|--------|--------|


E|--------|--------|--------|--------|--------|--------|--------|--------|--------|
B|--------|--------|--------|--------|--------|--------|--------|--------|--------|
G|--------|--------|--------|--------|--------|--------|--------|--------|--------|
D|--------|--------|--------|--------|--------|--------|--------|--------|--------|
A|--------|--------|--------|--------|--------|--------|--------|--------|--------|
E|--------|--------|--------|--------|--------|--------|--------|--------|--------|





Track 12: Bass

G|--------|--------|--------|--------|-------------|-----------------|-------------------------|
D|--------|--------|--------|--------|-5-----4-----|-----------------|-3-----7--5--------7--5--|
A|--------|--------|--------|--------|-------------|-7-----7-----7---|-------------3-----------|
E|--------|--------|--------|--------|-------------|-----------------|-------------------------|


G|---------7---7--5--12-14-16--16-16-14--|---------------------------------|-----------------------------------|
D|---------------------------------------|-5------------5--4------------4--|--------------------------------5--|
A|-5----5--------------------------------|------5-------------------5------|-7------------5--7----7---5--7-----|
E|---------------------------------------|----------3-----------5----------|------7----------------------------|


G|-----------------------------------|-----------------7---------7-----------|---------------------------------|
D|-3----3--3-------------------------|---------7----------7---------7--------|-5------------5--4------------4--|
A|--------------5--3----3---3--8--7--|-5----5-------5---------5--------7--5--|------5-------------------5------|
E|-----------------------------------|---------------------------------------|----------3-----------5----------|


G|-----------------------------------|-----------------------------------|-----------------7---------7-----------|
D|--------------------------------5--|-3----3--3-------------------------|---------7----------7---------7--------|
A|-7------------5--7----7---5--7-----|--------------5--3----3---3--8--7--|-5----5-------5---------5--------7--5--|
E|------7----------------------------|-----------------------------------|---------------------------------------|


G|---------------------------------|-----------------------------------|---------------------------------------|
D|-5------------5--4----7-------4--|--------------------------------5--|-3--3---3--3---3------------5----------|
A|------5-------------------5------|-7------------5--7----7---5--7-----|------------------5--3--3-------3---7--|
E|----------3----------------------|------7----------------------------|---------------------------------------|


G|-----------------7--9--7-----------------|---------------------------------|-----------------------------------|
D|---------7----------------7-----7--------|-5------------5--4----7-------4--|--------------------------------5--|
A|-5----5-------5--------------5-----7--5--|------5-------------------5------|-7------------5--7----7---5--7-----|
E|-----------------------------------------|----------3----------------------|------7----------------------------|


G|---------------------------------------|-----------------7--9--7-----------------|
D|-3--3---3--3---3------------5----------|---------7----------------7-----7--------|
A|------------------5--3--3-------3---7--|-5----5-------5--------------5-----7--5--|
E|---------------------------------------|-----------------------------------------|


G|---------------------------------|-----------------------------------|---------------------------------------|
D|-5------------5--4----7-------4--|--------------------------------5--|-3--3---3--3---3------------5----------|
A|------5-------------------5------|-7------------5--7----7---5--7-----|------------------5--3--3-------3---7--|
E|----------3----------------------|------7----------------------------|---------------------------------------|


G|-----------------7--9--7-----------------|---------------------------------|-----------------------------------|
D|---------7----------------7-----7--------|-5------------5--4----7-------4--|--------------------------------5--|
A|-5----5-------5--------------5-----7--5--|------5-------------------5------|-7------------5--7----7---5--7-----|
E|-----------------------------------------|----------3----------------------|------7----------------------------|


G|---------------------------------------|---------7---7--5--12-14-16--16-16-14--|
D|-3--3---3--3---3------------5----------|---------------------------------------|
A|------------------5--3--3-------3---7--|-5----5--------------------------------|
E|---------------------------------------|---------------------------------------|


G|--------------------------------------------|------------------7-9-14-14-16--16-16-14--|
D|-3------3--3---7--5-------------------------|------7--7--7--7--------------------------|
A|---------------------3--3-----3---3--7-5-3--|-5-------5--5--5--------------------------|
E|--------------------------------------------|------------------------------------------|


G|--------------------------------------------|------------------7-9-14-14-16--16-16-14--|
D|-3------3--3---7--5-------------------------|------7--7--7--7--------------------------|
A|---------------------3--3-----3---3--7-5-3--|-5-------5--5--5--------------------------|
E|--------------------------------------------|------------------------------------------|


G|--------------------------------------------|------------------7-9-14-14-16--16-16-14--|
D|-3------3--3---7--5-------------------------|------7--7--7--7--------------------------|
A|---------------------3--3-----3---3--7-5-3--|-5-------5--5--5--------------------------|
E|--------------------------------------------|------------------------------------------|


G|---------------------------------|-----------------------------------|-----------------------------------|
D|-5------------5--4------------4--|--------------------------------5--|-3----3--3-------------------------|
A|------5-------------------5------|-7------------5--7----7---5--7-----|--------------5--3----3---3--8--7--|
E|----------3-----------5----------|------7----------------------------|-----------------------------------|


G|-----------------7---------7-----------|---------------------------------|-----------------------------------|
D|---------7----------7---------7--------|-5------------5--4------------4--|--------------------------------5--|
A|-5----5-------5---------5--------7--5--|------5-------------------5------|-7------------5--7----7---5--7-----|
E|---------------------------------------|----------3-----------5----------|------7----------------------------|


G|-----------------------------------|-----------------7---------7-----------|---------------------------------|
D|-3----3--3-------------------------|---------7----------7---------7--------|-5------------5--4----7-------4--|
A|--------------5--3----3---3--8--7--|-5----5-------5---------5--------7--5--|------5-------------------5------|
E|-----------------------------------|---------------------------------------|----------3----------------------|


G|-----------------------------------|---------------------------------------|-----------------7--9--7-----------------|
D|--------------------------------5--|-3--3---3--3---3------------5----------|---------7----------------7-----7--------|
A|-7------------5--7----7---5--7-----|------------------5--3--3-------3---7--|-5----5-------5--------------5-----7--5--|
E|------7----------------------------|---------------------------------------|-----------------------------------------|


G|---------------------------------|-----------------------------------|---------------------------------------|
D|-5------------5--4----7-------4--|--------------------------------5--|-3--3---3--3---3------------5----------|
A|------5-------------------5------|-7------------5--7----7---5--7-----|------------------5--3--3-------3---7--|
E|----------3----------------------|------7----------------------------|---------------------------------------|


G|-----------------7--9--7-----------------|---------------------------------|-----------------------------------|
D|---------7----------------7-----7--------|-5------------5--4----7-------4--|--------------------------------5--|
A|-5----5-------5--------------5-----7--5--|------5-------------------5------|-7------------5--7----7---5--7-----|
E|-----------------------------------------|----------3----------------------|------7----------------------------|


G|---------------------------------------|-----------------7--9--7-----------------|
D|-3--3---3--3---3------------5----------|---------7----------------7-----7--------|
A|------------------5--3--3-------3---7--|-5----5-------5--------------5-----7--5--|
E|---------------------------------------|-----------------------------------------|


G|---------------------------------|-----------------------------------|---------------------------------------|
D|-5------------5--4----7-------4--|--------------------------------5--|-3--3---3--3---3------------5----------|
A|------5-------------------5------|-7------------5--7----7---5--7-----|------------------5--3--3-------3---7--|
E|----------3----------------------|------7----------------------------|---------------------------------------|


G|---------7---7--5--12-14-16--16-16-14--|--------------------------------------------|
D|---------------------------------------|-3------3--3---7--5-------------------------|
A|-5----5--------------------------------|---------------------3--3-----3---3--7-5-3--|
E|---------------------------------------|--------------------------------------------|


G|------------------7-9-14-14-16--16-16-14--|--------------------------------------------|
D|------7--7--7--7--------------------------|-3------3--3---7--5-------------------------|
A|-5-------5--5--5--------------------------|---------------------3--3-----3---3--7-5-3--|
E|------------------------------------------|--------------------------------------------|


G|------------------7-9-14-14-16--16-16-14--|--------------------------------------------|
D|------7--7--7--7--------------------------|-3------3--3---7--5-------------------------|
A|-5-------5--5--5--------------------------|---------------------3--3-----3---3--7-5-3--|
E|------------------------------------------|--------------------------------------------|


G|------------------7-9-14-14-16--16-16-14--|--------------------------------------------|
D|------7--7--7--7--------------------------|-3------3--3---7--5-------------------------|
A|-5-------5--5--5--------------------------|---------------------3--3-----3---3--7-5----|
E|------------------------------------------|-----------------------------------------8--|


G|--------------------14-14-16-16-17-19-19----|--------------------------------------------|
D|--------7--7----10120--0--0--0--0--0--0--0--|-3------3--3---7--5-------------------------|
A|-5------5--5--------------------------------|---------------------3--3-----3---3--7-5----|
E|--------------------------------------------|-----------------------------------------8--|


G|--------------------14-14-16-16-17-19-19----|--------------------------------------------|
D|--------7--7----10120--0--0--0--0--0--0--0--|-3------3--3---7--5-------------------------|
A|-5------5--5--------------------------------|---------------------3--3-----3---3--7-5----|
E|--------------------------------------------|-----------------------------------------8--|


G|--------------------14-14-16-16-17-19-19----|--------------------------------------------|
D|--------7--7----10120--0--0--0--0--0--0--0--|-3------3--3---7--5-------------------------|
A|-5------5--5--------------------------------|---------------------3--3-----3---3--7-5----|
E|--------------------------------------------|-----------------------------------------8--|


G|-----------------------------------------------|------------------------------|---------------------------------|
D|-------------------------5--4------------------|-----------------5------------|---------------------------------|
A|-5--5--5--5--5--5--5--5--------5--3--5--9--5---|---------------------5----1---|-----1-------1---1-------1---5---|
E|-----------------------------------------------|-3---3-------3----------------|---------------------5-----------|


G|---------------------------------|---------------------------------|------------------------------|
D|---------------------------------|---------------------------------|-----------------5------------|
A|-3---3-------3---3---3-------3---|-3-------3-------3---------------|---------------------5----1---|
E|---------------------------------|---------------------0---1---2---|-3---3-------3----------------|


G|---------------------------------|-5---5--5--3---3--3--2---2--2----------|---------------------------|
D|---------------------------------|-------------------------------5---5---|-3---2---0-----------------|
A|-----1-------1---1-------1---5---|---------------------------------------|-------------1---3----10---|
E|---------------------5-----------|---------------------------------------|---------------------------|


G|---------------------------------|---------------------------------|---------------------------------|
D|---------------------------------|---------------------------------|---------------------------------|
A|---------------------5---3---1---|-----1-------1---1---0---1---5---|-3---3-------3---3---3-------3---|
E|-3---3---0---3---3---------------|---------------------------------|---------------------------------|


G|---------------------------------|---------------------------------|---------------------------------|
D|---------------------------------|---------------------------------|---------------------------------|
A|-3---3---------------------------|---------------------5---3---1---|-----1-------1---1---0---1---5---|
E|---------0---0---1---1---2---2---|-3---3---0---3---3---------------|---------------------------------|


G|---------------------------------|---------------------------------|---------------------------------|
D|---------------------------------|---------------------------------|---------------------------------|
A|-3---3-------3---3---3-------3---|-3---3---------------------------|---------------------5---3---1---|
E|---------------------------------|---------0---0---1---1---2---2---|-3---3---0---3---3---------------|


G|---------------------------------|---------------------------------|---------------------------------|
D|---------------------------------|---------------------------------|---------------------------------|
A|-----1-------1---1---0---1---5---|-3---3-------3---3---3-------3---|-3---3---------------------------|
E|---------------------------------|---------------------------------|---------0---0---1---1---2---2---|


G|---------------------------------|---------------------------------|---------------------------------|
D|---------------------------------|---------------------------------|---------------------------------|
A|---------------------5---3---1---|-----1-------1---1---0---1---5---|-3---3-------3---3---3-------3---|
E|-3---3---0---3---3---------------|---------------------------------|---------------------------------|


G|---------------------------------|------------------------------|------------------------------|
D|---------------------------------|------------------------------|------------------------------|
A|-3---3---------------------------|--------------------------3---|-1----1----1--1---0---1---5---|
E|---------0---0---1---1---2---2---|-3----3----3--3---3---3-------|------------------------------|


G|------------------------------|---------------------------|------------------------------|
D|------------------------------|-----2----3----2-----------|------------------------------|
A|-3----3----3--3---3-------3---|-3-----------------3---5---|--------------------------3---|
E|------------------------------|---------------------------|-3----3----3--3---3---3-------|


G|------------------------------|------------------------------|---------------------------|
D|------------------------------|------------------------------|-----2----3----2-----------|
A|-1----1----1--1---0---1---5---|-3----3----3--3---3-------3---|-3-----------------3---5---|
E|------------------------------|------------------------------|---------------------------|


G|------------------------------|------------------------------|------------------------------|
D|------------------------------|------------------------------|------------------------------|
A|--------------------------3---|-1----1----1--1---0---1---5---|-3----3----3--3---3-------3---|
E|-3----3----3--3---3---3-------|------------------------------|------------------------------|


G|---------------------------|------------------------------|------------------------------|
D|-----2----3----2-----------|------------------------------|------------------------------|
A|-3-----------------3---5---|--------------------------3---|-1----1----1--1---0---1---5---|
E|---------------------------|-3----3----3--3---3---3-------|------------------------------|


G|------------------------------|---------------------------|---------------------------------|
D|------------------------------|-----2----3----2-----------|---------------------------------|
A|-3----3----3--3---3-------3---|-3-----------------3---5---|---------------------5---3---1---|
E|------------------------------|---------------------------|-3---3---0---3---3---------------|


G|---------------------------------|---------------------------------|---------------------------------|
D|---------------------------------|---------------------------------|---------------------------------|
A|-----1-------1---1---0---1---5---|-3---3-------3---3---3-----------|---------1-------4---3-----------|
E|---------------------------------|-------------------------0---0---|-1---3-------3-----------1---2---|


G|---------------------------------|---------------------------------|---------------------------------|
D|---------------------------------|---------------------------------|---------------------------------|
A|---------------------5---3---1---|-----1-------1---1---0---1---5---|-3---3-------3---3---3-----------|
E|-3---3---0---3---3---------------|---------------------------------|-------------------------0---0---|


G|---------------------------------|---------------------------------|---------------------------------|
D|---------------------------------|---------------------------------|---------------------------------|
A|---------1-------4---3-----------|---------------------5---3---1---|-----1-------1---1---0---1---5---|
E|-1---3-------3-----------1---2---|-3---3---0---3---3---------------|---------------------------------|


G|---------------------------------|---------------------------------|---------------------------------|
D|---------------------------------|---------------------------------|---------------------------------|
A|-3---3-------3---3---3-----------|---------1-------4---3-----------|---------------------5---3---1---|
E|-------------------------0---0---|-1---3-------3-----------1---2---|-3---3---0---3---3---------------|


G|---------------------------------|-5---5--5--3---3--3--2---2--2------2---|-5----------------------|
D|---------------------------------|-------------------------------5-------|-----2----3----4----5---|
A|-----1-------1---1---0---1---5---|---------------------------------------|------------------------|
E|---------------------------------|---------------------------------------|------------------------|


G|---------------------------------|---------------------------------|-5---5--5--3---3--3--2---2--2------2---|
D|---------------------------------|---------------------------------|-------------------------------5-------|
A|---------------------5---3---1---|-----1-------1---1---0---1---5---|---------------------------------------|
E|-3---3---0---3---3---------------|---------------------------------|---------------------------------------|


G|-5----------------------|---------------------------------|---------------------------------|
D|-----2----3----4----5---|---------------------------------|---------------------------------|
A|------------------------|---------------------5---3---1---|-----1-------1---1---0---1---5---|
E|------------------------|-3---3---0---3---3---------------|---------------------------------|


G|-5---5--5--3---3--3--2---2--2------2---|-5----------------------|---------------------------------|
D|-------------------------------5-------|-----2----3----4----5---|---------------------------------|
A|---------------------------------------|------------------------|---------------------5---3---1---|
E|---------------------------------------|------------------------|-3---3---0---3---3---------------|


G|---------------------------------|-5---5--5--3---3--3--2---2--2------2---|------------------------|
D|---------------------------------|-------------------------------5-------|------------------------|
A|-----1-------1---1---0---1---5---|---------------------------------------|-0----------------------|
E|---------------------------------|---------------------------------------|-----0----1----2----3---|


G|-----------------|-----------------|-----------------|------------------------------------|
D|-----------------|-----------------|-----------------|------------------------------------|
A|-5----5----------|-8----8----------|-10---10---------|-10--------10--------10-------------|
E|-3----3----------|-6----6----------|-8----8----------|-8---8--8--8---8--8--8---8--8--8----|


G|-----------------|-----------------|-----------------|------------------------------------|
D|-----------------|-----------------|-----------------|------------------------------------|
A|-5----5----------|-8----8----------|-10---10---------|-10--------10--------10-------------|
E|-3----3----------|-6----6----------|-8----8----------|-8---8--8--8---8--8--8---8--8--8----|


G|-----------------|-----------------|-----------------|------------------------------------|
D|-----------------|-----------------|-----------------|------------------------------------|
A|-5----5----------|-8----8----------|-10---10---------|-10--------10--------10-------------|
E|-3----3----------|-6----6----------|-8----8----------|-8---8--8--8---8--8--8---8--8--8----|


G|-----------------|-----------------|-----------------|------------------------------------|
D|-----------------|-----------------|-----------------|------------------------------------|
A|-5----5----------|-8----8----------|-10---10---------|-10--------10--------10-------------|
E|-3----3----------|-6----6----------|-8----8----------|-8---8--8--8---8--8--8---8--8--8----|


G|---------------------------------|---------------------------------|---------------------------------|
D|---------------------------------|---------------------------------|---------------------------------|
A|---------------------5---3---1---|-----1-------1---1---0---1---5---|-3---3---------------------------|
E|-3---3---0---3---3---------------|---------------------------------|---------0---0---1---1---2---2---|


G|---------------------------------|---------------------------------|---------------------------------|
D|-------------2---3---3-----------|---------------------------------|---------------------------------|
A|-----1---3---------------3---5---|---------------------5---3---1---|-----1-------1---1---0---1---5---|
E|-3-------------------------------|-3---3---0---3---3---------------|---------------------------------|


G|---------------------------------|---------------------------------|---------------------------------|
D|---------------------------------|-------------2---3---3-----------|---------------------------------|
A|-3---3---------------------------|-----1---3---------------3---5---|---------------------5---3---1---|
E|---------0---0---1---1---2---2---|-3-------------------------------|-3---3---0---3---3---------------|


G|---------------------------------|---------------------------------|---------------------------------|
D|---------------------------------|---------------------------------|-------------2---3---3-----------|
A|-----1-------1---1---0---1---5---|-3---3---------------------------|-----1---3---------------3---5---|
E|---------------------------------|---------0---0---1---1---2---2---|-3-------------------------------|


G|---------------------------------|---------------------------------|---------------------------------|
D|---------------------------------|---------------------------------|---------------------------------|
A|---------------------5---3---1---|-----1-------1---1---0---1---5---|-3---3---------------------------|
E|-3---3---0---3---3---------------|---------------------------------|---------0---0---1---1---2---2---|


G|---------------------------------|-----------------------------------------|-----------------------------------------|
D|-------------2---3---3-----------|-----------------------------------------|-----------------------------------------|
A|-----1---3---------------3---5---|-----------------------------------------|-1---1--1--1---1--1--1---1--1--1---1--1--|
E|-3-------------------------------|-3---3--3--3---3--3--3---3--3--3---3--3--|-----------------------------------------|


G|-----------------------------------------|-------------------------------------|
D|-----------------------------------------|-------------------------------------|
A|-3---3--3--3---3--3--3---3--3--3---3--3--|-3---3--3--3---3--3--3---------------|
E|-----------------------------------------|-------------------------0---1---2---|


G|-----------------------------------------|-----------------------------------------|
D|-----------------------------------------|-----------------------------------------|
A|-----------------------------------------|-1---1--1--1---1--1--1---1--1--1---1--1--|
E|-3---3--3--3---3--3--3---3--3--3---3--3--|-----------------------------------------|


G|-----------------------------------------|-------------------------------------|
D|-----------------------------------------|-------------------------------------|
A|-3---3--3--3---3--3--3---3--3--3---3--3--|-3---3--3--3---3--3--3---------------|
E|-----------------------------------------|-------------------------0---1---2---|


G|-----------------------------------------|-----------------------------------------|
D|-----------------------------------------|-----------------------------------------|
A|-----------------------------------------|-1---1--1--1---1--1--1---1--1--1---1--1--|
E|-3---3--3--3---3--3--3---3--3--3---3--3--|-----------------------------------------|


G|-----------------------------------------|-------------------------------------|
D|-----------------------------------------|-------------------------------------|
A|-3---3--3--3---3--3--3---3--3--3---3--3--|-3---3--3--3---3--3--3---------------|
E|-----------------------------------------|-------------------------0---1---2---|


G|-----------------------------------------|-----------------------------------------|
D|-----------------------------------------|-----------------------------------------|
A|-----------------------------------------|-1---1--1--1---1--1--1---1--1--1---1--1--|
E|-3---3--3--3---3--3--3---3--3--3---3--3--|-----------------------------------------|


G|-------------------------------------|---------------------------------|-----------------------------------------|
D|-------------------------------------|---------------------------------|-----------5---5--5------------5---5--5--|
A|-3---3--3--3---3--3--3---------------|---------------------------------|-----------------------------------------|
E|-------------------------0---1---1---|-2---2---2---2---3---3---3---0---|-3---3--3------------3---3--3------------|


G|-----------------------------------------|-----------------------------------------|
D|-----------8---8--8------------8---8--8--|-10--------10--------10--------10--------|
A|-----------------------------------------|-----------------------------------------|
E|-6---6--6------------6---6--6------------|-----8--8------8--8------8--8------8--8--|


G|---------------------------------------|-----------------------------------------|
D|-10--------10--------10--------10------|-----------5---5--5------------5---5--5--|
A|---------------------------------------|-----------------------------------------|
E|-----8--8------8--8------8--8------8---|-3---3--3------------3---3--3------------|


G|-----------------------------------------|-----------------------------------------|
D|-----------8---8--8------------8---8--8--|-10--------10--------12--------12--------|
A|-----------------------------------------|-----------------------------------------|
E|-6---6--6------------6---6--6------------|-----8--8------8--8------10-10-----10-10-|


G|-----------------------------------------|-----------------------------------------|
D|-14--------14--------15--------15--------|-----------------------------------------|
A|-----------------------------------------|-10--10-10-10-10-10--12--12-12-12-12-12--|
E|-----12-12-----12-12-----13-13-----13-13-|-----------------------------------------|


G|-------------------------------------|---------------------------------------|-----------------------------------|
D|---------------------12--12--12--12--|-10--10-10-10-10-10--12--12-12-12--12--|-14--14-14-14--14--15--15--15--15--|
A|-13--13-13-13-13-13------------------|---------------------------------------|-----------------------------------|
E|-------------------------------------|---------------------------------------|-----------------------------------|


G|---------------------------------------------|-10--10-10-10-10-10--14--14--14--14--|
D|-14--14-14-14-14-14-14-15--15-15-15-15-15-15-|-------------------------------------|
A|---------------------------------------------|-------------------------------------|
E|---------------------------------------------|-------------------------------------|


G|-12--14--15-14-12--14--15--17---|-15--14--12----------------|---------------------------------|
D|--------------------------------|-------------15--14--------|---------------------------------|
A|--------------------------------|---------------------------|---------------------5---3---1---|
E|--------------------------------|----------------------10---|-3---3---0---3---3---------------|


G|---------------------------------|---------------------------------|---------------------------|
D|-----------------0---------------|---------2---3---3---3---2-------|---------2-----------------|
A|-----1-------1-------0---1---5---|-3---3-----------------------3---|-3---5-------5---3---1-----|
E|---------------------------------|---------------------------------|---------------------------|


G|---------------------------------|---------------------------------|---------------------------------|
D|---------------------------------|-----------------0---------------|---------2---3---3---3---2-------|
A|---------------------5---3---1---|-----1-------1-------0---1---5---|-3---3-----------------------3---|
E|-3---3---0---3---3---------------|---------------------------------|---------------------------------|


G|---------------------------|---------------------------------|---------------------------------|
D|---------2-----------------|---------------------------------|-----------------0---------------|
A|-3---5-------5---3---1-----|---------------------5---3---1---|-----1-------1-------0---1---5---|
E|---------------------------|-3---3---0---3---3---------------|---------------------------------|


G|---------------------------------|---------------------------|---------------------------------|
D|---------2---3---3---3---2-------|---------2-----------------|---------------------------------|
A|-3---3-----------------------3---|-3---5-------5---3---1-----|---------------------5---3---1---|
E|---------------------------------|---------------------------|-3---3---0---3---3---------------|


G|---------------------------------|---------------------------------|---------------------------|
D|-----------------0---------------|---------2---3---3---3---2-------|---------2-----------------|
A|-----1-------1-------0---1---5---|-3---3-----------------------3---|-3---5-------5---3---1-----|
E|---------------------------------|---------------------------------|---------------------------|


G|------------------------------|------------------------------|---------------------------|
D|------------------------------|------------------------------|-----------10--10--8---7---|
A|--------------------------3---|-1----1----1--1---0---1---5---|-3----3--------------------|
E|-3----3----3--3---3---3-------|------------------------------|---------------------------|


G|------------------------------|------------------------------|------------------------------|
D|-8---7-------7----------------|------------------------------|------------------------------|
A|---------10------10-----------|--------------------------3---|-1----1----1--1---0---1---5---|
E|---------------------6----3---|-3----3----3--3---3---3-------|------------------------------|


G|---------------------------|------------------------------|
D|-----------10--10--8---7---|-8---7-------7----------------|
A|-3----3--------------------|---------10------10-----------|
E|---------------------------|---------------------6----3---|