Menu:

 

Search:

 

lynyrd skynyrd - all i can do is write about it:

 



Title: All I Can Do Is Write About It
Artist: 
Album: Gimme Back My Bullets
Author: Lynyrd Skynyrd


Track 1: Acoustic

E|-3--------------2----------2-----|--------|-3----3--3--3-----10-----------10-------|
B|-3----3---------3-------3--3-----|-1------|-3----3--3--3-----7---7-----7--7-----7--|
G|-0----0---0--0--2----2--2--2--2--|-0------|-0----0--0--0--0--7---7--7--7--7--7--7--|
D|-0----0---0--0--0----0-----0--0--|-2------|-0-------------0--0------0--0-----0-----|
A|-2----2---2--2-------------------|-3------|-2--------------------------------------|
E|-3----3---3--3-------------------|--------|-3--------------------------------------|


E|-0----------0--------0---------------------|-3------------3-----10-10-----------10----10-|
B|-0---0------0-----0--1---1--------5--5-----|-3------3-----3--------7---7--------7-----7--|
G|-0---0---0--0--0--0--0---0-----0--0--0--0--|-0---0--0--0--0--0--0--7---7--7--7--7--7-----|
D|-2---2---2--2--2--2--2---2--2--2--0--0--0--|-0---0-----0--0-----0--0------0--0-----0-----|
A|-2-------2-----------3------3--------------|-2---2---------------------------------------|
E|-0-----------------------------------------|-3---3---------------------------------------|


E|-10-----|-3----3--3--------2------------2------|-0---------0--3---3--3------------0----|
B|-8------|-3----3--3--------3---3--------3------|-0---------0--0---0--1---1--------1----|
G|-9------|-0----0--0--0-----2---2--2-----2---2--|-0---0-----0--0---0--0---0-----0--0----|
D|-10-----|-0----0--0--0--0--0------0--0------0--|-2---2--2--2--2---2--2---2--2--2--0----|
A|--------|-2-------------2----------------------|-2------2--2---------3------3----------|
E|--------|-3------------------------------------|-0-------------------------------------|


E|-3---3--3-----3------2------------2------|-0---------0---------0---0---------3---|
B|-3---3--3-----3------3---3--------3------|-1---1--1--1---1--1--1---1---1--1--1---|
G|-0---0--0--0--0---0--2---2--2-----2---2--|-0---0--0--0---0--0--0---0---0--0--0---|
D|-0---------0------0--0------0--0------0--|-2---2--2--2---2--2--2---2---2--2--2---|
A|-2---------------------------------------|-3---3--3--3---3--3--3---3---3--3--3---|
E|-3---------------------------------------|---------------------------------------|


E|-3----3--3--------2------------2------|-0---------0--3---3--3------------0----|-3---3--3-----3------2------------2------|
B|-3----3--3--------3---3--------3------|-0---------0--0---0--1---1--------1----|-3---3--3-----3------3---3--------3------|
G|-0----0--0--0-----2---2--2-----2---2--|-0---0-----0--0---0--0---0-----0--0----|-0---0--0--0--0---0--2---2--2-----2---2--|
D|-0----0--0--0--0--0------0--0------0--|-2---2--2--2--2---2--2---2--2--2--0----|-0---------0------0--0------0--0------0--|
A|-2-------------2----------------------|-2------2--2---------3------3----------|-2---------------------------------------|
E|-3------------------------------------|-0-------------------------------------|-3---------------------------------------|


E|-0---------0---------0---0------2--2---|-3---------3--3--------2---------2-----2-----|
B|-1---1--1--1---1--1--1---1---1--1--1---|-3---3-----3--3--3-----3---3-----3--3--3-----|
G|-0---0--0--0---0--0--0---0---0--0--0---|-0---0--0--0--0--0--0--2---2--2--2--2--2--2--|
D|-2---2--2--2---2--2--2---2---2---------|-0---0--0-----------0--0------0--0--------0--|
A|-3---3--3--3---3--3--3---3---3---------|-2-------------------------------------------|
E|---------------------------------------|-3-------------------------------------------|


E|-0---------0---------0---0---------0---|-3----3--3--------2------------2------|-0---------0--3---3--3------------0----|
B|-1---1--1--1---1--1--1---1--1---1--1---|-3----3--3--------3---3--------3------|-0---------0--0---0--1---1--------1----|
G|-0---0--0--0---0--0--0---0--0---0--0---|-0----0--0--0-----2---2--2-----2---2--|-0---0-----0--0---0--0---0-----0--0----|
D|-2---2--2--2---2--2--2---2--2---2--2---|-0----0--0--0--0--0------0--0------0--|-2---2--2--2--2---2--2---2--2--2--0----|
A|-3---3--3--3---3--3--3---3--3---3--3---|-2-------------2----------------------|-2------2--2---------3------3----------|
E|---------------------------------------|-3------------------------------------|-0-------------------------------------|


E|-3---3--3-----3------2------------2------|-0---------0---------0---0---------3---|
B|-3---3--3-----3------3---3--------3------|-1---1--1--1---1--1--1---1---1--1--1---|
G|-0---0--0--0--0---0--2---2--2-----2---2--|-0---0--0--0---0--0--0---0---0--0--0---|
D|-0---------0------0--0------0--0------0--|-2---2--2--2---2--2--2---2---2--2--2---|
A|-2---------------------------------------|-3---3--3--3---3--3--3---3---3--3--3---|
E|-3---------------------------------------|---------------------------------------|


E|-3----3--3--------2------------2------|-0---------0--3---3--3------------0----|-3---3--3-----3------2------------2------|
B|-3----3--3--------3---3--------3------|-0---------0--0---0--1---1--------1----|-3---3--3-----3------3---3--------3------|
G|-0----0--0--0-----2---2--2-----2---2--|-0---0-----0--0---0--0---0-----0--0----|-0---0--0--0--0---0--2---2--2-----2---2--|
D|-0----0--0--0--0--0------0--0------0--|-2---2--2--2--2---2--2---2--2--2--0----|-0---------0------0--0------0--0------0--|
A|-2-------------2----------------------|-2------2--2---------3------3----------|-2---------------------------------------|
E|-3------------------------------------|-0-------------------------------------|-3---------------------------------------|


E|-0---------0---------0---0------2--2---|-3---------3--3--------2---------2-----2-----|
B|-1---1--1--1---1--1--1---1---1--1--1---|-3---3-----3--3--3-----3---3-----3--3--3-----|
G|-0---0--0--0---0--0--0---0---0--0--0---|-0---0--0--0--0--0--0--2---2--2--2--2--2--2--|
D|-2---2--2--2---2--2--2---2---2---------|-0---0--0-----------0--0------0--0--------0--|
A|-3---3--3--3---3--3--3---3---3---------|-2-------------------------------------------|
E|---------------------------------------|-3-------------------------------------------|


E|-0---------0---------0---0---------0---|-3---------3--3--------2---------2-----2-----|
B|-1---1--1--1---1--1--1---1--1---1--1---|-3---3-----3--3--3-----3---3-----3--3--3-----|
G|-0---0--0--0---0--0--0---0--0---0--0---|-0---0--0--0--0--0--0--2---2--2--2--2--2--2--|
D|-2---2--2--2---2--2--2---2--2---2--2---|-0---0--0-----------0--0------0--0--------0--|
A|-3---3--3--3---3--3--3---3--3---3--3---|-2-------------------------------------------|
E|---------------------------------------|-3-------------------------------------------|


E|-0---------0---------0---0---------0---|-3----3--3--------2------------2------|-0----0--3---3--3------------0----|
B|-1---1--1--1---1--1--1---1--1---1--1---|-3----3--3--------3---3--------3------|-0----0--0---0--1---1--------1----|
G|-0---0--0--0---0--0--0---0--0---0--0---|-0----0--0--0-----2---2--2-----2---2--|-0----0--0---0--0---0-----0--0----|
D|-2---2--2--2---2--2--2---2--2---2--2---|-0----0--0--0--0--0------0--0------0--|-2----2--2---2--2---2--2--2--0----|
A|-3---3--3--3---3--3--3---3--3---3--3---|-2-------------2----------------------|-2----2---------3------3----------|
E|---------------------------------------|-3------------------------------------|-0--------------------------------|


E|-3---3--3-----3------2------------2------|-0---------0---------0---0---------0---|
B|-3---3--3-----3------3---3--------3------|-1---1--1--1---1--1--1---1--1---1--1---|
G|-0---0--0--0--0---0--2---2--2-----2---2--|-0---0--0--0---0--0--0---0--0---0--0---|
D|-0---------0------0--0------0--0------0--|-2---2--2--2---2--2--2---2--2---2--2---|
A|-2---------------------------------------|-3---3--3--3---3--3--3---3--3---3--3---|
E|-3---------------------------------------|---------------------------------------|


E|-3---3--3-----3------2------------2------|-0---------0---------0------------2----|
B|-3---3--3-----3------3---3--------3------|-1---1--1--1---1--1--1---1--1--1--1----|
G|-0---0--0--0--0---0--2---2--2-----2---2--|-0---0--0--0---0--0--0---0--0--0--0----|
D|-0---------0------0--0------0--0------0--|-2---2--2--2---2--2--2---2--2--2-------|
A|-2---------------------------------------|-3---3--3--3---3--3--3---3--3--3-------|
E|-3---------------------------------------|---------------------------------------|


E|-3---3--3-----3------2------------2------|-0---------0---------0------------2----|
B|-3---3--3-----3------3---3--------3------|-1---1--1--1---1--1--1---1--1--1--1----|
G|-0---0--0--0--0---0--2---2--2-----2---2--|-0---0--0--0---0--0--0---0--0--0--0----|
D|-0---------0------0--0------0--0------0--|-2---2--2--2---2--2--2---2--2--2-------|
A|-2---------------------------------------|-3---3--3--3---3--3--3---3--3--3-------|
E|-3---------------------------------------|---------------------------------------|


E|-3------3-----3------2------------2------|-0---------0---------0---0---------0---|
B|-3---3--3--3--3------3---3--3-----3------|-1---1--1--1---1--1--1---1---1--1--1---|
G|-0---0-----0--0---0--2---2--2--2--2---2--|-0---0--0--0---0--0--0---0---0--0--0---|
D|-0---------0------0--0------0--0------0--|-2---2--2--2---2--2--2---2---2--2--2---|
A|-2---------------------------------------|-3---3--3--3---3--3--3---3---3--3--3---|
E|-3---------------------------------------|---------------------------------------|


E|-3------3-----3------2------------2------|-0---------0---------0---0---------0---|
B|-3---3--3--3--3------3---3--3-----3------|-1---1--1--1---1--1--1---1---1--1--1---|
G|-0---0-----0--0---0--2---2--2--2--2---2--|-0---0--0--0---0--0--0---0---0--0--0---|
D|-0---------0------0--0------0--0------0--|-2---2--2--2---2--2--2---2---2--2--2---|
A|-2---------------------------------------|-3---3--3--3---3--3--3---3---3--3--3---|
E|-3---------------------------------------|---------------------------------------|


E|-3------3-----3------2------------2------|-0---------0--3---3--3------------0----|
B|-3---3--3--3--3------3---3--3-----3------|-0---------0--0---0--1---1--------1----|
G|-0---0-----0--0---0--2---2--2--2--2---2--|-0---0-----0--0---0--0---0-----0--0----|
D|-0---------0------0--0------0--0------0--|-2---2--2--2--2---2--2---2--2--2--0----|
A|-2---------------------------------------|-2------2--2---------3------3----------|
E|-3---------------------------------------|-0-------------------------------------|


E|-3---3--3-----3------2------------2------|-0---------0---------0---------------0---|
B|-3---3--3-----3------3---3--------3------|-1---1--1--1---1--1--1---1--1--1--1--1---|
G|-0---0--0--0--0---0--2---2--2-----2---2--|-0---0--0--0---0--0--0---0--0--0--0--0---|
D|-0---------0------0--0------0--0------0--|-2---2--2--2---2--2--2---2--2--2--2--2---|
A|-2---------------------------------------|-3---3--3--3---3--3--3---3--3--3--3--3---|
E|-3---------------------------------------|-----------------------------------------|


E|-3------3-----3------2------------2------|-0---------0---------0---0---------0---|
B|-3---3--3--3--3------3---3--3-----3------|-1---1--1--1---1--1--1---1---1--1--1---|
G|-0---0-----0--0---0--2---2--2--2--2---2--|-0---0--0--0---0--0--0---0---0--0--0---|
D|-0---------0------0--0------0--0------0--|-2---2--2--2---2--2--2---2---2--2--2---|
A|-2---------------------------------------|-3---3--3--3---3--3--3---3---3--3--3---|
E|-3---------------------------------------|---------------------------------------|


E|-3------3-----3------2------------2------|-0---------0---------0---0---------0---|
B|-3---3--3--3--3------3---3--3-----3------|-1---1--1--1---1--1--1---1---1--1--1---|
G|-0---0-----0--0---0--2---2--2--2--2---2--|-0---0--0--0---0--0--0---0---0--0--0---|
D|-0---------0------0--0------0--0------0--|-2---2--2--2---2--2--2---2---2--2--2---|
A|-2---------------------------------------|-3---3--3--3---3--3--3---3---3--3--3---|
E|-3---------------------------------------|---------------------------------------|


E|-3------3-----3------2------------2------|-0---------0--3---3--3------------0----|
B|-3---3--3--3--3------3---3--3-----3------|-0---------0--0---0--1---1--------1----|
G|-0---0-----0--0---0--2---2--2--2--2---2--|-0---0-----0--0---0--0---0-----0--0----|
D|-0---------0------0--0------0--0------0--|-2---2--2--2--2---2--2---2--2--2--0----|
A|-2---------------------------------------|-2------2--2---------3------3----------|
E|-3---------------------------------------|-0-------------------------------------|


E|-3---3--3-----3------2------------2------|-0---------0---------0---------------0---|
B|-3---3--3-----3------3---3--------3------|-1---1--1--1---1--1--1---1--1--1--1--1---|
G|-0---0--0--0--0---0--2---2--2-----2---2--|-0---0--0--0---0--0--0---0--0--0--0--0---|
D|-0---------0------0--0------0--0------0--|-2---2--2--2---2--2--2---2--2--2--2--2---|
A|-2---------------------------------------|-3---3--3--3---3--3--3---3--3--3--3--3---|
E|-3---------------------------------------|-----------------------------------------|


E|-0---0--0--0---0--0--0---0--0--0---0--0--|-0---0--0--0---0--0--0---0--0--0--0--0--0--|
B|-5---5--5--5---5--5--5---5--5--5---5--5--|-5---5--5--5---5--5--5---5--5--5--5--5--5--|
G|-2---2--2--2---2--2--4---4--4--4---4--4--|-2---2--2--2---2--2--2---2--2--2--2--2--2--|
D|-2---2--2--2---2--2--2---2--2--2---2--2--|-0---0--0--0---0--0--0---0--0--0--0--0--0--|
A|-0---0--0--0---0--0----------------------|-------------------------------------------|
E|-----------------------------------------|-------------------------------------------|


E|-0---0--0--0---0--0--0---0--0--0---0--0--|-0---0--0--0---0--0--0---0--0--0--0--0--0--|
B|-5---5--5--5---5--5--5---5--5--5---5--5--|-5---5--5--5---5--5--5---5--5--5--5--5--5--|
G|-2---2--2--2---2--2--4---4--4--4---4--4--|-2---2--2--2---2--2--2---2--2--2--2--2--2--|
D|-2---2--2--2---2--2--2---2--2--2---2--2--|-0---0--0--0---0--0--0---0--0--0--0--0--0--|
A|-0---0--0--0---0--0----------------------|-------------------------------------------|
E|-----------------------------------------|-------------------------------------------|


E|-0---0--0--0---0--0--0---0--0--0---0--0--|-0---0--0--0---0--0--0---0--0--0--0--0--0--|
B|-5---5--5--5---5--5--5---5--5--5---5--5--|-5---5--5--5---5--5--5---5--5--5--5--5--5--|
G|-2---2--2--2---2--2--4---4--4--4---4--4--|-2---2--2--2---2--2--2---2--2--2--2--2--2--|
D|-2---2--2--2---2--2--2---2--2--2---2--2--|-0---0--0--0---0--0--0---0--0--0--0--0--0--|
A|-0---0--0--0---0--0----------------------|-------------------------------------------|
E|-----------------------------------------|-------------------------------------------|


E|-0---0--0--0---0--0--0---0--0--0---0--0--|-5------|-3------3-----3------2------------2------|
B|-5---5--5--5---5--5--5---5--5--5---5--5--|-3------|-3---3--3--3--3------3---3--3-----3------|
G|-2---2--2--2---2--2--4---4--4--4---4--4--|-2------|-0---0-----0--0---0--2---2--2--2--2---2--|
D|-2---2--2--2---2--2--2---2--2--2---2--2--|-0------|-0---------0------0--0------0--0------0--|
A|-0---0--0--0---0--0----------------------|--------|-2---------------------------------------|
E|-----------------------------------------|--------|-3---------------------------------------|


E|-0---------0---------0---0---------0---|-3------3-----3------2------------2------|
B|-1---1--1--1---1--1--1---1---1--1--1---|-3---3--3--3--3------3---3--3-----3------|
G|-0---0--0--0---0--0--0---0---0--0--0---|-0---0-----0--0---0--2---2--2--2--2---2--|
D|-2---2--2--2---2--2--2---2---2--2--2---|-0---------0------0--0------0--0------0--|
A|-3---3--3--3---3--3--3---3---3--3--3---|-2---------------------------------------|
E|---------------------------------------|-3---------------------------------------|


E|-0---------0---------0---0---------0---|-3------3-----3------2------------2------|
B|-1---1--1--1---1--1--1---1---1--1--1---|-3---3--3--3--3------3---3--3-----3------|
G|-0---0--0--0---0--0--0---0---0--0--0---|-0---0-----0--0---0--2---2--2--2--2---2--|
D|-2---2--2--2---2--2--2---2---2--2--2---|-0---------0------0--0------0--0------0--|
A|-3---3--3--3---3--3--3---3---3--3--3---|-2---------------------------------------|
E|---------------------------------------|-3---------------------------------------|


E|-0---------0--3---3--3------------0----|-3---3--3-----3------2------------2------|
B|-0---------0--0---0--1---1--------1----|-3---3--3-----3------3---3--------3------|
G|-0---0-----0--0---0--0---0-----0--0----|-0---0--0--0--0---0--2---2--2-----2---2--|
D|-2---2--2--2--2---2--2---2--2--2--0----|-0---------0------0--0------0--0------0--|
A|-2------2--2---------3------3----------|-2---------------------------------------|
E|-0-------------------------------------|-3---------------------------------------|


E|-0---------0---------0---------------0---|-3------3-----3------2------------2------|
B|-1---1--1--1---1--1--1---1--1--1--1--1---|-3---3--3--3--3------3---3--3-----3------|
G|-0---0--0--0---0--0--0---0--0--0--0--0---|-0---0-----0--0---0--2---2--2--2--2---2--|
D|-2---2--2--2---2--2--2---2--2--2--2--2---|-0---------0------0--0------0--0------0--|
A|-3---3--3--3---3--3--3---3--3--3--3--3---|-2---------------------------------------|
E|-----------------------------------------|-3---------------------------------------|


E|-0---------0---------0---0---------0---|-3------3-----3------2------------2------|
B|-1---1--1--1---1--1--1---1---1--1--1---|-3---3--3--3--3------3---3--3-----3------|
G|-0---0--0--0---0--0--0---0---0--0--0---|-0---0-----0--0---0--2---2--2--2--2---2--|
D|-2---2--2--2---2--2--2---2---2--2--2---|-0---------0------0--0------0--0------0--|
A|-3---3--3--3---3--3--3---3---3--3--3---|-2---------------------------------------|
E|---------------------------------------|-3---------------------------------------|


E|-0---------0---------0---0---------0---|-3------3-----3------2------------2------|
B|-1---1--1--1---1--1--1---1---1--1--1---|-3---3--3--3--3------3---3--3-----3------|
G|-0---0--0--0---0--0--0---0---0--0--0---|-0---0-----0--0---0--2---2--2--2--2---2--|
D|-2---2--2--2---2--2--2---2---2--2--2---|-0---------0------0--0------0--0------0--|
A|-3---3--3--3---3--3--3---3---3--3--3---|-2---------------------------------------|
E|---------------------------------------|-3---------------------------------------|


E|-0---------0--3---3--3------------0----|-3---3--3-----3------2------------2------|
B|-0---------0--0---0--1---1--------1----|-3---3--3-----3------3---3--------3------|
G|-0---0-----0--0---0--0---0-----0--0----|-0---0--0--0--0---0--2---2--2-----2---2--|
D|-2---2--2--2--2---2--2---2--2--2--0----|-0---------0------0--0------0--0------0--|
A|-2------2--2---------3------3----------|-2---------------------------------------|
E|-0-------------------------------------|-3---------------------------------------|


E|-0---------0---------0---------------0---|-3----3--3--------2------------2------|
B|-1---1--1--1---1--1--1---1--1--1--1--1---|-3----3--3--------3---3--------3------|
G|-0---0--0--0---0--0--0---0--0--0--0--0---|-0----0--0--0-----2---2--2-----2---2--|
D|-2---2--2--2---2--2--2---2--2--2--2--2---|-0----0--0--0--0--0------0--0------0--|
A|-3---3--3--3---3--3--3---3--3--3--3--3---|-2-------------2----------------------|
E|-----------------------------------------|-3------------------------------------|


E|-0----0--3---3--3------------0----|-3-----2-----|-0------|-0------|
B|-0----0--0---0--1---1--------1----|-3-----3-----|-0------|-0------|
G|-0----0--0---0--0---0-----0--0----|-0-----2-----|-0------|-0------|
D|-2----2--2---2--2---2--2--2--0----|-0-----0-----|-2------|-2------|
A|-2----2---------3------3----------|-2-----------|-2------|-2------|
E|-0--------------------------------|-3-----------|-0------|-0------|





Track 2: Acoustic II

E|-3--------------2-------2--------|-0------|-3----3--3--3--3--2------------2--------|
B|-3----3---------3-------3--3-----|-1------|-3----3--3--3--3--3---3--------3-----3--|
G|-0----0---0--0--2----2--2--2--2--|-0------|-0----0--0--0--0--2---2--2-----2-----2--|
D|-0----0---0--0--0----0-----0--0--|-2------|-0-------------0--0------0--0-----0-----|
A|-2----2---2--2-------------------|-3------|-2--------------------------------------|
E|-3----3---3--3-------------------|--------|-3--------------------------------------|


E|-0----------0--------0------------0----|-3------------3--------2------------2--------|
B|-0---0------0-----0--1---1--------1----|-3------3-----3--3-----3---3--------3-----3--|
G|-0---0---0--0--0--0--0---0-----0--0----|-0---0--0--0--0--0--0--2---2--2-----2-----2--|
D|-2---2---2--2--2--2--2---2--2--2--0----|-0---0-----0--0--0--0--0------0--0-----0-----|
A|-2-------2-----------3------3----------|-2---2---------------------------------------|
E|-0-------------------------------------|-3---3---------------------------------------|


E|--------|-3----------------2------------2----|-0---------0--0---0--0-----------------|
B|-1------|-3----------3-----3---3--------3----|-0---------0--0---0--1---1-------------|
G|-0------|-0----0--0--0-----2---2--2-----2----|-0---0-----0--0---0--0---0-----0--0----|
D|-2------|-0----0--0--0--0--0------0--0-------|-2---2--2--2--2---2--2---2--2--2--0----|
A|-3------|-2-------------2--------------------|-2------2--2---------3------3----------|
E|--------|-3----------------------------------|-0-------------------------------------|


E|-3------3-----3------2------------2----|-0---------------------------|-3----------------2------------2----|
B|-3---3--3--3--3------3---3--3-----3----|-1---1--1--------------------|-3----------3-----3---3--------3----|
G|-0---0-----0--0---0--2---2--2--2--2----|-0---0--0--------------------|-0----0--0--0-----2---2--2-----2----|
D|-0---------0------0--0------0--0-------|-2---2--2--0----2---0----2---|-0----0--0--0--0--0------0--0-------|
A|-2-------------------------------------|-3---3--3--------------------|-2-------------2--------------------|
E|-3-------------------------------------|-----------------------------|-3----------------------------------|


E|-0---------0--0---0--0-----------------|-3------3-----3------2------------2----|
B|-0---------0--0---0--1---1-------------|-3---3--3--3--3------3---3--3-----3----|
G|-0---0-----0--0---0--0---0-----0--0----|-0---0-----0--0---0--2---2--2--2--2----|
D|-2---2--2--2--2---2--2---2--2--2--0----|-0---------0------0--0------0--0-------|
A|-2------2--2---------3------3----------|-2-------------------------------------|
E|-0-------------------------------------|-3-------------------------------------|


E|-0---------------------------|-3---------3--3--------2---------2-----2-----|-0---------------------------|
B|-1---1--1--------------------|-3---------3--3--3-----3---3--3--3--3--3-----|-1---1--1--------------------|
G|-0---0--0--------------------|-0---0--0--0--0--0--0--2---2--2--2--2--2--2--|-0---0--0--------------------|
D|-2---2--2--0----2---0----2---|-0---0--0-----------0------------0--------0--|-2---2--2--0----2---0----2---|
A|-3---3--3--------------------|---------------------------------------------|-3---3--3--------------------|
E|-----------------------------|---------------------------------------------|-----------------------------|


E|-3----------------2------------2----|-0---------0--0---0--0-----------------|-3------3-----3------2------------2----|
B|-3----------3-----3---3--------3----|-0---------0--0---0--1---1-------------|-3---3--3--3--3------3---3--3-----3----|
G|-0----0--0--0-----2---2--2-----2----|-0---0-----0--0---0--0---0-----0--0----|-0---0-----0--0---0--2---2--2--2--2----|
D|-0----0--0--0--0--0------0--0-------|-2---2--2--2--2---2--2---2--2--2--0----|-0---------0------0--0------0--0-------|
A|-2-------------2--------------------|-2------2--2---------3------3----------|-2-------------------------------------|
E|-3----------------------------------|-0-------------------------------------|-3-------------------------------------|


E|-0---------------------------|-3----------------2------------2----|-0---------0--0---0--0-----------------|
B|-1---1--1--------------------|-3----------3-----3---3--------3----|-0---------0--0---0--1---1-------------|
G|-0---0--0--------------------|-0----0--0--0-----2---2--2-----2----|-0---0-----0--0---0--0---0-----0--0----|
D|-2---2--2--0----2---0----2---|-0----0--0--0--0--0------0--0-------|-2---2--2--2--2---2--2---2--2--2--0----|
A|-3---3--3--------------------|-2-------------2--------------------|-2------2--2---------3------3----------|
E|-----------------------------|-3----------------------------------|-0-------------------------------------|


E|-3------3-----3------2------------2----|-0---------------------------|-3---------3--3--------2---------2-----2-----|
B|-3---3--3--3--3------3---3--3-----3----|-1---1--1--------------------|-3---------3--3--3-----3---3--3--3--3--3-----|
G|-0---0-----0--0---0--2---2--2--2--2----|-0---0--0--------------------|-0---0--0--0--0--0--0--2---2--2--2--2--2--2--|
D|-0---------0------0--0------0--0-------|-2---2--2--0----2---0----2---|-0---0--0-----------0------------0--------0--|
A|-2-------------------------------------|-3---3--3--------------------|---------------------------------------------|
E|-3-------------------------------------|-----------------------------|---------------------------------------------|


E|-0---------------------------|-3---------3--3--------2---------2-----2-----|-0---------------------------|
B|-1---1--1--------------------|-3---------3--3--3-----3---3--3--3--3--3-----|-1---1--1--------------------|
G|-0---0--0--------------------|-0---0--0--0--0--0--0--2---2--2--2--2--2--2--|-0---0--0--------------------|
D|-2---2--2--0----2---0----2---|-0---0--0-----------0------------0--------0--|-2---2--2--0----2---0----2---|
A|-3---3--3--------------------|---------------------------------------------|-3---3--3--------------------|
E|-----------------------------|---------------------------------------------|-----------------------------|


E|-3----------------2------------2----|-0---------0--0---0--0-----------------|-3------3-----3------2------------2----|
B|-3----------3-----3---3--------3----|-0---------0--0---0--1---1-------------|-3---3--3--3--3------3---3--3-----3----|
G|-0----0--0--0-----2---2--2-----2----|-0---0-----0--0---0--0---0-----0--0----|-0---0-----0--0---0--2---2--2--2--2----|
D|-0----0--0--0--0--0------0--0-------|-2---2--2--2--2---2--2---2--2--2--0----|-0---------0------0--0------0--0-------|
A|-2-------------2--------------------|-2------2--2---------3------3----------|-2-------------------------------------|
E|-3----------------------------------|-0-------------------------------------|-3-------------------------------------|


E|-0---------------------------|-3------3-----3------2------------2------|-0---------0---------0---------------0---|
B|-1---1--1--------------------|-3---3--3--3--3------3---3--3-----3------|-1---1--1--1---1--1--1---1--1--1--1--1---|
G|-0---0--0--------------------|-0---0-----0--0---0--2---2--2--2--2---2--|-0---0--0--0---0--0--0---0--0--0--0--0---|
D|-2---2--2--0----2---0----2---|-0---------0------0--0------0--0------0--|-2---2--2--2---2--2--2---2--2--2--2--2---|
A|-3---3--3--------------------|-2---------------------------------------|-3---3--3--3---3--3--3---3--3--3--3--3---|
E|-----------------------------|-3---------------------------------------|-----------------------------------------|


E|-3------3-----3------2------------2------|-0---------0---------0---------------0---|
B|-3---3--3--3--3------3---3--3-----3------|-1---1--1--1---1--1--1---1--1--1--1--1---|
G|-0---0-----0--0---0--2---2--2--2--2---2--|-0---0--0--0---0--0--0---0--0--0--0--0---|
D|-0---------0------0--0------0--0------0--|-2---2--2--2---2--2--2---2--2--2--2--2---|
A|-2---------------------------------------|-3---3--3--3---3--3--3---3--3--3--3--3---|
E|-3---------------------------------------|-----------------------------------------|


E|-3------3-----3------2------------2----|-0---------------------------|-3----------------2------------2----|
B|-3---3--3--3--3------3---3--3-----3----|-1---1--1--------------------|-3----------3-----3---3--------3----|
G|-0---0-----0--0---0--2---2--2--2--2----|-0---0--0--------------------|-0----0--0--0-----2---2--2-----2----|
D|-0---------0------0--0------0--0-------|-2---2--2--0----2---0----2---|-0----0--0--0--0--0------0--0-------|
A|-2-------------------------------------|-3---3--3--------------------|-2-------------2--------------------|
E|-3-------------------------------------|-----------------------------|-3----------------------------------|


E|-0---------------------------|-3----------------2------------2----|-0---------0--0---0--0-----------------|
B|-1---1--1--------------------|-3----------3-----3---3--------3----|-0---------0--0---0--1---1-------------|
G|-0---0--0--------------------|-0----0--0--0-----2---2--2-----2----|-0---0-----0--0---0--0---0-----0--0----|
D|-2---2--2--0----2---0----2---|-0----0--0--0--0--0------0--0-------|-2---2--2--2--2---2--2---2--2--2--0----|
A|-3---3--3--------------------|-2-------------2--------------------|-2------2--2---------3------3----------|
E|-----------------------------|-3----------------------------------|-0-------------------------------------|


E|-3------3-----3------2------------2----|-0---------------------------|-3------3-----3------2------------2----|
B|-3---3--3--3--3------3---3--3-----3----|-1---1--1--------------------|-3---3--3--3--3------3---3--3-----3----|
G|-0---0-----0--0---0--2---2--2--2--2----|-0---0--0--------------------|-0---0-----0--0---0--2---2--2--2--2----|
D|-0---------0------0--0------0--0-------|-2---2--2--0----2---0----2---|-0---------0------0--0------0--0-------|
A|-2-------------------------------------|-3---3--3--------------------|-2-------------------------------------|
E|-3-------------------------------------|-----------------------------|-3-------------------------------------|


E|-0---------------------------|-3----------------2------------2----|-0---------------------------|
B|-1---1--1--------------------|-3----------3-----3---3--------3----|-1---1--1--------------------|
G|-0---0--0--------------------|-0----0--0--0-----2---2--2-----2----|-0---0--0--------------------|
D|-2---2--2--0----2---0----2---|-0----0--0--0--0--0------0--0-------|-2---2--2--0----2---0----2---|
A|-3---3--3--------------------|-2-------------2--------------------|-3---3--3--------------------|
E|-----------------------------|-3----------------------------------|-----------------------------|


E|-3----------------2------------2----|-0---------0--0---0--0-----------------|-3------3-----3------2------------2----|
B|-3----------3-----3---3--------3----|-0---------0--0---0--1---1-------------|-3---3--3--3--3------3---3--3-----3----|
G|-0----0--0--0-----2---2--2-----2----|-0---0-----0--0---0--0---0-----0--0----|-0---0-----0--0---0--2---2--2--2--2----|
D|-0----0--0--0--0--0------0--0-------|-2---2--2--2--2---2--2---2--2--2--0----|-0---------0------0--0------0--0-------|
A|-2-------------2--------------------|-2------2--2---------3------3----------|-2-------------------------------------|
E|-3----------------------------------|-0-------------------------------------|-3-------------------------------------|


E|-0---------------------------|--------|--------|--------|--------|--------|--------|
B|-1---1--1--------------------|--------|--------|--------|--------|--------|--------|
G|-0---0--0--------------------|--------|--------|--------|--------|--------|--------|
D|-2---2--2--0----2---0----2---|--------|--------|--------|--------|--------|--------|
A|-3---3--3--------------------|--------|--------|--------|--------|--------|--------|
E|-----------------------------|--------|--------|--------|--------|--------|--------|


E|--------|--------|--------|--------|--------|--------|--------|--------|--------|
B|--------|--------|--------|--------|--------|--------|--------|--------|--------|
G|--------|--------|--------|--------|--------|--------|--------|--------|--------|
D|--------|--------|--------|--------|--------|--------|--------|--------|--------|
A|--------|--------|--------|--------|--------|--------|--------|--------|--------|
E|--------|--------|--------|--------|--------|--------|--------|--------|--------|


E|--------|--------|--------|--------|--------|--------|--------|--------|--------|
B|--------|--------|--------|--------|--------|--------|--------|--------|--------|
G|--------|--------|--------|--------|--------|--------|--------|--------|--------|
D|--------|--------|--------|--------|--------|--------|--------|--------|--------|
A|--------|--------|--------|--------|--------|--------|--------|--------|--------|
E|--------|--------|--------|--------|--------|--------|--------|--------|--------|


E|--------|--------|--------|--------|--------|
B|--------|--------|--------|--------|--------|
G|--------|--------|--------|--------|--------|
D|--------|--------|--------|--------|--------|
A|--------|--------|--------|--------|--------|
E|--------|--------|--------|--------|--------|





Track 3: Acoustic

E|--------|--------|--------|--------|--------|--------|--------|--------|--------|
B|--------|--------|--------|--------|--------|--------|--------|--------|--------|
G|--------|--------|--------|--------|--------|--------|--------|--------|--------|
D|--------|--------|--------|--------|--------|--------|--------|--------|--------|
A|--------|--------|--------|--------|--------|--------|--------|--------|--------|
E|--------|--------|--------|--------|--------|--------|--------|--------|--------|


E|--------|--------|--------|--------|--------|--------|--------|--------|--------|
B|--------|--------|--------|--------|--------|--------|--------|--------|--------|
G|--------|--------|--------|--------|--------|--------|--------|--------|--------|
D|--------|--------|--------|--------|--------|--------|--------|--------|--------|
A|--------|--------|--------|--------|--------|--------|--------|--------|--------|
E|--------|--------|--------|--------|--------|--------|--------|--------|--------|


E|--------|--------|--------|--------|--------|--------|--------|--------|--------|
B|--------|--------|--------|--------|--------|--------|--------|--------|--------|
G|--------|--------|--------|--------|--------|--------|--------|--------|--------|
D|--------|--------|--------|--------|--------|--------|--------|--------|--------|
A|--------|--------|--------|--------|--------|--------|--------|--------|--------|
E|--------|--------|--------|--------|--------|--------|--------|--------|--------|


E|--------|--------|--------|--------|--------|--------|--------|--------|--------|
B|--------|--------|--------|--------|--------|--------|--------|--------|--------|
G|--------|--------|--------|--------|--------|--------|--------|--------|--------|
D|--------|--------|--------|--------|--------|--------|--------|--------|--------|
A|--------|--------|--------|--------|--------|--------|--------|--------|--------|
E|--------|--------|--------|--------|--------|--------|--------|--------|--------|


E|--------|--------|--------|--------|--------|--------|--------|--------|--------|
B|--------|--------|--------|--------|--------|--------|--------|--------|--------|
G|--------|--------|--------|--------|--------|--------|--------|--------|--------|
D|--------|--------|--------|--------|--------|--------|--------|--------|--------|
A|--------|--------|--------|--------|--------|--------|--------|--------|--------|
E|--------|--------|--------|--------|--------|--------|--------|--------|--------|


E|--------|--------|--------|--------|--------|--------|--------|--------|--------|
B|--------|--------|--------|--------|--------|--------|--------|--------|--------|
G|--------|--------|--------|--------|--------|--------|--------|--------|--------|
D|--------|--------|--------|--------|--------|--------|--------|--------|--------|
A|--------|--------|--------|--------|--------|--------|--------|--------|--------|
E|--------|--------|--------|--------|--------|--------|--------|--------|--------|


E|--------|--------|--------|--------|--------|--------|-3------3-----3------2------------2----|
B|--------|--------|--------|--------|--------|--------|-3---3--3--3--3------3---3--3-----3----|
G|--------|--------|--------|--------|--------|--------|-0---0-----0--0---0--2---2--2--2--2----|
D|--------|--------|--------|--------|--------|--------|-0---------0------0--0------0--0-------|
A|--------|--------|--------|--------|--------|--------|-2-------------------------------------|
E|--------|--------|--------|--------|--------|--------|-3-------------------------------------|


E|-0---------------------------|-3----------------2------------2----|-0---------------------------|
B|-1---1--1--------------------|-3----------3-----3---3--------3----|-1---1--1--------------------|
G|-0---0--0--------------------|-0----0--0--0-----2---2--2-----2----|-0---0--0--------------------|
D|-2---2--2--0----2---0----2---|-0----0--0--0--0--0------0--0-------|-2---2--2--0----2---0----2---|
A|-3---3--3--------------------|-2-------------2--------------------|-3---3--3--------------------|
E|-----------------------------|-3----------------------------------|-----------------------------|


E|-3----------------2------------2----|-0---------0--0---0--0-----------------|-3------3-----3------2------------2----|
B|-3----------3-----3---3--------3----|-0---------0--0---0--1---1-------------|-3---3--3--3--3------3---3--3-----3----|
G|-0----0--0--0-----2---2--2-----2----|-0---0-----0--0---0--0---0-----0--0----|-0---0-----0--0---0--2---2--2--2--2----|
D|-0----0--0--0--0--0------0--0-------|-2---2--2--2--2---2--2---2--2--2--0----|-0---------0------0--0------0--0-------|
A|-2-------------2--------------------|-2------2--2---------3------3----------|-2-------------------------------------|
E|-3----------------------------------|-0-------------------------------------|-3-------------------------------------|


E|-0---------------------------|-3------3-----3------2------------2----|-0---------------------------|
B|-1---1--1--------------------|-3---3--3--3--3------3---3--3-----3----|-1---1--1--------------------|
G|-0---0--0--------------------|-0---0-----0--0---0--2---2--2--2--2----|-0---0--0--------------------|
D|-2---2--2--0----2---0----2---|-0---------0------0--0------0--0-------|-2---2--2--0----2---0----2---|
A|-3---3--3--------------------|-2-------------------------------------|-3---3--3--------------------|
E|-----------------------------|-3-------------------------------------|-----------------------------|


E|-3----------------2------------2----|-0---------------------------|-3----------------2------------2----|
B|-3----------3-----3---3--------3----|-1---1--1--------------------|-3----------3-----3---3--------3----|
G|-0----0--0--0-----2---2--2-----2----|-0---0--0--------------------|-0----0--0--0-----2---2--2-----2----|
D|-0----0--0--0--0--0------0--0-------|-2---2--2--0----2---0----2---|-0----0--0--0--0--0------0--0-------|
A|-2-------------2--------------------|-3---3--3--------------------|-2-------------2--------------------|
E|-3----------------------------------|-----------------------------|-3----------------------------------|


E|-0---------0--0---0--0-----------------|-3------3-----3------2------------2----|
B|-0---------0--0---0--1---1-------------|-3---3--3--3--3------3---3--3-----3----|
G|-0---0-----0--0---0--0---0-----0--0----|-0---0-----0--0---0--2---2--2--2--2----|
D|-2---2--2--2--2---2--2---2--2--2--0----|-0---------0------0--0------0--0-------|
A|-2------2--2---------3------3----------|-2-------------------------------------|
E|-0-------------------------------------|-3-------------------------------------|


E|-0---------------------------|--------|--------|--------|--------|--------|
B|-1---1--1--------------------|--------|--------|--------|--------|--------|
G|-0---0--0--------------------|--------|--------|--------|--------|--------|
D|-2---2--2--0----2---0----2---|--------|--------|--------|--------|--------|
A|-3---3--3--------------------|--------|--------|--------|--------|--------|
E|-----------------------------|--------|--------|--------|--------|--------|





Track 4: Bass

G|--------|--------|--------|--------|--------|--------|--------|--------|--------|
D|--------|--------|--------|--------|--------|--------|--------|--------|--------|
A|--------|--------|--------|--------|--------|--------|--------|--------|--------|
E|--------|--------|--------|--------|--------|--------|--------|--------|--------|


G|--------|--------|--------|--------|--------|---------------------|-------------|
D|--------|--------|--------|--------|--------|---------------------|-------------|
A|--------|--------|--------|--------|--------|---------------------|-------------|
E|--------|--------|--------|--------|--------|-3----3----10---10---|-8-----8-----|


G|---------------------|---------------------|---------------------|-----------------|
D|---------------------|---------------------|---------------------|-----------------|
A|---------------------|----------------12---|-10---12--------12---|-------7----9----|
E|-15----17--10----7---|-12----10--8---------|-----------10--------|-8---------------|


G|---------------------|---------------------------|--------------------------------|
D|---------------------|----------12--10---9-------|--------------------------------|
A|-10----12--------12--|-----------------------12--|-10---9--10-9--7----------------|
E|-----------10--------|-12---12-------------------|-------------------10---10--12--|


G|-------------|-----------------------------|------------------------|-----------------------------|
D|-------------|-----------------------------|------------------------|-----------------------------|
A|-------------|------2-------5----5--3------|-3----------------------|------2-------5----5--3------|
E|-8------0----|-3--------3--------------3---|------5----3----0---2---|-3--------3--------------3---|


G|---------------------|---------------------------|------------------------|---------------------------|
D|-----------2----4----|---------------------------|-2----------------------|---------------------------|
A|-3----5--------------|------2-------5----5---2---|------5----3------------|------2-------5--------2---|
E|---------------------|-3--------3----------------|----------------0---2---|-3--------3--------5-------|


G|----------------------------|----------------------------------|-5----------------------|
D|----------------------------|----------------------------------|------7---7---5---------|
A|-3--------------------------|------2-----------5---5-------5---|-------------------7----|
E|------5----3----0---1---2---|-3--------3---3-----------3-------|------------------------|


G|---------------------------|------------------------|-----------------------------|
D|-------------------7-------|-----------2----4-------|-------------------5--7------|
A|------2-------5--------5---|-3----5-------------5---|------2-------5--------------|
E|-3--------3----------------|------------------------|-3--------3--------------3---|


G|------------------------|-----------------------------|--------------------------|
D|------------------------|-----------------------------|-----------2----4---------|
A|-3----------------------|------2-------5----5--3------|-3----5-------------5-----|
E|------5----3----0---2---|-3--------3--------------3---|-----------------------3--|


G|---------------------------|---------------------------|------------------------|
D|---------------------------|-2-------------------------|------2-----------------|
A|------2-------5----5---2---|------5---0---3----2-------|-----------5----0---2---|
E|-3--------3----------------|-----------------------2---|-3----------------------|


G|------------------------|---------------------------|----------------------------|
D|------------------------|---------------------------|----------------------------|
A|-3----------------------|------2-------5--------2---|-3--------------------------|
E|------5----3----0---2---|-3--------3--------5-------|------5----3----0---1---2---|


G|------------------------|---------------------|------------------------|---------------------------|
D|------2-----------------|-----------2----4----|-5----------------------|-2-------------------------|
A|-----------5----0---2---|-3----5--------------|------7----5----5---2---|------5-------3----2-------|
E|-3----------------------|---------------------|------------------------|----------5------------5---|


G|------------------------|--------------------------|-2----------------------|----------------1-------|
D|------2-----------------|-----------2----4--4--5---|------4----2------------|------2----4--------2---|
A|-----------5----0---2---|-3----5-------------------|----------------2---4---|-5----------------------|
E|-3----------------------|--------------------------|------------------------|------------------------|


G|-2----4---6-------------|----------------2----------|-----------------------------|
D|--------------2---------|-------2---4--------4-4-2--|-----------------------------|
A|-------------------2----|-5-------------------------|-0----4---4--7-------2---4---|
E|------------------------|---------------------------|----------------0------------|


G|---------------------------------|------------------------|-----------------------|
D|---------------------------------|------4---4---2---------|-----------------------|
A|-5---5---2---2-------------------|-------------------2----|-5-----5---------------|
E|-----------------5---5---2---4---|-5----------------------|-----------7---5---0---|


G|---------------------------|----------------------------|------------------------|
D|---------------------------|----------------------------|------2-----------------|
A|------2-------5--------2---|-3--------------------------|-----------5----0---2---|
E|-3--------3--------5-------|------5----3----0---1---2---|-3----------------------|


G|------------------------|---------------------------|--------------------------------|
D|------0----2------------|---------------------------|-2------------------------------|
A|-3----------------------|------2-------5----5---2---|------5-------3----2--3--2--0---|
E|----------------0---2---|-3--------3----------------|----------5---------------------|


G|------------------------|------------------------|-----------------------------|
D|------2-----------------|------0----2----4-------|-----------------------------|
A|-----------5----0---2---|-3-----------------5----|------2-------5----5--3------|
E|-3----------------------|------------------------|-3--------3--------------3---|


G|----------------------------|------------------------|--------------------------|
D|----------------------------|------2-----------------|------0----2----4---------|
A|-3--------------------------|-----------5----0---2---|-3-----------------4------|
E|------5----3----0--2--2--3--|-3----------------------|----------------------2---|


G|---------------------------|---------------------------|---------------------------|
D|---------------------------|-2---2---------------------|---------------------------|
A|------2-------5----5---2---|---------5----3----2---0---|------2-------5--------2---|
E|-3--------3----------------|---------------------------|-3--------3--------5-------|


G|--------------------------|------2---4----------------|---------------------------|
D|------7----5----2--2--0---|-------------------7-------|-2----0--------------------|
A|-3------------------------|--------------5------------|--------------3----2---0---|
E|--------------------------|-3---------------------5---|----------3----------------|


G|-----------------|--------|--------|
D|-----------------|--------|--------|
A|-------5---------|--------|--------|
E|-3----------5----|-0------|-0------|





Track 5: Piano

E|--------|--------|--------|--------|--------|--------|--------|--------|--------|
B|--------|--------|--------|--------|--------|--------|--------|--------|--------|
G|--------|--------|--------|--------|--------|--------|--------|--------|--------|
D|--------|--------|--------|--------|--------|--------|--------|--------|--------|
A|--------|--------|--------|--------|--------|--------|--------|--------|--------|
E|--------|--------|--------|--------|--------|--------|--------|--------|--------|


E|--------|--------|--------|--------|--------|--------|--------|--------|--------|
B|--------|--------|--------|--------|--------|--------|--------|--------|--------|
G|--------|--------|--------|--------|--------|--------|--------|--------|--------|
D|--------|--------|--------|--------|--------|--------|--------|--------|--------|
A|--------|--------|--------|--------|--------|--------|--------|--------|--------|
E|--------|--------|--------|--------|--------|--------|--------|--------|--------|


E|--------|--------|--------|--------|--------|--------|--------|--------|--------|
B|--------|--------|--------|--------|--------|--------|--------|--------|--------|
G|--------|--------|--------|--------|--------|--------|--------|--------|--------|
D|--------|--------|--------|--------|--------|--------|--------|--------|--------|
A|--------|--------|--------|--------|--------|--------|--------|--------|--------|
E|--------|--------|--------|--------|--------|--------|--------|--------|--------|


E|--------|--------|--------|--------|------27242220---15-----------------------|---------------------------12--13--|
B|--------|--------|--------|--------|-------------------171513-----------------|----------10--12--15---15--13------|
G|--------|--------|--------|--------|------24211917-----------------12--12-----|-12---12----------14---14----------|
D|--------|--------|--------|--------|-------------------------------14--12--12-|-12---------------12---------------|
A|--------|--------|--------|--------|----------------------------15---------15-|-10--------------------------------|
E|--------|--------|--------|--------|------------------------------------------|-----------------------------------|


E|-----------15--12--10------|------19--17------17---14--12------|-20-----15----------|
B|-13----13--15------10--13--|-12-----------20--17-------12--15--|-17---------15--13--|
G|-12----12--------------12--|-12----------------------------14--|-17-----------------|
D|---------------------------|-----------------------------------|--------------------|
A|---------------------------|-----------------------------------|--------------------|
E|---------------------------|-----------------------------------|--------------------|


E|--------------------------------|-------15---20---|-19---19--17--15--17----14--|
B|-12---------------12--------15--|-13----13---17---|-15---15----------15--------|
G|-12---12--12--14--12--14--------|-12----12---17---|-16-------------------------|
D|--------------12----------------|-----------------|----------------------------|
A|--------------------------------|-----------------|----------------------------|
E|--------------------------------|-----------------|----------------------------|


E|-20----20--12--12--10------|-----------------------------------|-----------------------------------|
B|-17----17----------10--13--|-15-----------12---------------15--|--------------17-----------15--17--|
G|-----------------------12--|------12--14------14-------14--14--|-16-------16------17---17----------|
D|---------------------------|-----------------------16----------|-14---17----------17---------------|
A|---------------------------|-----------------------------------|-----------------------------------|
E|---------------------------|-----------------------------------|-----------------------------------|


E|--------------------------------|--------15---|-15---15------14---14--12------|-15---201715-----15-------12--------12--|
B|-15---15-15-----15------15------|-13-----15---|-15-----------15-----------15--|-13---------17-----17-------13---15-----|
G|-------------12------12-----12--|-------------|---------12---14---------------|-12------------------17-------12--------|
D|--------------------------------|-------------|-------------------------------|----------------------------------------|
A|--------------------------------|-------------|-------------------------------|----------------------------------------|
E|--------------------------------|-------------|-------------------------------|----------------------------------------|


E|------------------------------|-----------12--12-10-----|-15------------------------12--14--|
B|-15---15------15------15------|-13----13------------13--|-15-----------12-------15----------|
G|---------12--------12----12---|-------------------------|-12---12--14--12--14-------9---11--|
D|------------------------------|-------------------------|------12--12------12---12----------|
A|------------------------------|-------------------------|-----------------------------------|
E|------------------------------|-------------------------|-----------------------------------|


E|-15---15--17--19--17--15----|-15---------------------|--------|-------------------------17-----------------19-21-|
B|-12-------------------------|-15--------15-----------|-13-----|-------------------------19-2119---19-21-22-------|
G|-12-----------16------------|------12---14---11-11---|-12-----|----18----------18-19-21--------21----------------|
D|------17--19------19--17----|------------------------|-10-----|-21----21-19-21-----------------------------------|
A|----------------------------|------------------------|--------|--------------------------------------------------|
E|----------------------------|------------------------|--------|--------------------------------------------------|


E|-22--29-22-24-26-22--------------------------|-----------10-9---------------14-16-17-16----|
B|-----22-------19----22-17-19-----------------|--------10-------12-10-12--17-------------17-|
G|-19-----19-21----19----16----19--------------|-----9-----------------13-----11-13-14-13----|
D|--------------------19----------19-19-16-16--|-11------------------------14-------------14-|
A|-----------------------------------19----17--|-12------------------------------------------|
E|---------------------------------------------|---------------------------------------------|


E|-14--15-14-14-12-12-10-15-14-14-12-12-10-10-12-|-----17-19-21--19--17--19--16-17-19--17--16--|
B|-----------------------------------------7-----|-14------------------------------------------|
G|-11--12-11-11-9--9--7--12-11-11-9--9--7--7-----|-----14-16-18--16--14--16--13-14-16--14--13--|
D|-----------------------------------------------|-11------------------------------------------|
A|-----------------------------------------------|---------------------------------------------|
E|-----------------------------------------------|---------------------------------------------|


E|-17--14----------17-17-------------------|----------------------------------------------|
B|---------17--15--17-19-------------------|---------14-15--14------12-----10-12--10------|
G|-14--------------------19-19-------------|-------14-----------14--13--13-11-13--11--13--|
D|--------------------------19-17-16-------|-14--14---------------------14------------14--|
A|-----------------------------------19-17-|-16-------------------------------------------|
E|-----------------------------------------|----------------------------------------------|


E|----------1417-------2629----|-----------------------------|------------15--15----------|
B|--------15---------27--22----|------15------15-------------|-13---13----13------15--13--|
G|-11---14---------26--23------|-12---14--14--14---14--------|-12---12--------------------|
D|-12----------------24--------|-12-----------16---16-14-12--|----------------------------|
A|-----------------24----------|-----------------------------|----------------------------|
E|-----------------------------|-----------------------------|----------------------------|


E|-10----------------------------|------------15--12-10-----|---------------------------|
B|-12--------------12------------|------------13--------13--|------12------15-------15--|
G|-----12--12--14------14--------|-12---12------------------|-12-------12-------16------|
D|---------------------------16--|-14---14------------------|---------------------------|
A|-------------------------------|--------------------------|---------------------------|
E|-------------------------------|--------------------------|---------------------------|


E|-12-----------------------|------------------------------|--------------12------15--------|
B|------12---13---13--12-10-|------12--10------------------|------15--13------13-----15-13--|
G|--------------------------|-12-----------12--14----14----|-12-----------------------------|
D|--------------------------|---------------------------16-|-14-----------------------------|
A|--------------------------|------------------------------|--------------------------------|
E|--------------------------|------------------------------|--------------------------------|


E|--------------------------------------|------15-----|------------------------|------15---15---20---|
B|--------------12----------------------|------13-----|--------------------17--|------13---13---17---|
G|-12---12--14--12--14---14-14-14-12-11-|-12----------|-12----14--14---14------|-17---12---12---17---|
D|----------12--------------------14-12-|-14----------|------------------------|---------------------|
A|--------------------------------------|-------------|------------------------|---------------------|
E|--------------------------------------|-------------|------------------------|---------------------|


E|-19-----------15--17-----------14--|-15---------------15----|-15---15--17--15--17---17--15--14--|
B|-15---15--13-----------15--17------|------------------------|--------------12-------------------|
G|-16---16--14--16--14-----------11--|-12---12--14--12--12----|-12---12--14--12--14---14--12--11--|
D|------17------17-------12--14------|------------------------|-----------------------------------|
A|-----------------------------------|------------------------|-----------------------------------|
E|-----------------------------------|------------------------|-----------------------------------|


E|-15-----15--------|----15---15-----------------------|------15----------15----|-15----------|
B|-----------15-13--|-----------------12---------------|-17-------15------------|-12----------|
G|-12---------------|-12------12--14------14---14--16--|--------------17--------|-12----------|
D|------------------|----------------------------------|------------------------|-------12----|
A|------------------|----------------------------------|------------------------|-------12----|
E|------------------|----------------------------------|------------------------|-------------|


E|------------------12--15--19---|-19-----|
B|--------------12----------17---|-17-----|
G|----------12-------------------|--------|
D|-14---14-----------------------|--------|
A|-------------------------------|--------|
E|-------------------------------|--------|