Menu:

 

Search:

 

lovehatehero - a last farewell:

 



Title: A Last Farewell
Artist: 
Album: Just Breathe
Author: LoveHateHero


Track 1: Dist. Gtr. I

D|--------|--------|-------------------------------------------------|-------------------------------------------------|
A|--------|--------|-------------------------------------------------|-------------------------------------------------|
F|--------|--------|-------------------------------------------------|-5--5--5--5--5--5--5--5--9--9--9--9--7--7--7--7--|
C|-2------|-2------|-2--2--2--2--2--2--2--2--2--2--2--2--2--2--2--2--|-5--5--5--5--5--5--5--5--9--9--9--9--7--7--7--7--|
G|-2------|-2------|-2--2--2--2--2--2--2--2--2--2--2--2--2--2--2--2--|-3--3--3--3--3--3--3--3--7--7--7--7--5--5--5--5--|
C|-2------|-2------|-2--2--2--2--2--2--2--2--2--2--2--2--2--2--2--2--|-------------------------------------------------|


D|-------------------------------------------------|-------------------------------------------------|
A|-------------------------------------------------|-------------------------------------------------|
F|-------------------------------------------------|-------------------------14-14-14-14-14-14-14-14-|
C|-5--5--5--5--5--5--5--5--5--5--5--5--5--5--5--5--|-0--0--0--0--0--0--0--0--14-14-14-14-14-14-14-14-|
G|-5--5--5--5--5--5--5--5--5--5--5--5--5--5--5--5--|-0--0--0--0--0--0--0--0--12-12-12-12-12-12-12-12-|
C|-5--5--5--5--5--5--5--5--5--5--5--5--5--5--5--5--|-0--0--0--0--0--0--0--0--------------------------|


D|-------------------------------------------------|-------------------------------------------------|
A|-------------------------------------------------|-------------------------------------------------|
F|-------------------------------------------------|-5--5--5--5--5--5--5--5--9--9--9--9--7--7--7--7--|
C|-2--2--2--2--2--2--2--2--2--2--2--2--2--2--2--2--|-5--5--5--5--5--5--5--5--9--9--9--9--7--7--7--7--|
G|-2--2--2--2--2--2--2--2--2--2--2--2--2--2--2--2--|-3--3--3--3--3--3--3--3--7--7--7--7--5--5--5--5--|
C|-2--2--2--2--2--2--2--2--2--2--2--2--2--2--2--2--|-------------------------------------------------|


D|-------------------------------------------------|-------------------------------------------------|
A|-------------------------------------------------|-------------------------------------------------|
F|-------------------------------------------------|-------------------------14-14-14-14-14-14-14-14-|
C|-5--5--5--5--5--5--5--5--5--5--5--5--5--5--5--5--|-0--0--0--0--0--0--0--0--14-14-14-14-14-14-14-14-|
G|-5--5--5--5--5--5--5--5--5--5--5--5--5--5--5--5--|-0--0--0--0--0--0--0--0--12-12-12-12-12-12-12-12-|
C|-5--5--5--5--5--5--5--5--5--5--5--5--5--5--5--5--|-0--0--0--0--0--0--0--0--------------------------|


D|-----------------------------------------------|-----------------------------------------------|
A|-----------------------------------------------|-----------------------------------------------|
F|-----------------------------------------------|-----------------------------------------------|
C|-2---------------------------------------------|-------10----9--------7-----9--------7-----9---|
G|-2---2--2--2--2--2--2--2--2--2--2--2--2--2--2--|-7--7-----7-----7--7-----7-----7--7-----7------|
C|-2---2--2--2--2--2--2--2--2--2--2--2--2--2--2--|-----------------------------------------------|


D|-----------------------------------------------|-----------------------------------------------|
A|-----------------------------------------------|-----------------------------------------------|
F|-----------------------------------------------|-----------------------------------------------|
C|-5---------------------------------------------|-0--0--10-0--9--0--0--7--0--9--0--0--7--0--9---|
G|-5---5--5--5--5--5--5--5--5--5--5--5--5--5--5--|-----------------------------------------------|
C|-5---5--5--5--5--5--5--5--5--5--5--5--5--5--5--|-----------------------------------------------|


D|-----------------------------------------------|-----------------------------------------------|
A|-----------------------------------------------|-----------------------------------------------|
F|-----------------------------------------------|-----------------------------------------------|
C|-2---------------------------------------------|-------10----9--------7-----9--------7-----9---|
G|-2---2--2--2--2--2--2--2--2--2--2--2--2--2--2--|-7--7-----7-----7--7-----7-----7--7-----7------|
C|-2---2--2--2--2--2--2--2--2--2--2--2--2--2--2--|-----------------------------------------------|


D|-----------------------------------------------|-----------------------------------------------|
A|-----------------------------------------------|-----------------------------------------------|
F|-----------------------------------------------|-----------------------------------------------|
C|-5---------------------------------------------|-0--0--10-0--9--0--0--7--0--9--0--0--7--0--9---|
G|-5---5--5--5--5--5--5--5--5--5--5--5--5--5--5--|-----------------------------------------------|
C|-5---5--5--5--5--5--5--5--5--5--5--5--5--5--5--|-----------------------------------------------|


D|--------|--------|--------|-------------|------------------|------------------|------------------|
A|--------|--------|--------|-------------|------------------|------------------|------------------|
F|--------|--------|--------|-------------|------------------|------------------|------------------|
C|-2------|-12-----|-7------|-5-----0-----|-2-----2-----2----|-12----12----12---|-7-----7-----7----|
G|-2------|-10-----|-7------|-5-----0-----|-2-----2-----2----|-10----10----10---|-7-----7-----7----|
C|-2------|-10-----|-7------|-5-----0-----|-2-----2-----2----|-10----10----10---|-7-----7-----7----|


D|---------------------|-----------------------------------------|-----------------------------------------|
A|---------------------|-----------------------------------------|-----------------------------------------|
F|---------------------|-----------------------------------------|-----------------------------------------|
C|-5----5----0----0----|-----12-12-12--12-12-----7--7--7---7--7--|-----2--2--2---2--2------2--2--2---2--2--|
G|-5----5----0----0----|-10--10-10-10--10-10-7---7--7--7---7--7--|-2---2--2--2---2--2--2---2--2--2---2--2--|
C|-5----5----0----0----|-10--10-10-10--10-10-7---7--7--7---7--7--|-2---2--2--2---2--2--2---2--2--2---2--2--|


D|-----------------------------------------|-----------------------------------------|
A|-----------------------------------------|-----------------------------------------|
F|-----------------------------------------|-----------------------------------------|
C|-----12-12-12--12-12-----7--7--7---7--7--|-----2--2--2---2--2------0--0--0---0--0--|
G|-10--10-10-10--10-10-7---7--7--7---7--7--|-2---2--2--2---2--2--0---0--0--0---0--0--|
C|-10--10-10-10--10-10-7---7--7--7---7--7--|-2---2--2--2---2--2--0---0--0--0---0--0--|


D|-----------------------------------------|-----------------------------------------|
A|-----------------------------------------|-----------------------------------------|
F|-----------------------------------------|-----------------------------------------|
C|-----12-12-12--12-12-----7--7--7---7--7--|-----2--2--2---2--2------2--2--2---2--2--|
G|-10--10-10-10--10-10-7---7--7--7---7--7--|-2---2--2--2---2--2--2---2--2--2---2--2--|
C|-10--10-10-10--10-10-7---7--7--7---7--7--|-2---2--2--2---2--2--2---2--2--2---2--2--|


D|-----------------------------------------|-------------|-------------------------------------------------|
A|-----------------------------------------|-------------|-8--0--7--0--12-0--10-0--8--0--7--0--12-0--10-0--|
F|-----------------------------------------|-------------|-------------------------------------------------|
C|-----12-12-12--12-12-----7--7--7---7--7--|-0-----4-----|-------------------------------------------------|
G|-10--10-10-10--10-10-7---7--7--7---7--7--|-0-----4-----|-------------------------------------------------|
C|-10--10-10-10--10-10-7---7--7--7---7--7--|-0-----4-----|-------------------------------------------------|


D|-------------------------------------------------|-------------------------------------------------|
A|-------------------------------------------------|-------------------------------------------------|
F|-5--5--5--5--5--5--5--5--9--9--9--9--7--7--7--7--|-------------------------------------------------|
C|-5--5--5--5--5--5--5--5--9--9--9--9--7--7--7--7--|-5--5--5--5--5--5--5--5--5--5--5--5--5--5--5--5--|
G|-3--3--3--3--3--3--3--3--7--7--7--7--5--5--5--5--|-5--5--5--5--5--5--5--5--5--5--5--5--5--5--5--5--|
C|-------------------------------------------------|-5--5--5--5--5--5--5--5--5--5--5--5--5--5--5--5--|


D|-------------------------------------------------|-------------------------------------------------|
A|-------------------------------------------------|-------------------------------------------------|
F|-------------------------14-14-14-14-14-14-14-14-|-------------------------------------------------|
C|-0--0--0--0--0--0--0--0--14-14-14-14-14-14-14-14-|-2--2--2--2--2--2--2--2--2--2--2--2--2--2--2--2--|
G|-0--0--0--0--0--0--0--0--12-12-12-12-12-12-12-12-|-2--2--2--2--2--2--2--2--2--2--2--2--2--2--2--2--|
C|-0--0--0--0--0--0--0--0--------------------------|-2--2--2--2--2--2--2--2--2--2--2--2--2--2--2--2--|


D|-------------------------------------------------|-------------------------------------------------|
A|-------------------------------------------------|-------------------------------------------------|
F|-5--5--5--5--5--5--5--5--9--9--9--9--7--7--7--7--|-------------------------------------------------|
C|-5--5--5--5--5--5--5--5--9--9--9--9--7--7--7--7--|-5--5--5--5--5--5--5--5--5--5--5--5--5--5--5--5--|
G|-3--3--3--3--3--3--3--3--7--7--7--7--5--5--5--5--|-5--5--5--5--5--5--5--5--5--5--5--5--5--5--5--5--|
C|-------------------------------------------------|-5--5--5--5--5--5--5--5--5--5--5--5--5--5--5--5--|


D|-------------------------------------------------|-------------------------------|
A|-------------------------------------------------|-------------------------------|
F|-------------------------14-14-14-14-14-14-14-14-|-------------------------------|
C|-0--0--0--0--0--0--0--0--14-14-14-14-14-14-14-14-|-2----------2----------2-------|
G|-0--0--0--0--0--0--0--0--12-12-12-12-12-12-12-12-|-2----2--2--2----2--2--2---2---|
C|-0--0--0--0--0--0--0--0--------------------------|-2----2--2--2----2--2--2---2---|


D|------------------------------------------|-------------------------------|----------------------------------------|
A|------------------------------------------|-------------------------------|----------------------------------------|
F|-5----------------9--9--9--9--7--7--7--7--|-------------------------------|----------------14-14-14-14-14-14-14-14-|
C|-5----5--5--5--5--9--9--9--9--7--7--7--7--|-5----------5----------5-------|-0----------0---14-14-14-14-14-14-14-14-|
G|-3----3--3--3--3--7--7--7--7--5--5--5--5--|-5----5--5--5----5--5--5---5---|-0----0--0--0---12-12-12-12-12-12-12-12-|
C|------------------------------------------|-5----5--5--5----5--5--5---5---|-0----0--0--0---------------------------|


D|-------------------------------|------------------------------------------|-------------------------------|
A|-------------------------------|------------------------------------------|-------------------------------|
F|-------------------------------|-5----------------9--9--9--9--7--7--7--7--|-------------------------------|
C|-2----------2----------2-------|-5----5--5--5--5--9--9--9--9--7--7--7--7--|-5----------5----------5-------|
G|-2----2--2--2----2--2--2---2---|-3----3--3--3--3--7--7--7--7--5--5--5--5--|-5----5--5--5----5--5--5---5---|
C|-2----2--2--2----2--2--2---2---|------------------------------------------|-5----5--5--5----5--5--5---5---|


D|----------------------------------------|-----------------|--------------------|
A|----------------------------------------|-----------------|--------------------|
F|----------------14-14-14-14-14-14-14-14-|-----------------|--------------------|
C|-0----------0---14-14-14-14-14-14-14-14-|-2-----2---2-----|-12--12---12--12----|
G|-0----0--0--0---12-12-12-12-12-12-12-12-|-2-----2---2-----|-10--10---10--10----|
C|-0----0--0--0---------------------------|-2-----2---2-----|-10--10---10--10----|


D|--------------------|-----------------------------|---------------------|-----------------|
A|--------------------|-----------------------------|---------------------|-----------------|
F|--------------------|-----------------------------|---------------7-----|-----------------|
C|-7---7----7---7-----|-5----5----5---0----0----0---|-9----7----9---------|-9----7----------|
G|-7---7----7---7-----|-5----5----5---0----0----0---|---------------------|-----------10----|
C|-7---7----7---7-----|-5----5----5---0----0----0---|---------------------|-----------------|


D|---------------------|---------------------|-------------|--------|--------|--------|
A|---------------------|---------------------|-------------|--------|--------|--------|
F|---------------7-----|---------------------|-------------|--------|--------|--------|
C|-9----7----9---------|-9----7--------------|-------------|--------|--------|--------|
G|---------------------|-----------10---9----|-9----7------|-7------|-7------|--------|
C|---------------------|---------------------|-------------|--------|--------|--------|


D|--------|--------|--------|--------|--------|--------|--------|--------|--------|
A|--------|--------|--------|--------|--------|--------|--------|--------|--------|
F|--------|--------|--------|--------|--------|--------|--------|--------|--------|
C|--------|--------|--------|--------|--------|--------|--------|--------|--------|
G|--------|--------|--------|--------|--------|--------|--------|--------|--------|
C|--------|--------|--------|--------|--------|--------|--------|--------|--------|


D|-------------------------------------------------|-------------------------------------------------|
A|-------------------------------------------------|-------------------------------------------------|
F|-------------------------------------------------|-------------------------------------------------|
C|-12-12-12-12-12-12-12-12-12-12-12-12-12-12-12-12-|-0--0--0--0--0--0--0--0--0--0--0--0--0--0--0--0--|
G|-10-10-10-10-10-10-10-10-10-10-10-10-10-10-10-10-|-0--0--0--0--0--0--0--0--0--0--0--0--0--0--0--0--|
C|-10-10-10-10-10-10-10-10-10-10-10-10-10-10-10-10-|-0--0--0--0--0--0--0--0--0--0--0--0--0--0--0--0--|


D|-------------------------------------------------|-------------------------------------------------|
A|-------------------------------------------------|-------------------------------------------------|
F|-------------------------------------------------|-------------------------------------------------|
C|-2--2--2--2--2--2--2--2--2--2--2--2--2--2--2--2--|-5--5--5--5--5--5--5--5--5--5--5--5--5--5--5--5--|
G|-2--2--2--2--2--2--2--2--2--2--2--2--2--2--2--2--|-5--5--5--5--5--5--5--5--5--5--5--5--5--5--5--5--|
C|-2--2--2--2--2--2--2--2--2--2--2--2--2--2--2--2--|-5--5--5--5--5--5--5--5--5--5--5--5--5--5--5--5--|


D|-------------------------------------------------|-------------------------------------------------|
A|-------------------------------------------------|-------------------------------------------------|
F|-------------------------------------------------|-------------------------------------------------|
C|-12-12-12-12-12-12-12-12-12-12-12-12-12-12-12-12-|-0--0--0--0--0--0--0--0--0--0--0--0--0--0--0--0--|
G|-10-10-10-10-10-10-10-10-10-10-10-10-10-10-10-10-|-0--0--0--0--0--0--0--0--0--0--0--0--0--0--0--0--|
C|-10-10-10-10-10-10-10-10-10-10-10-10-10-10-10-10-|-0--0--0--0--0--0--0--0--0--0--0--0--0--0--0--0--|


D|-------------------------------------------------|-------------------------------------------------|
A|-------------------------------------------------|-------------------------------------------------|
F|-------------------------------------------------|-------------------------------------------------|
C|-2--2--2--2--2--2--2--2--2--2--2--2--2--2--2--2--|-5--5--5--5--5--5--5--5--5--5--5--5--5--5--5--5--|
G|-2--2--2--2--2--2--2--2--2--2--2--2--2--2--2--2--|-5--5--5--5--5--5--5--5--5--5--5--5--5--5--5--5--|
C|-2--2--2--2--2--2--2--2--2--2--2--2--2--2--2--2--|-5--5--5--5--5--5--5--5--5--5--5--5--5--5--5--5--|


D|-------------------------------------------------|-------------------------------------------------|
A|-------------------------------------------------|-------------------------------------------------|
F|-------------------------------------------------|-------------------------------------------------|
C|-12-12-12-12-12-12-12-12-12-12-12-12-12-12-12-12-|-0--0--0--0--0--0--0--0--0--0--0--0--0--0--0--0--|
G|-10-10-10-10-10-10-10-10-10-10-10-10-10-10-10-10-|-0--0--0--0--0--0--0--0--0--0--0--0--0--0--0--0--|
C|-10-10-10-10-10-10-10-10-10-10-10-10-10-10-10-10-|-0--0--0--0--0--0--0--0--0--0--0--0--0--0--0--0--|


D|-------------------------------------------------|-------------------------------------------------|
A|-------------------------------------------------|-------------------------------------------------|
F|-------------------------------------------------|-------------------------------------------------|
C|-2--2--2--2--2--2--2--2--2--2--2--2--2--2--2--2--|-5--5--5--5--5--5--5--5--5--5--5--5--5--5--5--5--|
G|-2--2--2--2--2--2--2--2--2--2--2--2--2--2--2--2--|-5--5--5--5--5--5--5--5--5--5--5--5--5--5--5--5--|
C|-2--2--2--2--2--2--2--2--2--2--2--2--2--2--2--2--|-5--5--5--5--5--5--5--5--5--5--5--5--5--5--5--5--|


D|-------------------------------------------------|-------------------------------------------------|
A|-------------------------------------------------|-------------------------------------------------|
F|-------------------------------------------------|-------------------------------------------------|
C|-12-12-12-12-12-12-12-12-12-12-12-12-12-12-12-12-|-0--0--0--0--0--0--0--0--0--0--0--0--0--0--0--0--|
G|-10-10-10-10-10-10-10-10-10-10-10-10-10-10-10-10-|-0--0--0--0--0--0--0--0--0--0--0--0--0--0--0--0--|
C|-10-10-10-10-10-10-10-10-10-10-10-10-10-10-10-10-|-0--0--0--0--0--0--0--0--0--0--0--0--0--0--0--0--|


D|-------------------------------------------------|-------------------------------------------------|
A|-------------------------------------------------|-------------------------------------------------|
F|-------------------------------------------------|-------------------------------------------------|
C|-2--2--2--2--2--2--2--2--2--2--2--2--2--2--2--2--|-5--5--5--5--5--5--5--5--5--5--5--5--5--5--5--5--|
G|-2--2--2--2--2--2--2--2--2--2--2--2--2--2--2--2--|-5--5--5--5--5--5--5--5--5--5--5--5--5--5--5--5--|
C|-2--2--2--2--2--2--2--2--2--2--2--2--2--2--2--2--|-5--5--5--5--5--5--5--5--5--5--5--5--5--5--5--5--|


D|-----------------------------------------|-----------------------------------------|
A|-----------------------------------------|-----------------------------------------|
F|-----------------------------------------|-----------------------------------------|
C|-12--------12--------12--------12--------|-0---------0---------0---------0---------|
G|-10--10-10-10--10-10-10--10-10-10--10-10-|-0---0--0--0---0--0--0---0--0--0---0--0--|
C|-10--10-10-10--10-10-10--10-10-10--10-10-|-0---0--0--0---0--0--0---0--0--0---0--0--|


D|-----------------------------------------|---------------------------------------|
A|-----------------------------------------|---------------------------------------|
F|-----------------------------------------|---------------------------------------|
C|-2---------2---------2---------2---------|-5---------5---------5--5---5---5--5---|
G|-2---2--2--2---2--2--2---2--2--2---2--2--|-5---5--5--5---5--5--5--5---5---5--5---|
C|-2---2--2--2---2--2--2---2--2--2---2--2--|-5---5--5--5---5--5--5--5---5---5--5---|


D|-----------------------------------------|-----------------------------------------|
A|-----------------------------------------|-----------------------------------------|
F|-----------------------------------------|-----------------------------------------|
C|-12--------12--------12--------12--------|-0---------0---------0---------0---------|
G|-10--10-10-10--10-10-10--10-10-10--10-10-|-0---0--0--0---0--0--0---0--0--0---0--0--|
C|-10--10-10-10--10-10-10--10-10-10--10-10-|-0---0--0--0---0--0--0---0--0--0---0--0--|


D|-----------------------------------------|-------------------------------------------|
A|-----------------------------------------|-------------------------------------------|
F|-----------------------------------------|-------------------------------------------|
C|-2---------2---------2---------2---------|-5--5--5--5------5--5--5--5------5--5------|
G|-2---2--2--2---2--2--2---2--2--2---2--2--|-5--5--5--5------5--5--5--5------5--5------|
C|-2---2--2--2---2--2--2---2--2--2---2--2--|-5--5--5--5------5--5--5--5------5--5------|


D|--------|--------|--------|--------|--------|--------|--------|--------|--------|
A|--------|--------|--------|--------|--------|--------|--------|--------|--------|
F|--------|--------|--------|--------|--------|--------|--------|--------|--------|
C|-12-----|-12-----|-12-----|-12-----|-12-----|-12-----|-12-----|-12-----|--------|
G|-10-----|-10-----|-10-----|-10-----|-10-----|-10-----|-10-----|-10-----|--------|
C|-10-----|-10-----|-10-----|-10-----|-10-----|-10-----|-10-----|-10-----|--------|


D|--------|--------|--------|--------|--------|--------|--------|--------|--------|
A|--------|--------|--------|--------|--------|--------|--------|--------|--------|
F|--------|--------|--------|--------|--------|--------|--------|--------|--------|
C|--------|--------|--------|--------|--------|--------|--------|--------|--------|
G|--------|--------|--------|--------|--------|--------|--------|--------|--------|
C|--------|--------|--------|--------|--------|--------|--------|--------|--------|


D|--------|--------|--------|--------|--------|--------|--------|--------|--------|
A|--------|--------|--------|--------|--------|--------|--------|--------|--------|
F|--------|--------|--------|--------|--------|--------|--------|--------|--------|
C|--------|--------|--------|--------|--------|--------|--------|--------|--------|
G|--------|--------|--------|--------|--------|--------|--------|--------|--------|
C|--------|--------|--------|--------|--------|--------|--------|--------|--------|


D|--------|
A|--------|
F|--------|
C|--------|
G|--------|
C|--------|





Track 2: Dist. Gtr. II

D|--------|--------|-------------------------------------------------|-------------------------------------------------|
A|--------|--------|-------------------------------------------------|-------------------------------------------------|
F|--------|--------|-------------------------------------------------|-5--5--5--5--5--5--5--5--12-12-12-12-11-11-11-11-|
C|--------|--------|-2--2--2--2--2--2--2--2--2--2--2--2--2--2--2--2--|-5--5--5--5--5--5--5--5--12-12-12-12-11-11-11-11-|
G|--------|--------|-2--2--2--2--2--2--2--2--2--2--2--2--2--2--2--2--|-3--3--3--3--3--3--3--3--10-10-10-10-9--9--9--9--|
C|--------|--------|-2--2--2--2--2--2--2--2--2--2--2--2--2--2--2--2--|-------------------------------------------------|


D|-------------------------------------------------|-------------------------------------------------|
A|-------------------------------------------------|-------------------------------------------------|
F|-------------------------------------------------|-------------------------11-11-11-11-11-11-11-11-|
C|-5--5--5--5--5--5--5--5--5--5--5--5--5--5--5--5--|-0--0--0--0--0--0--0--0--11-11-11-11-11-11-11-11-|
G|-5--5--5--5--5--5--5--5--5--5--5--5--5--5--5--5--|-0--0--0--0--0--0--0--0--9--9--9--9--9--9--9--9--|
C|-5--5--5--5--5--5--5--5--5--5--5--5--5--5--5--5--|-0--0--0--0--0--0--0--0--------------------------|


D|-------------------------------------------------|-------------------------------------------------|
A|-------------------------------------------------|-------------------------------------------------|
F|-------------------------------------------------|-5--5--5--5--5--5--5--5--12-12-12-12-11-11-11-11-|
C|-2--2--2--2--2--2--2--2--2--2--2--2--2--2--2--2--|-5--5--5--5--5--5--5--5--12-12-12-12-11-11-11-11-|
G|-2--2--2--2--2--2--2--2--2--2--2--2--2--2--2--2--|-3--3--3--3--3--3--3--3--10-10-10-10-9--9--9--9--|
C|-2--2--2--2--2--2--2--2--2--2--2--2--2--2--2--2--|-------------------------------------------------|


D|-------------------------------------------------|-------------------------------------------------|
A|-------------------------------------------------|-------------------------------------------------|
F|-------------------------------------------------|-------------------------11-11-11-11-11-11-11-11-|
C|-5--5--5--5--5--5--5--5--5--5--5--5--5--5--5--5--|-0--0--0--0--0--0--0--0--11-11-11-11-11-11-11-11-|
G|-5--5--5--5--5--5--5--5--5--5--5--5--5--5--5--5--|-0--0--0--0--0--0--0--0--9--9--9--9--9--9--9--9--|
C|-5--5--5--5--5--5--5--5--5--5--5--5--5--5--5--5--|-0--0--0--0--0--0--0--0--------------------------|


D|-----------------------------------------------|-----------------------------------------------|
A|-----------------------------------------------|-----------------------------------------------|
F|-----------------------------------------------|-----------------------------------------------|
C|-2---------------------------------------------|-------7-----5--------4-----5--------4-----5---|
G|-2---2--2--2--2--2--2--2--2--2--2--2--2--2--2--|-3--3-----3-----3--3-----3-----3--3-----3------|
C|-2---2--2--2--2--2--2--2--2--2--2--2--2--2--2--|-----------------------------------------------|


D|-----------------------------------------------|-----------------------------------------------|
A|-----------------------------------------------|-----------------------------------------------|
F|-----------------------------------------------|-----------------------------------------------|
C|-5---------------------------------------------|-0--0--7--0--5--0--0--4--0--5--0--0--4--0--5---|
G|-5---5--5--5--5--5--5--5--5--5--5--5--5--5--5--|-----------------------------------------------|
C|-5---5--5--5--5--5--5--5--5--5--5--5--5--5--5--|-----------------------------------------------|


D|-----------------------------------------------|-----------------------------------------------|
A|-----------------------------------------------|-----------------------------------------------|
F|-----------------------------------------------|-----------------------------------------------|
C|-2---------------------------------------------|-------7-----5--------4-----5--------4-----5---|
G|-2---2--2--2--2--2--2--2--2--2--2--2--2--2--2--|-3--3-----3-----3--3-----3-----3--3-----3------|
C|-2---2--2--2--2--2--2--2--2--2--2--2--2--2--2--|-----------------------------------------------|


D|-----------------------------------------------|-----------------------------------------------|
A|-----------------------------------------------|-----------------------------------------------|
F|-----------------------------------------------|-----------------------------------------------|
C|-5---------------------------------------------|-0--0--7--0--5--0--0--4--0--5--0--0--4--0--5---|
G|-5---5--5--5--5--5--5--5--5--5--5--5--5--5--5--|-----------------------------------------------|
C|-5---5--5--5--5--5--5--5--5--5--5--5--5--5--5--|-----------------------------------------------|


D|--------|--------|--------|--------|-12--12--12--14--14--14--15--15--|-12--12--12--14--14--14--15--15--|
A|--------|--------|--------|--------|-0---0---0---0---0---0---0---0---|-0---0---0---0---0---0---0---0---|
F|--------|--------|--------|--------|---------------------------------|---------------------------------|
C|--------|--------|--------|--------|---------------------------------|---------------------------------|
G|--------|--------|--------|--------|---------------------------------|---------------------------------|
C|--------|--------|--------|--------|---------------------------------|---------------------------------|


D|-12--12--12--14--14--14--15--15--|-17---17---17---17---|--------|--------|--------|
A|-0---0---0---0---0---0---0---0---|-0----0----0----0----|--------|--------|--------|
F|---------------------------------|---------------------|--------|--------|--------|
C|---------------------------------|---------------------|--------|--------|--------|
G|---------------------------------|---------------------|--------|--------|--------|
C|---------------------------------|---------------------|--------|--------|--------|


D|--------|--------|--------|--------|--------|-------------------------------------------------|
A|--------|--------|--------|--------|--------|-5--0--3--0--8--0--7--0--5--0--3--0--8--0--7--0--|
F|--------|--------|--------|--------|--------|-------------------------------------------------|
C|--------|--------|--------|--------|--------|-------------------------------------------------|
G|--------|--------|--------|--------|--------|-------------------------------------------------|
C|--------|--------|--------|--------|--------|-------------------------------------------------|


D|-------------------------------------------------|-------------------------------------------------|
A|-------------------------------------------------|-------------------------------------------------|
F|-5--5--5--5--5--5--5--5--12-12-12-12-11-11-11-11-|-------------------------------------------------|
C|-5--5--5--5--5--5--5--5--12-12-12-12-11-11-11-11-|-5--5--5--5--5--5--5--5--5--5--5--5--5--5--5--5--|
G|-3--3--3--3--3--3--3--3--10-10-10-10-9--9--9--9--|-5--5--5--5--5--5--5--5--5--5--5--5--5--5--5--5--|
C|-------------------------------------------------|-5--5--5--5--5--5--5--5--5--5--5--5--5--5--5--5--|


D|-------------------------------------------------|-------------------------------------------------|
A|-------------------------------------------------|-------------------------------------------------|
F|-------------------------11-11-11-11-11-11-11-11-|-------------------------------------------------|
C|-0--0--0--0--0--0--0--0--11-11-11-11-11-11-11-11-|-2--2--2--2--2--2--2--2--2--2--2--2--2--2--2--2--|
G|-0--0--0--0--0--0--0--0--9--9--9--9--9--9--9--9--|-2--2--2--2--2--2--2--2--2--2--2--2--2--2--2--2--|
C|-0--0--0--0--0--0--0--0--------------------------|-2--2--2--2--2--2--2--2--2--2--2--2--2--2--2--2--|


D|-------------------------------------------------|-------------------------------------------------|
A|-------------------------------------------------|-------------------------------------------------|
F|-5--5--5--5--5--5--5--5--12-12-12-12-11-11-11-11-|-------------------------------------------------|
C|-5--5--5--5--5--5--5--5--12-12-12-12-11-11-11-11-|-5--5--5--5--5--5--5--5--5--5--5--5--5--5--5--5--|
G|-3--3--3--3--3--3--3--3--10-10-10-10-9--9--9--9--|-5--5--5--5--5--5--5--5--5--5--5--5--5--5--5--5--|
C|-------------------------------------------------|-5--5--5--5--5--5--5--5--5--5--5--5--5--5--5--5--|


D|-------------------------------------------------|-------------------------------|
A|-------------------------------------------------|-------------------------------|
F|-------------------------11-11-11-11-11-11-11-11-|-------------------------------|
C|-0--0--0--0--0--0--0--0--11-11-11-11-11-11-11-11-|-2----------2----------2-------|
G|-0--0--0--0--0--0--0--0--9--9--9--9--9--9--9--9--|-2----2--2--2----2--2--2---2---|
C|-0--0--0--0--0--0--0--0--------------------------|-2----2--2--2----2--2--2---2---|


D|------------------------------------------|-------------------------------|----------------------------------------|
A|------------------------------------------|-------------------------------|----------------------------------------|
F|-5----------------12-12-12-12-11-11-11-11-|-------------------------------|----------------11-11-11-11-11-11-11-11-|
C|-5----5--5--5--5--12-12-12-12-11-11-11-11-|-5----------5----------5-------|-0----------0---11-11-11-11-11-11-11-11-|
G|-3----3--3--3--3--10-10-10-10-9--9--9--9--|-5----5--5--5----5--5--5---5---|-0----0--0--0---9--9--9--9--9--9--9--9--|
C|------------------------------------------|-5----5--5--5----5--5--5---5---|-0----0--0--0---------------------------|


D|-------------------------------|------------------------------------------|-------------------------------|
A|-------------------------------|------------------------------------------|-------------------------------|
F|-------------------------------|-5----------------12-12-12-12-11-11-11-11-|-------------------------------|
C|-2----------2----------2-------|-5----5--5--5--5--12-12-12-12-11-11-11-11-|-5----------5----------5-------|
G|-2----2--2--2----2--2--2---2---|-3----3--3--3--3--10-10-10-10-9--9--9--9--|-5----5--5--5----5--5--5---5---|
C|-2----2--2--2----2--2--2---2---|------------------------------------------|-5----5--5--5----5--5--5---5---|


D|----------------------------------------|--------|--------|--------|--------|--------------------|
A|----------------------------------------|--------|--------|--------|--------|--------------------|
F|----------------11-11-11-11-11-11-11-11-|--------|--------|--------|--------|--------------------|
C|-0----------0---11-11-11-11-11-11-11-11-|--------|--------|--------|--------|-2---2----2---2-----|
G|-0----0--0--0---9--9--9--9--9--9--9--9--|--------|--------|--------|--------|-2---2----2---2-----|
C|-0----0--0--0---------------------------|--------|--------|--------|--------|-2---2----2---2-----|


D|--------------------|--------------------|---------------------|--------|--------|
A|--------------------|--------------------|---------------------|--------|--------|
F|--------------------|--------------------|---------------------|--------|--------|
C|-12--12---12--12----|-7---7----7---7-----|-5----5----0----0----|--------|--------|
G|-10--10---10--10----|-7---7----7---7-----|-5----5----0----0----|--------|--------|
C|-10--10---10--10----|-7---7----7---7-----|-5----5----0----0----|--------|--------|


D|--------|--------|--------|--------|--------|--------|--------|--------|--------|
A|--------|--------|--------|--------|--------|--------|--------|--------|--------|
F|--------|--------|--------|--------|--------|--------|--------|--------|--------|
C|--------|--------|--------|--------|--------|--------|--------|--------|--------|
G|--------|--------|--------|--------|--------|--------|--------|--------|--------|
C|--------|--------|--------|--------|--------|--------|--------|--------|--------|


D|--------|--------|--------|--------|--------|--------|--------|--------|--------|
A|--------|--------|--------|--------|--------|--------|--------|--------|--------|
F|--------|--------|--------|--------|--------|--------|--------|--------|--------|
C|--------|--------|--------|--------|--------|--------|--------|--------|--------|
G|--------|--------|--------|--------|--------|--------|--------|--------|--------|
C|--------|--------|--------|--------|--------|--------|--------|--------|--------|


D|--------|--------|--------|--------|--------|--------|--------|--------|--------|
A|--------|--------|--------|--------|--------|--------|--------|--------|--------|
F|--------|--------|--------|--------|--------|--------|--------|--------|--------|
C|--------|--------|--------|--------|--------|--------|--------|--------|--------|
G|--------|--------|--------|--------|--------|--------|--------|--------|--------|
C|--------|--------|--------|--------|--------|--------|--------|--------|--------|


D|--------|--------|--------|--------|--------|--------|--------|--------|--------|
A|--------|--------|--------|--------|--------|--------|--------|--------|--------|
F|--------|--------|--------|--------|--------|--------|--------|--------|--------|
C|--------|--------|--------|--------|--------|--------|--------|--------|--------|
G|--------|--------|--------|--------|--------|--------|--------|--------|--------|
C|--------|--------|--------|--------|--------|--------|--------|--------|--------|


D|--------|--------|--------|--------|--------|--------|--------|--------|--------|
A|--------|--------|--------|--------|--------|--------|--------|--------|--------|
F|--------|--------|--------|--------|--------|--------|--------|--------|--------|
C|--------|--------|--------|--------|--------|--------|--------|--------|--------|
G|--------|--------|--------|--------|--------|--------|--------|--------|--------|
C|--------|--------|--------|--------|--------|--------|--------|--------|--------|


D|--------|--------|--------|--------|--------|--------|--------|--------|--------|
A|--------|--------|--------|--------|--------|--------|--------|--------|--------|
F|--------|--------|--------|--------|--------|--------|--------|--------|--------|
C|--------|--------|--------|--------|--------|--------|--------|--------|--------|
G|--------|--------|--------|--------|--------|--------|--------|--------|--------|
C|--------|--------|--------|--------|--------|--------|--------|--------|--------|


D|--------|--------|--------|--------|--------|--------|--------|--------|--------|
A|--------|--------|--------|--------|--------|--------|--------|--------|--------|
F|--------|--------|--------|--------|--------|--------|--------|--------|--------|
C|--------|--------|--------|--------|--------|--------|--------|--------|--------|
G|--------|--------|--------|--------|--------|--------|--------|--------|--------|
C|--------|--------|--------|--------|--------|--------|--------|--------|--------|





Track 3: Clean Gtr.

D|--------|--------|--------|--------|--------|--------|--------|--------|--------|
A|--------|--------|--------|--------|--------|--------|--------|--------|--------|
F|--------|--------|--------|--------|--------|--------|--------|--------|--------|
C|--------|--------|--------|--------|--------|--------|--------|--------|--------|
G|--------|--------|--------|--------|--------|--------|--------|--------|--------|
C|--------|--------|--------|--------|--------|--------|--------|--------|--------|


D|--------|--------|--------|--------|--------|--------|--------|--------|--------|
A|--------|--------|--------|--------|--------|--------|--------|--------|--------|
F|--------|--------|--------|--------|--------|--------|--------|--------|--------|
C|--------|--------|--------|--------|--------|--------|--------|--------|--------|
G|--------|--------|--------|--------|--------|--------|--------|--------|--------|
C|--------|--------|--------|--------|--------|--------|--------|--------|--------|


D|--------|--------|--------|--------|--------|--------|--------|--------|--------|
A|--------|--------|--------|--------|--------|--------|--------|--------|--------|
F|--------|--------|--------|--------|--------|--------|--------|--------|--------|
C|--------|--------|--------|--------|--------|--------|--------|--------|--------|
G|--------|--------|--------|--------|--------|--------|--------|--------|--------|
C|--------|--------|--------|--------|--------|--------|--------|--------|--------|


D|--------|--------|--------|--------|--------|--------|--------|--------|--------|
A|--------|--------|--------|--------|--------|--------|--------|--------|--------|
F|--------|--------|--------|--------|--------|--------|--------|--------|--------|
C|--------|--------|--------|--------|--------|--------|--------|--------|--------|
G|--------|--------|--------|--------|--------|--------|--------|--------|--------|
C|--------|--------|--------|--------|--------|--------|--------|--------|--------|


D|--------|--------|--------|--------|--------|--------|--------|--------|--------|
A|--------|--------|--------|--------|--------|--------|--------|--------|--------|
F|--------|--------|--------|--------|--------|--------|--------|--------|--------|
C|--------|--------|--------|--------|--------|--------|--------|--------|--------|
G|--------|--------|--------|--------|--------|--------|--------|--------|--------|
C|--------|--------|--------|--------|--------|--------|--------|--------|--------|


D|--------|--------|--------|--------|--------|--------|--------|--------|--------|
A|--------|--------|--------|--------|--------|--------|--------|--------|--------|
F|--------|--------|--------|--------|--------|--------|--------|--------|--------|
C|--------|--------|--------|--------|--------|--------|--------|--------|--------|
G|--------|--------|--------|--------|--------|--------|--------|--------|--------|
C|--------|--------|--------|--------|--------|--------|--------|--------|--------|


D|--------|--------|--------|--------|--------|-------------------------|-------------------|
A|--------|--------|--------|--------|--------|-------------------------|-------------------|
F|--------|--------|--------|--------|--------|-------------------------|----------0-----0--|
C|--------|--------|--------|--------|-12-----|-9---------10---9--------|-2-----2-----------|
G|--------|--------|--------|--------|-10-----|-7-------------------10--|-2-----------------|
C|--------|--------|--------|--------|-10-----|-7-----7-----------------|-2-----------------|


D|-----------------------|--------|-------------|--------|--------|--------|--------|
A|-----------------------|--------|-------------|--------|--------|--------|--------|
F|----------0----0-------|--------|-------------|--------|--------|--------|--------|
C|-2-----2----------0----|-12-----|-------7-----|--------|-2------|--------|--------|
G|-2---------------------|-10-----|-------7-----|--------|-2------|--------|--------|
C|-2---------------------|-10-----|-------7-----|--------|-2------|--------|--------|


D|--------|--------|--------|--------|--------|--------|--------|--------|--------|
A|--------|--------|--------|--------|--------|--------|--------|--------|--------|
F|--------|--------|--------|--------|--------|--------|--------|--------|--------|
C|--------|--------|--------|--------|--------|--------|--------|--------|--------|
G|--------|--------|--------|--------|--------|--------|--------|--------|--------|
C|--------|--------|--------|--------|--------|--------|--------|--------|--------|


D|--------|--------|--------|--------|--------|--------|--------|--------|--------|
A|--------|--------|--------|--------|--------|--------|--------|--------|--------|
F|--------|--------|--------|--------|--------|--------|--------|--------|--------|
C|--------|--------|--------|--------|--------|--------|--------|--------|--------|
G|--------|--------|--------|--------|--------|--------|--------|--------|--------|
C|--------|--------|--------|--------|--------|--------|--------|--------|--------|


D|--------|--------|--------|--------|--------|--------|--------|--------|--------|
A|--------|--------|--------|--------|--------|--------|--------|--------|--------|
F|--------|--------|--------|--------|--------|--------|--------|--------|--------|
C|--------|--------|--------|--------|--------|--------|--------|--------|--------|
G|--------|--------|--------|--------|--------|--------|--------|--------|--------|
C|--------|--------|--------|--------|--------|--------|--------|--------|--------|


D|--------|--------|--------|--------|--------|--------|--------|--------|--------|
A|--------|--------|--------|--------|--------|--------|--------|--------|--------|
F|--------|--------|--------|--------|--------|--------|--------|--------|--------|
C|--------|--------|--------|--------|--------|--------|--------|--------|--------|
G|--------|--------|--------|--------|--------|--------|--------|--------|--------|
C|--------|--------|--------|--------|--------|--------|--------|--------|--------|


D|--------|--------|--------|--------|--------|--------|--------|--------|--------|
A|--------|--------|--------|--------|--------|--------|--------|--------|--------|
F|--------|--------|--------|--------|--------|--------|--------|--------|--------|
C|--------|--------|--------|--------|--------|--------|--------|--------|--------|
G|--------|--------|--------|--------|--------|--------|--------|--------|--------|
C|--------|--------|--------|--------|--------|--------|--------|--------|--------|


D|--------|--------|--------|--------|--------|--------|--------|--------|--------|
A|--------|--------|--------|--------|--------|--------|--------|--------|--------|
F|--------|--------|--------|--------|--------|--------|--------|--------|--------|
C|--------|--------|--------|--------|--------|--------|--------|--------|--------|
G|--------|--------|--------|--------|--------|--------|--------|--------|--------|
C|--------|--------|--------|--------|--------|--------|--------|--------|--------|


D|--------|
A|--------|
F|--------|
C|--------|
G|--------|
C|--------|





Track 4: Strings

D|--------|--------|--------|--------|--------|--------|--------|--------|--------|
A|--------|--------|--------|--------|--------|--------|--------|--------|--------|
F|--------|--------|--------|--------|--------|--------|--------|--------|--------|
C|--------|--------|--------|--------|--------|--------|--------|--------|--------|
G|--------|--------|--------|--------|--------|--------|--------|--------|--------|
C|--------|--------|--------|--------|--------|--------|--------|--------|--------|


D|--------|--------|--------|--------|--------|--------|--------|--------|--------|
A|--------|--------|--------|--------|--------|--------|--------|--------|--------|
F|--------|--------|--------|--------|--------|--------|--------|--------|--------|
C|--------|--------|--------|--------|--------|--------|--------|--------|--------|
G|--------|--------|--------|--------|--------|--------|--------|--------|--------|
C|--------|--------|--------|--------|--------|--------|--------|--------|--------|


D|--------|--------|--------|--------|--------|--------|--------|--------|--------|
A|--------|--------|--------|--------|--------|--------|--------|--------|--------|
F|--------|--------|--------|--------|--------|--------|--------|--------|--------|
C|--------|--------|--------|--------|--------|--------|--------|--------|--------|
G|--------|--------|--------|--------|--------|--------|--------|--------|--------|
C|--------|--------|--------|--------|--------|--------|--------|--------|--------|


D|--------|--------|--------|--------|--------|--------|--------|--------|--------|
A|--------|--------|--------|--------|--------|--------|--------|--------|--------|
F|--------|--------|--------|--------|--------|--------|--------|--------|--------|
C|--------|--------|--------|--------|--------|--------|--------|--------|--------|
G|--------|--------|--------|--------|--------|--------|--------|--------|--------|
C|--------|--------|--------|--------|--------|--------|--------|--------|--------|


D|--------|--------|--------|--------|--------|--------|--------|--------|--------|
A|--------|--------|--------|--------|--------|--------|--------|--------|--------|
F|--------|--------|--------|--------|--------|--------|--------|--------|--------|
C|--------|--------|--------|--------|--------|--------|--------|--------|--------|
G|--------|--------|--------|--------|--------|--------|--------|--------|--------|
C|--------|--------|--------|--------|--------|--------|--------|--------|--------|


D|--------|--------|--------|--------|--------|--------|--------|--------|--------|
A|--------|--------|--------|--------|--------|--------|--------|--------|--------|
F|--------|--------|--------|--------|--------|--------|--------|--------|--------|
C|--------|--------|--------|--------|--------|--------|--------|--------|--------|
G|--------|--------|--------|--------|--------|--------|--------|--------|--------|
C|--------|--------|--------|--------|--------|--------|--------|--------|--------|


D|--------|--------|--------|--------|--------|--------|--------|--------|--------|
A|--------|--------|--------|--------|--------|--------|--------|--------|--------|
F|--------|--------|--------|--------|--------|--------|--------|--------|--------|
C|--------|--------|--------|--------|--------|--------|--------|--------|--------|
G|--------|--------|--------|--------|--------|--------|--------|--------|--------|
C|--------|--------|--------|--------|--------|--------|--------|--------|--------|


D|--------|--------|--------|--------|--------|--------|--------|--------|--------|
A|--------|--------|--------|--------|--------|--------|--------|--------|--------|
F|--------|--------|--------|--------|--------|--------|--------|--------|--------|
C|--------|--------|--------|--------|--------|--------|--------|--------|--------|
G|--------|--------|--------|--------|--------|--------|--------|--------|--------|
C|--------|--------|--------|--------|--------|--------|--------|--------|--------|


D|--------|--------|--------|--------|--------|--------|--------|--------|--------|
A|--------|--------|--------|--------|--------|--------|--------|--------|--------|
F|--------|--------|--------|--------|--------|--------|--------|--------|--------|
C|--------|--------|--------|--------|--------|--------|--------|--------|--------|
G|--------|--------|--------|--------|--------|--------|--------|--------|--------|
C|--------|--------|--------|--------|--------|--------|--------|--------|--------|


D|--------|--------|--------|--------|--------|--------|--------|--------|--------|
A|--------|--------|--------|--------|--------|--------|--------|--------|--------|
F|--------|--------|--------|--------|--------|--------|--------|--------|--------|
C|--------|--------|--------|--------|--------|--------|--------|--------|--------|
G|--------|--------|--------|--------|--------|--------|--------|--------|--------|
C|--------|--------|--------|--------|--------|--------|--------|--------|--------|


D|--------|--------|--------|--------|--------|--------|--------|--------|--------|
A|--------|--------|--------|--------|--------|--------|--------|--------|--------|
F|--------|--------|--------|--------|--------|--------|--------|--------|--------|
C|--------|--------|--------|--------|--------|--------|--------|--------|--------|
G|--------|--------|--------|--------|--------|--------|--------|--------|--------|
C|--------|--------|--------|--------|--------|--------|--------|--------|--------|


D|--------|--------|-2------|-3------|-10-----|-8------|-7------|-5------|-10-----|
A|--------|--------|-3------|-5------|-12-----|-10-----|-8------|-7------|-12-----|
F|--------|--------|--------|--------|--------|--------|--------|--------|--------|
C|--------|--------|--------|--------|--------|--------|--------|--------|--------|
G|--------|--------|--------|--------|--------|--------|--------|--------|--------|
C|--------|--------|--------|--------|--------|--------|--------|--------|--------|


D|-8------|-7------|-5------|-12-----|-14-----|-15-----|-19-----|-12-----|-14-----|
A|-10-----|-8------|-7------|-13-----|-15-----|-17-----|-17-----|-13-----|-15-----|
F|--------|--------|--------|--------|--------|--------|--------|--------|--------|
C|--------|--------|--------|--------|--------|--------|--------|--------|--------|
G|--------|--------|--------|--------|--------|--------|--------|--------|--------|
C|--------|--------|--------|--------|--------|--------|--------|--------|--------|


D|-15-----|-15-----|-15-----|-15-----|-15-----|-15-----|
A|-17-----|-17-----|-17-----|-17-----|-17-----|-17-----|
F|--------|--------|--------|--------|--------|--------|
C|--------|--------|--------|--------|--------|--------|
G|--------|--------|--------|--------|--------|--------|
C|--------|--------|--------|--------|--------|--------|





Track 5: Bass

F|--------|--------|-------------------------------------------------|-------------------------------------------------|
C|--------|--------|-------------------------------------------------|-------------------------------------------------|
G|--------|--------|-------------------------------------------------|-3--3--3--3--3--3--3--3--3--3--3--3--3--3--3--3--|
C|--------|--------|-2--2--2--2--2--2--2--2--2--2--2--2--2--2--2--2--|-------------------------------------------------|


F|-------------------------------------------------|-------------------------------------------------|
C|-------------------------------------------------|-------------------------------------------------|
G|-------------------------------------------------|-------------------------------------------------|
C|-5--5--5--5--5--5--5--5--5--5--5--5--5--5--5--5--|-0--0--0--0--0--0--0--0--0--0--0--0--0--0--0--0--|


F|-------------------------------------------------|-------------------------------------------------|
C|-------------------------------------------------|-------------------------------------------------|
G|-------------------------------------------------|-3--3--3--3--3--3--3--3--3--3--3--3--3--3--3--3--|
C|-2--2--2--2--2--2--2--2--2--2--2--2--2--2--2--2--|-------------------------------------------------|


F|-------------------------------------------------|-------------------------------------------------|
C|-------------------------------------------------|-------------------------------------------------|
G|-------------------------------------------------|-------------------------------------------------|
C|-5--5--5--5--5--5--5--5--5--5--5--5--5--5--5--5--|-0--0--0--0--0--0--0--0--0--0--0--0--0--0--0--0--|


F|-------------------------------------------------|-------------------------------------------------|
C|-------------------------------------------------|-------------------------------------------------|
G|-------------------------------------------------|-3--3--3--3--3--3--3--3--3--3--3--3--3--3--3--3--|
C|-2--2--2--2--2--2--2--2--2--2--2--2--2--2--2--2--|-------------------------------------------------|


F|-------------------------------------------------|-------------------------------------------------|
C|-------------------------------------------------|-------------------------------------------------|
G|-------------------------------------------------|-------------------------------------------------|
C|-5--5--5--5--5--5--5--5--5--5--5--5--5--5--5--5--|-0--0--0--0--0--0--0--0--0--0--0--0--0--0--0--0--|


F|-------------------------------------------------|-------------------------------------------------|
C|-------------------------------------------------|-------------------------------------------------|
G|-------------------------------------------------|-3--3--3--3--3--3--3--3--3--3--3--3--3--3--3--3--|
C|-2--2--2--2--2--2--2--2--2--2--2--2--2--2--2--2--|-------------------------------------------------|


F|-------------------------------------------------|-------------------------------------------------|
C|-------------------------------------------------|-------------------------------------------------|
G|-------------------------------------------------|-------------------------------------------------|
C|-5--5--5--5--5--5--5--5--5--5--5--5--5--5--5--5--|-0--0--0--0--0--0--0--0--0--0--0--0--0--0--0--0--|


F|--------|--------|--------|-------------|------------------|------------------|------------------|
C|--------|--------|--------|-------------|------------------|------------------|------------------|
G|--------|--------|--------|-------------|------------------|------------------|------------------|
C|-2------|-10-----|-7------|-5-----0-----|-2-----2-----2----|-10----10----10---|-7-----7-----7----|


F|---------------------|-----------------------------------------|-----------------------------------------|
C|---------------------|-----------------------------------------|-----------------------------------------|
G|---------------------|-----------------------------------------|-----------------------------------------|
C|-5----5----0----0----|-10--10-10-10--10-10-7---7--7--7---7--7--|-2---2--2--2---2--2--2---2--2--2---2--2--|


F|-----------------------------------------|-----------------------------------------|
C|-----------------------------------------|-----------------------------------------|
G|-----------------------------------------|-----------------------------------------|
C|-10--10-10-10--10-10-7---7--7--7---7--7--|-2---2--2--2---2--2--0---0--0--0---0--0--|


F|-----------------------------------------|-----------------------------------------|
C|-----------------------------------------|-----------------------------------------|
G|-----------------------------------------|-----------------------------------------|
C|-10--10-10-10--10-10-7---7--7--7---7--7--|-2---2--2--2---2--2--2---2--2--2---2--2--|


F|-----------------------------------------|-------------|--------|-------------------------------------------------|
C|-----------------------------------------|-------------|--------|-------------------------------------------------|
G|-----------------------------------------|-------------|--------|-3--3--3--3--3--3--3--3--3--3--3--3--3--3--3--3--|
C|-10--10-10-10--10-10-7---7--7--7---7--7--|-0-----4-----|--------|-------------------------------------------------|


F|-------------------------------------------------|-------------------------------------------------|
C|-------------------------------------------------|-------------------------------------------------|
G|-------------------------------------------------|-------------------------------------------------|
C|-5--5--5--5--5--5--5--5--5--5--5--5--5--5--5--5--|-0--0--0--0--0--0--0--0--0--0--0--0--0--0--0--0--|


F|-------------------------------------------------|-------------------------------------------------|
C|-------------------------------------------------|-------------------------------------------------|
G|-------------------------------------------------|-3--3--3--3--3--3--3--3--3--3--3--3--3--3--3--3--|
C|-2--2--2--2--2--2--2--2--2--2--2--2--2--2--2--2--|-------------------------------------------------|


F|-------------------------------------------------|-------------------------------------------------|
C|-------------------------------------------------|-------------------------------------------------|
G|-------------------------------------------------|-------------------------------------------------|
C|-5--5--5--5--5--5--5--5--5--5--5--5--5--5--5--5--|-0--0--0--0--0--0--0--0--0--0--0--0--0--0--0--0--|


F|-------------------------------|------------------------------------------|-------------------------------|
C|-------------------------------|------------------------------------------|-------------------------------|
G|-------------------------------|-3----3--3--3--3--7--7--7--7--5--5--5--5--|-------------------------------|
C|-2----2--2--2----2--2--2---2---|------------------------------------------|-5----5--5--5----5--5--5---5---|


F|----------------------------------------|-------------------------------|------------------------------------------|
C|----------------------------------------|-------------------------------|------------------------------------------|
G|----------------9--9--9--9--9--9--9--9--|-------------------------------|-3----3--3--3--3--7--7--7--7--5--5--5--5--|
C|-0----0--0--0---------------------------|-2----2--2--2----2--2--2---2---|------------------------------------------|


F|-------------------------------|----------------------------------------|-----------------|
C|-------------------------------|----------------------------------------|-----------------|
G|-------------------------------|----------------9--9--9--9--9--9--9--9--|-----------------|
C|-5----5--5--5----5--5--5---5---|-0----0--0--0---------------------------|-2-----2---2-----|


F|--------------------|--------------------|-----------------------------|--------------------|
C|--------------------|--------------------|-----------------------------|--------------------|
G|-3---3----3---3-----|--------------------|-----------------------------|--------------------|
C|--------------------|-7---7----7---7-----|-5----5----5---0----0----0---|-2---2----2---2-----|


F|--------------------|--------------------|---------------------|--------|--------|
C|--------------------|--------------------|---------------------|--------|--------|
G|-3---3----3---3-----|--------------------|---------------------|--------|--------|
C|--------------------|-7---7----7---7-----|-5----5----0----0----|-2------|-2------|


F|--------|--------|--------|--------|--------|--------|--------|--------|--------|
C|--------|--------|--------|--------|--------|--------|--------|--------|--------|
G|--------|--------|--------|--------|--------|--------|--------|--------|--------|
C|-2------|--------|--------|--------|--------|--------|--------|--------|--------|


F|--------|--------|-------------------------------------------------|-------------------------------------------------|
C|--------|--------|-------------------------------------------------|-------------------------------------------------|
G|--------|--------|-------------------------------------------------|-------------------------------------------------|
C|--------|--------|-10-10-10-10-10-10-10-10-10-10-10-10-10-10-10-10-|-0--0--0--0--0--0--0--0--0--0--0--0--0--0--0--0--|


F|-------------------------------------------------|-------------------------------------------------|
C|-------------------------------------------------|-------------------------------------------------|
G|-------------------------------------------------|-------------------------------------------------|
C|-2--2--2--2--2--2--2--2--2--2--2--2--2--2--2--2--|-5--5--5--5--5--5--5--5--5--5--5--5--5--5--5--5--|


F|-------------------------------------------------|-------------------------------------------------|
C|-------------------------------------------------|-------------------------------------------------|
G|-------------------------------------------------|-------------------------------------------------|
C|-10-10-10-10-10-10-10-10-10-10-10-10-10-10-10-10-|-0--0--0--0--0--0--0--0--0--0--0--0--0--0--0--0--|


F|-------------------------------------------------|-------------------------------------------------|
C|-------------------------------------------------|-------------------------------------------------|
G|-------------------------------------------------|-------------------------------------------------|
C|-2--2--2--2--2--2--2--2--2--2--2--2--2--2--2--2--|-5--5--5--5--5--5--5--5--5--5--5--5--5--5--5--5--|


F|-------------------------------------------------|-------------------------------------------------|
C|-------------------------------------------------|-------------------------------------------------|
G|-------------------------------------------------|-------------------------------------------------|
C|-10-10-10-10-10-10-10-10-10-10-10-10-10-10-10-10-|-0--0--0--0--0--0--0--0--0--0--0--0--0--0--0--0--|


F|-------------------------------------------------|-------------------------------------------------|
C|-------------------------------------------------|-------------------------------------------------|
G|-------------------------------------------------|-------------------------------------------------|
C|-2--2--2--2--2--2--2--2--2--2--2--2--2--2--2--2--|-5--5--5--5--5--5--5--5--5--5--5--5--5--5--5--5--|


F|-------------------------------------------------|-------------------------------------------------|
C|-------------------------------------------------|-------------------------------------------------|
G|-------------------------------------------------|-------------------------------------------------|
C|-10-10-10-10-10-10-10-10-10-10-10-10-10-10-10-10-|-0--0--0--0--0--0--0--0--0--0--0--0--0--0--0--0--|


F|-------------------------------------------------|-------------------------------------------------|
C|-------------------------------------------------|-------------------------------------------------|
G|-------------------------------------------------|-------------------------------------------------|
C|-2--2--2--2--2--2--2--2--2--2--2--2--2--2--2--2--|-5--5--5--5--5--5--5--5--5--5--5--5--5--5--5--5--|


F|-----------------------------------------|-----------------------------------------|
C|-----------------------------------------|-----------------------------------------|
G|-----------------------------------------|-----------------------------------------|
C|-10--10-10-10--10-10-10--10-10-10--10-10-|-0---0--0--0---0--0--0---0--0--0---0--0--|


F|-----------------------------------------|---------------------------------------|
C|-----------------------------------------|---------------------------------------|
G|-----------------------------------------|---------------------------------------|
C|-2---2--2--2---2--2--2---2--2--2---2--2--|-5---5--5--5---5--5--5--5---5---5--5---|


F|-----------------------------------------|-----------------------------------------|
C|-----------------------------------------|-----------------------------------------|
G|-----------------------------------------|-----------------------------------------|
C|-10--10-10-10--10-10-10--10-10-10--10-10-|-0---0--0--0---0--0--0---0--0--0---0--0--|


F|-----------------------------------------|-------------------------------------------|
C|-----------------------------------------|-------------------------------------------|
G|-----------------------------------------|-------------------------------------------|
C|-2---2--2--2---2--2--2---2--2--2---2--2--|-5--5--5--5------5--5--5--5------5--5------|


F|--------|--------|--------|--------|--------|--------|--------|--------|--------|
C|--------|--------|--------|--------|--------|--------|--------|--------|--------|
G|--------|--------|--------|--------|--------|--------|--------|--------|--------|
C|-10-----|-10-----|-10-----|-10-----|-10-----|-10-----|-10-----|-10-----|--------|


F|--------|--------|--------|--------|--------|--------|--------|--------|--------|
C|--------|--------|--------|--------|--------|--------|--------|--------|--------|
G|--------|--------|--------|--------|--------|--------|--------|--------|--------|
C|--------|--------|--------|--------|--------|--------|--------|--------|--------|


F|--------|--------|--------|--------|--------|--------|--------|--------|--------|
C|--------|--------|--------|--------|--------|--------|--------|--------|--------|
G|--------|--------|--------|--------|--------|--------|--------|--------|--------|
C|--------|--------|--------|--------|--------|--------|--------|--------|--------|


F|--------|
C|--------|
G|--------|
C|--------|