Menu:

 

Search:

 

louise attaque - jtemmène au vent:

 



Title: J't'emmne Au Vent
Artist: 
Album: Louise Attaque
Author: 


Track 1: Violn

E|-----------------|---------------------------------------|---------------------------------------|
B|-----------------|-0---0--0--0---0--0--0---0--0--0---0---|-0---0--0--0---0--0--0---0--0--0---0---|
G|------------1----|-1---1--1--1---1--1--1---1--1--1---1---|---------------------------------------|
D|-----------------|---------------------------------------|-4---4--4--4---4--4--4---4--4--4---4---|
A|-----------------|---------------------------------------|---------------------------------------|
E|-----------------|---------------------------------------|---------------------------------------|


E|---------------------------------------|---------------------------------------|
B|-0---0--0--0---0--0--0---0--0--0---0---|-0---0--0--0---0--0--0---0--0--0---0---|
G|-1---1--1--1---1--1--1---1--1--1---1---|---------------------------------------|
D|---------------------------------------|-4---4--4--4---4--4--4---4--4--4---4---|
A|---------------------------------------|---------------------------------------|
E|---------------------------------------|---------------------------------------|


E|---------------------------------------|---------------------------------------|
B|-0---0--0--0---0--0--0---0--0--0---0---|-0---0--0--0---0--0--0---0--0--0---0---|
G|-1---1--1--1---1--1--1---1--1--1---1---|---------------------------------------|
D|---------------------------------------|-4---4--4--4---4--4--4---4--4--4---4---|
A|---------------------------------------|---------------------------------------|
E|---------------------------------------|---------------------------------------|


E|---------------------------------------|---------------------------------------|
B|-0---0--0--0---0--0--0---0--0--0---0---|-0---0--0--0---0--0--0---0--0--0---0---|
G|-1---1--1--1---1--1--1---1--1--1---1---|---------------------------------------|
D|---------------------------------------|-4---4--4--4---4--4--4---4--4--4---4---|
A|---------------------------------------|---------------------------------------|
E|---------------------------------------|---------------------------------------|


E|---------------------------------------|---------------------------------------|
B|-0---0--0--0---0--0--0---0--0--0---0---|-0---0--0--0---0--0--0---0--0--0---0---|
G|-1---1--1--1---1--1--1---1--1--1---1---|-1---1--1--1---1--1--1---1--1--1---1---|
D|---------------------------------------|---------------------------------------|
A|---------------------------------------|---------------------------------------|
E|---------------------------------------|---------------------------------------|


E|---------------------------------------|-----------------|---------------------------------------|
B|-0---0--0--0---0--0--0---0--0--0---0---|-----------------|-0---0--0--0---0--0--0---0--0--0---0---|
G|---------------------------------------|-2---------------|-1---1--1--1---1--1--1---1--1--1---1---|
D|-4---4--4--4---4--4--4---4--4--4---4---|-4---------------|---------------------------------------|
A|---------------------------------------|-----------------|---------------------------------------|
E|---------------------------------------|-----------------|---------------------------------------|


E|---------------------------------------|---------------------------------------|
B|-0---0--0--0---0--0--0---0--0--0---0---|-0---0--0--0---0--0--0---0--0--0---0---|
G|---------------------------------------|-1---1--1--1---1--1--1---1--1--1---1---|
D|-4---4--4--4---4--4--4---4--4--4---4---|---------------------------------------|
A|---------------------------------------|---------------------------------------|
E|---------------------------------------|---------------------------------------|


E|---------------------------------------|---------------------------------------|
B|-0---0--0--0---0--0--0---0--0--0---0---|-0---0--0--0---0--0--0---0--0--0---0---|
G|---------------------------------------|-1---1--1--1---1--1--1---1--1--1---1---|
D|-4---4--4--4---4--4--4---4--4--4---4---|---------------------------------------|
A|---------------------------------------|---------------------------------------|
E|---------------------------------------|---------------------------------------|


E|---------------------------------------|---------------------------------------|
B|-0---0--0--0---0--0--0---0--0--0---0---|-0---0--0--0---0--0--0---0--0--0---0---|
G|-1---1--1--1---1--1--1---1--1--1---1---|---------------------------------------|
D|---------------------------------------|-4---4--4--4---4--4--4---4--4--4---4---|
A|---------------------------------------|---------------------------------------|
E|---------------------------------------|---------------------------------------|


E|-----------------|---------------------------------------|---------------------------------------|
B|-----------------|-0---0--0--0---0--0--0---0--0--0---0---|-0---0--0--0---0--0--0---0--0--0---0---|
G|-2---------------|-1---1--1--1---1--1--1---1--1--1---1---|---------------------------------------|
D|-4---------------|---------------------------------------|-4---4--4--4---4--4--4---4--4--4---4---|
A|-----------------|---------------------------------------|---------------------------------------|
E|-----------------|---------------------------------------|---------------------------------------|


E|---------------------------------------|---------------------------------------|
B|-0---0--0--0---0--0--0---0--0--0---0---|-0---0--0--0---0--0--0---0--0--0---0---|
G|-1---1--1--1---1--1--1---1--1--1---1---|---------------------------------------|
D|---------------------------------------|-4---4--4--4---4--4--4---4--4--4---4---|
A|---------------------------------------|---------------------------------------|
E|---------------------------------------|---------------------------------------|


E|---------------------------------------|---------------------------------------|
B|-0---0--0--0---0--0--0---0--0--0---0---|-0---0--0--0---0--0--0---0--0--0---0---|
G|-1---1--1--1---1--1--1---1--1--1---1---|-1---1--1--1---1--1--1---1--1--1---1---|
D|---------------------------------------|---------------------------------------|
A|---------------------------------------|---------------------------------------|
E|---------------------------------------|---------------------------------------|


E|---------------------------------------|-----------------|--------|--------|--------|
B|-0---0--0--0---0--0--0---0--0--0---0---|-----------------|--------|--------|--------|
G|---------------------------------------|-2---------------|--------|--------|--------|
D|-4---4--4--4---4--4--4---4--4--4---4---|-4---------------|--------|--------|--------|
A|---------------------------------------|-----------------|--------|--------|--------|
E|---------------------------------------|-----------------|--------|--------|--------|


E|--------|--------|--------|--------|--------|--------|--------|--------|--------|
B|--------|--------|--------|--------|--------|--------|--------|--------|--------|
G|--------|--------|--------|--------|--------|--------|--------|--------|--------|
D|--------|--------|--------|--------|--------|--------|--------|--------|--------|
A|--------|--------|--------|--------|--------|--------|--------|--------|--------|
E|--------|--------|--------|--------|--------|--------|--------|--------|--------|


E|--------|--------|--------|--------|--------|--------|--------|--------|--------|
B|--------|--------|--------|--------|--------|--------|--------|--------|--------|
G|--------|--------|--------|--------|--------|--------|--------|--------|--------|
D|--------|--------|--------|--------|--------|--------|--------|--------|--------|
A|--------|--------|--------|--------|--------|--------|--------|--------|--------|
E|--------|--------|--------|--------|--------|--------|--------|--------|--------|


E|--------|--------|--------|--------|--------|--------|--------|--------|--------|
B|--------|--------|--------|--------|--------|--------|--------|--------|--------|
G|--------|--------|--------|--------|--------|--------|--------|--------|--------|
D|--------|--------|--------|--------|--------|--------|--------|--------|--------|
A|--------|--------|--------|--------|--------|--------|--------|--------|--------|
E|--------|--------|--------|--------|--------|--------|--------|--------|--------|


E|--------|--------|--------|--------|--------|--------|--------|--------|--------|
B|--------|--------|--------|--------|--------|--------|--------|--------|--------|
G|--------|--------|--------|--------|--------|--------|--------|--------|--------|
D|--------|--------|--------|--------|--------|--------|--------|--------|--------|
A|--------|--------|--------|--------|--------|--------|--------|--------|--------|
E|--------|--------|--------|--------|--------|--------|--------|--------|--------|


E|--------|---------------------------------------|---------------------------------------|
B|--------|-0---0--0--0---0--0--0---0--0--0---0---|-0---0--0--0---0--0--0---0--0--0---0---|
G|--------|-1---1--1--1---1--1--1---1--1--1---1---|---------------------------------------|
D|--------|---------------------------------------|-4---4--4--4---4--4--4---4--4--4---4---|
A|--------|---------------------------------------|---------------------------------------|
E|--------|---------------------------------------|---------------------------------------|


E|---------------------------------------|---------------------------------------|
B|-0---0--0--0---0--0--0---0--0--0---0---|-0---0--0--0---0--0--0---0--0--0---0---|
G|-1---1--1--1---1--1--1---1--1--1---1---|---------------------------------------|
D|---------------------------------------|-4---4--4--4---4--4--4---4--4--4---4---|
A|---------------------------------------|---------------------------------------|
E|---------------------------------------|---------------------------------------|


E|---------------------------------------|---------------------------------------|
B|-0---0--0--0---0--0--0---0--0--0---0---|-0---0--0--0---0--0--0---0--0--0---0---|
G|-1---1--1--1---1--1--1---1--1--1---1---|-1---1--1--1---1--1--1---1--1--1---1---|
D|---------------------------------------|---------------------------------------|
A|---------------------------------------|---------------------------------------|
E|---------------------------------------|---------------------------------------|


E|---------------------------------------|---------------------------------------|
B|-0---0--0--0---0--0--0---0--0--0---0---|---------------------------------------|
G|---------------------------------------|-2---2--2--2---2--2--2---2--2--2---2---|
D|-4---4--4--4---4--4--4---4--4--4---4---|-4---4--4--4---4--4--4---4--4--4---4---|
A|---------------------------------------|---------------------------------------|
E|---------------------------------------|---------------------------------------|


E|---------------------------------------|---------------------------------------|
B|-0---0--0--0---0--0--0---0--0--0---0---|-0---0--0--0---0--0--0---0--0--0---0---|
G|-1---1--1--1---1--1--1---1--1--1---1---|---------------------------------------|
D|---------------------------------------|-4---4--4--4---4--4--4---4--4--4---4---|
A|---------------------------------------|---------------------------------------|
E|---------------------------------------|---------------------------------------|


E|---------------------------------------|---------------------------------------|
B|-0---0--0--0---0--0--0---0--0--0---0---|-0---0--0--0---0--0--0---0--0--0---0---|
G|-1---1--1--1---1--1--1---1--1--1---1---|---------------------------------------|
D|---------------------------------------|-4---4--4--4---4--4--4---4--4--4---4---|
A|---------------------------------------|---------------------------------------|
E|---------------------------------------|---------------------------------------|


E|---------------------------------------|---------------------------------------|
B|-0---0--0--0---0--0--0---0--0--0---0---|-0---0--0--0---0--0--0---0--0--0---0---|
G|-1---1--1--1---1--1--1---1--1--1---1---|-1---1--1--1---1--1--1---1--1--1---1---|
D|---------------------------------------|---------------------------------------|
A|---------------------------------------|---------------------------------------|
E|---------------------------------------|---------------------------------------|


E|---------------------------------------|------------------|--------|--------|--------|
B|-0---0--0--0---0--0--0---0--0--0---0---|------------------|--------|--------|--------|
G|---------------------------------------|-2----2-----------|--------|--------|--------|
D|-4---4--4--4---4--4--4---4--4--4---4---|------------------|--------|--------|--------|
A|---------------------------------------|------------------|--------|--------|--------|
E|---------------------------------------|------------------|--------|--------|--------|


E|--------|--------|--------|--------|--------|--------|--------|--------|--------|
B|--------|--------|--------|--------|--------|--------|--------|--------|--------|
G|--------|--------|--------|--------|--------|--------|--------|--------|--------|
D|--------|--------|--------|--------|--------|--------|--------|--------|--------|
A|--------|--------|--------|--------|--------|--------|--------|--------|--------|
E|--------|--------|--------|--------|--------|--------|--------|--------|--------|


E|--------|--------|--------|--------|--------|
B|--------|--------|--------|--------|--------|
G|--------|--------|--------|--------|--------|
D|--------|--------|--------|--------|--------|
A|--------|--------|--------|--------|--------|
E|--------|--------|--------|--------|--------|





Track 2: Acstica

E|--------|--------|--------|--------|--------|--------|--------|--------|--------|
B|--------|--------|--------|--------|--------|--------|--------|--------|--------|
G|--------|--------|--------|--------|--------|--------|--------|--------|--------|
D|--------|--------|--------|--------|--------|--------|--------|--------|--------|
A|--------|--------|--------|--------|--------|--------|--------|--------|--------|
E|--------|--------|--------|--------|--------|--------|--------|--------|--------|


E|--------|--------|--------|--------|-4---4--4--4---4--4--4---4--4--4---4---|-2---2--2--2---2--2--2---2--2--2---2---|
B|--------|--------|--------|--------|-4---4--4--4---4--4--4---4--4--4---4---|-4---4--4--4---4--4--4---4--4--4---4---|
G|--------|--------|--------|--------|-4---4--4--4---4--4--4---4--4--4---4---|-4---4--4--4---4--4--4---4--4--4---4---|
D|--------|--------|--------|--------|-6---6--6--6---6--6--6---6--6--6---6---|-4---4--4--4---4--4--4---4--4--4---4---|
A|--------|--------|--------|--------|-6---6--6--6---6--6--6---6--6--6---6---|-2---2--2--2---2--2--2---2--2--2---2---|
E|--------|--------|--------|--------|-4---4--4--4---4--4--4---4--4--4---4---|---------------------------------------|


E|-4---4--4--4---4--4--4---4--4--4---4---|-2---2--2--2---2--2--2---2--2--2---2---|
B|-4---4--4--4---4--4--4---4--4--4---4---|-4---4--4--4---4--4--4---4--4--4---4---|
G|-4---4--4--4---4--4--4---4--4--4---4---|-4---4--4--4---4--4--4---4--4--4---4---|
D|-6---6--6--6---6--6--6---6--6--6---6---|-4---4--4--4---4--4--4---4--4--4---4---|
A|-6---6--6--6---6--6--6---6--6--6---6---|-2---2--2--2---2--2--2---2--2--2---2---|
E|-4---4--4--4---4--4--4---4--4--4---4---|---------------------------------------|


E|-4---4--4--4---4--4--4---4--4--4---4---|-4---4--4--4---4--4--4---4--4--4---4---|
B|-5---5--5--5---5--5--5---5--5--5---5---|-4---4--4--4---4--4--4---4--4--4---4---|
G|-6---6--6--6---6--6--6---6--6--6---6---|-4---4--4--4---4--4--4---4--4--4---4---|
D|-6---6--6--6---6--6--6---6--6--6---6---|-6---6--6--6---6--6--6---6--6--6---6---|
A|-4---4--4--4---4--4--4---4--4--4---4---|-6---6--6--6---6--6--6---6--6--6---6---|
E|---------------------------------------|-4---4--4--4---4--4--4---4--4--4---4---|


E|-2---2--2--2---2--2--2---2--2--2---2---|-5---------------|-4---4--4--4---4--4--4---4--4--4---4---|
B|-2---2--2--2---2--2--2---2--2--2---2---|-5---------------|-4---4--4--4---4--4--4---4--4--4---4---|
G|-3---3--3--3---3--3--3---3--3--3---3---|-6---------------|-4---4--4--4---4--4--4---4--4--4---4---|
D|-4---4--4--4---4--4--4---4--4--4---4---|-7---------------|-6---6--6--6---6--6--6---6--6--6---6---|
A|-4---4--4--4---4--4--4---4--4--4---4---|-7---------------|-6---6--6--6---6--6--6---6--6--6---6---|
E|-2---2--2--2---2--2--2---2--2--2---2---|-5---------------|-4---4--4--4---4--4--4---4--4--4---4---|


E|-2---2--2--2---2--2--2---2--2--2---2---|-4---4--4--4---4--4--4---4--4--4---4---|
B|-4---4--4--4---4--4--4---4--4--4---4---|-4---4--4--4---4--4--4---4--4--4---4---|
G|-4---4--4--4---4--4--4---4--4--4---4---|-4---4--4--4---4--4--4---4--4--4---4---|
D|-4---4--4--4---4--4--4---4--4--4---4---|-6---6--6--6---6--6--6---6--6--6---6---|
A|-2---2--2--2---2--2--2---2--2--2---2---|-6---6--6--6---6--6--6---6--6--6---6---|
E|---------------------------------------|-4---4--4--4---4--4--4---4--4--4---4---|


E|-2---2--2--2---2--2--2---2--2--2---2---|-4---4--4--4---4--4--4---4--4--4---4---|
B|-4---4--4--4---4--4--4---4--4--4---4---|-5---5--5--5---5--5--5---5--5--5---5---|
G|-4---4--4--4---4--4--4---4--4--4---4---|-6---6--6--6---6--6--6---6--6--6---6---|
D|-4---4--4--4---4--4--4---4--4--4---4---|-6---6--6--6---6--6--6---6--6--6---6---|
A|-2---2--2--2---2--2--2---2--2--2---2---|-4---4--4--4---4--4--4---4--4--4---4---|
E|---------------------------------------|---------------------------------------|


E|-4---4--4--4---4--4--4---4--4--4---4---|-2---2--2--2---2--2--2---2--2--2---2---|
B|-4---4--4--4---4--4--4---4--4--4---4---|-2---2--2--2---2--2--2---2--2--2---2---|
G|-4---4--4--4---4--4--4---4--4--4---4---|-3---3--3--3---3--3--3---3--3--3---3---|
D|-6---6--6--6---6--6--6---6--6--6---6---|-4---4--4--4---4--4--4---4--4--4---4---|
A|-6---6--6--6---6--6--6---6--6--6---6---|-4---4--4--4---4--4--4---4--4--4---4---|
E|-4---4--4--4---4--4--4---4--4--4---4---|-2---2--2--2---2--2--2---2--2--2---2---|


E|-5---------------|--------|--------|--------|--------|--------|--------|--------|
B|-5---------------|--------|--------|--------|--------|--------|--------|--------|
G|-6---------------|--------|--------|--------|--------|--------|--------|--------|
D|-7---------------|--------|--------|--------|--------|--------|--------|--------|
A|-7---------------|--------|--------|--------|--------|--------|--------|--------|
E|-5---------------|--------|--------|--------|--------|--------|--------|--------|


E|--------|--------|--------|--------|--------|--------|--------|--------|--------|
B|--------|--------|--------|--------|--------|--------|--------|--------|--------|
G|--------|--------|--------|--------|--------|--------|--------|--------|--------|
D|--------|--------|--------|--------|--------|--------|--------|--------|--------|
A|--------|--------|--------|--------|--------|--------|--------|--------|--------|
E|--------|--------|--------|--------|--------|--------|--------|--------|--------|


E|--------|--------|--------|--------|--------|--------|--------|--------|--------|
B|--------|--------|--------|--------|--------|--------|--------|--------|--------|
G|--------|--------|--------|--------|--------|--------|--------|--------|--------|
D|--------|--------|--------|--------|--------|--------|--------|--------|--------|
A|--------|--------|--------|--------|--------|--------|--------|--------|--------|
E|--------|--------|--------|--------|--------|--------|--------|--------|--------|


E|--------|--------|--------|--------|--------|--------|--------|--------|--------|
B|--------|--------|--------|--------|--------|--------|--------|--------|--------|
G|--------|--------|--------|--------|--------|--------|--------|--------|--------|
D|--------|--------|--------|--------|--------|--------|--------|--------|--------|
A|--------|--------|--------|--------|--------|--------|--------|--------|--------|
E|--------|--------|--------|--------|--------|--------|--------|--------|--------|


E|--------|--------|--------|--------|--------|--------|-4---4--4--4---4--4--4---4--4--4---4---|
B|--------|--------|--------|--------|--------|--------|-4---4--4--4---4--4--4---4--4--4---4---|
G|--------|--------|--------|--------|--------|--------|-4---4--4--4---4--4--4---4--4--4---4---|
D|--------|--------|--------|--------|--------|--------|-6---6--6--6---6--6--6---6--6--6---6---|
A|--------|--------|--------|--------|--------|--------|-6---6--6--6---6--6--6---6--6--6---6---|
E|--------|--------|--------|--------|--------|--------|-4---4--4--4---4--4--4---4--4--4---4---|


E|-2---2--2--2---2--2--2---2--2--2---2---|-4---4--4--4---4--4--4---4--4--4---4---|
B|-4---4--4--4---4--4--4---4--4--4---4---|-4---4--4--4---4--4--4---4--4--4---4---|
G|-4---4--4--4---4--4--4---4--4--4---4---|-4---4--4--4---4--4--4---4--4--4---4---|
D|-4---4--4--4---4--4--4---4--4--4---4---|-6---6--6--6---6--6--6---6--6--6---6---|
A|-2---2--2--2---2--2--2---2--2--2---2---|-6---6--6--6---6--6--6---6--6--6---6---|
E|---------------------------------------|-4---4--4--4---4--4--4---4--4--4---4---|


E|-2---2--2--2---2--2--2---2--2--2---2---|-4---4--4--4---4--4--4---4--4--4---4---|
B|-4---4--4--4---4--4--4---4--4--4---4---|-5---5--5--5---5--5--5---5--5--5---5---|
G|-4---4--4--4---4--4--4---4--4--4---4---|-6---6--6--6---6--6--6---6--6--6---6---|
D|-4---4--4--4---4--4--4---4--4--4---4---|-6---6--6--6---6--6--6---6--6--6---6---|
A|-2---2--2--2---2--2--2---2--2--2---2---|-4---4--4--4---4--4--4---4--4--4---4---|
E|---------------------------------------|---------------------------------------|


E|-4---4--4--4---4--4--4---4--4--4---4---|-2---2--2--2---2--2--2---2--2--2---2---|
B|-4---4--4--4---4--4--4---4--4--4---4---|-2---2--2--2---2--2--2---2--2--2---2---|
G|-4---4--4--4---4--4--4---4--4--4---4---|-3---3--3--3---3--3--3---3--3--3---3---|
D|-6---6--6--6---6--6--6---6--6--6---6---|-4---4--4--4---4--4--4---4--4--4---4---|
A|-6---6--6--6---6--6--6---6--6--6---6---|-4---4--4--4---4--4--4---4--4--4---4---|
E|-4---4--4--4---4--4--4---4--4--4---4---|-2---2--2--2---2--2--2---2--2--2---2---|


E|-5---5--5--5---5--5--5---5--5--5---5---|-4---4--4--4---4--4--4---4--4--4---4---|
B|-5---5--5--5---5--5--5---5--5--5---5---|-4---4--4--4---4--4--4---4--4--4---4---|
G|-6---6--6--6---6--6--6---6--6--6---6---|-4---4--4--4---4--4--4---4--4--4---4---|
D|-7---7--7--7---7--7--7---7--7--7---7---|-6---6--6--6---6--6--6---6--6--6---6---|
A|-7---7--7--7---7--7--7---7--7--7---7---|-6---6--6--6---6--6--6---6--6--6---6---|
E|-5---5--5--5---5--5--5---5--5--5---5---|-4---4--4--4---4--4--4---4--4--4---4---|


E|-2---2--2--2---2--2--2---2--2--2---2---|-4---4--4--4---4--4--4---4--4--4---4---|
B|-4---4--4--4---4--4--4---4--4--4---4---|-4---4--4--4---4--4--4---4--4--4---4---|
G|-4---4--4--4---4--4--4---4--4--4---4---|-4---4--4--4---4--4--4---4--4--4---4---|
D|-4---4--4--4---4--4--4---4--4--4---4---|-6---6--6--6---6--6--6---6--6--6---6---|
A|-2---2--2--2---2--2--2---2--2--2---2---|-6---6--6--6---6--6--6---6--6--6---6---|
E|---------------------------------------|-4---4--4--4---4--4--4---4--4--4---4---|


E|-2---2--2--2---2--2--2---2--2--2---2---|-4---4--4--4---4--4--4---4--4--4---4---|
B|-4---4--4--4---4--4--4---4--4--4---4---|-5---5--5--5---5--5--5---5--5--5---5---|
G|-4---4--4--4---4--4--4---4--4--4---4---|-6---6--6--6---6--6--6---6--6--6---6---|
D|-4---4--4--4---4--4--4---4--4--4---4---|-6---6--6--6---6--6--6---6--6--6---6---|
A|-2---2--2--2---2--2--2---2--2--2---2---|-4---4--4--4---4--4--4---4--4--4---4---|
E|---------------------------------------|---------------------------------------|


E|-4---4--4--4---4--4--4---4--4--4---4---|-2---2--2--2---2--2--2---2--2--2---2---|
B|-4---4--4--4---4--4--4---4--4--4---4---|-2---2--2--2---2--2--2---2--2--2---2---|
G|-4---4--4--4---4--4--4---4--4--4---4---|-3---3--3--3---3--3--3---3--3--3---3---|
D|-6---6--6--6---6--6--6---6--6--6---6---|-4---4--4--4---4--4--4---4--4--4---4---|
A|-6---6--6--6---6--6--6---6--6--6---6---|-4---4--4--4---4--4--4---4--4--4---4---|
E|-4---4--4--4---4--4--4---4--4--4---4---|-2---2--2--2---2--2--2---2--2--2---2---|


E|-5-----------|--------|--------|--------|--------|--------|--------|--------|--------|
B|-5-----------|--------|--------|--------|--------|--------|--------|--------|--------|
G|-6-----------|--------|--------|--------|--------|--------|--------|--------|--------|
D|-7-----------|--------|--------|--------|--------|--------|--------|--------|--------|
A|-7-----------|--------|--------|--------|--------|--------|--------|--------|--------|
E|-5-----------|--------|--------|--------|--------|--------|--------|--------|--------|


E|--------|--------|--------|--------|--------|--------|--------|--------|--------|
B|--------|--------|--------|--------|--------|--------|--------|--------|--------|
G|--------|--------|--------|--------|--------|--------|--------|--------|--------|
D|--------|--------|--------|--------|--------|--------|--------|--------|--------|
A|--------|--------|--------|--------|--------|--------|--------|--------|--------|
E|--------|--------|--------|--------|--------|--------|--------|--------|--------|





Track 3: Violin Solo

E|--------|--------|--------|--------|--------|--------|--------|--------|--------|
B|--------|--------|--------|--------|--------|--------|--------|--------|--------|
G|--------|--------|--------|--------|--------|--------|--------|--------|--------|
D|--------|--------|--------|--------|--------|--------|--------|--------|--------|
A|--------|--------|--------|--------|--------|--------|--------|--------|--------|
E|--------|--------|--------|--------|--------|--------|--------|--------|--------|


E|--------|--------|--------|--------|--------|--------|--------|--------|--------|
B|--------|--------|--------|--------|--------|--------|--------|--------|--------|
G|--------|--------|--------|--------|--------|--------|--------|--------|--------|
D|--------|--------|--------|--------|--------|--------|--------|--------|--------|
A|--------|--------|--------|--------|--------|--------|--------|--------|--------|
E|--------|--------|--------|--------|--------|--------|--------|--------|--------|


E|--------|--------|--------|--------|--------|--------|--------|--------|--------|
B|--------|--------|--------|--------|--------|--------|--------|--------|--------|
G|--------|--------|--------|--------|--------|--------|--------|--------|--------|
D|--------|--------|--------|--------|--------|--------|--------|--------|--------|
A|--------|--------|--------|--------|--------|--------|--------|--------|--------|
E|--------|--------|--------|--------|--------|--------|--------|--------|--------|


E|--------|--------|---------------------------------------|---------------------------------------|
B|--------|--------|-0---0--0--0---0--0--0---0--0--0---0---|-0---0--0--0---0--0--0---0--0--0---0---|
G|--------|--------|-1---1--1--1---1--1--1---1--1--1---1---|---------------------------------------|
D|--------|--------|---------------------------------------|-4---4--4--4---4--4--4---4--4--4---4---|
A|--------|--------|---------------------------------------|---------------------------------------|
E|--------|--------|---------------------------------------|---------------------------------------|


E|---------------------------------------|---------------------------------------|
B|-0---0--0--0---0--0--0---0--0--0---0---|-0---0--0--0---0--0--0---0--0--0---0---|
G|-1---1--1--1---1--1--1---1--1--1---1---|---------------------------------------|
D|---------------------------------------|-4---4--4--4---4--4--4---4--4--4---4---|
A|---------------------------------------|---------------------------------------|
E|---------------------------------------|---------------------------------------|


E|---------------------------------------|---------------------------------------|
B|-0---0--0--0---0--0--0---0--0--0---0---|-0---0--0--0---0--0--0---0--0--0---0---|
G|-1---1--1--1---1--1--1---1--1--1---1---|-1---1--1--1---1--1--1---1--1--1---1---|
D|---------------------------------------|---------------------------------------|
A|---------------------------------------|---------------------------------------|
E|---------------------------------------|---------------------------------------|


E|---------------------------------------|-------------------------------|-----------------------0------|
B|-0---0--0--0---0--0--0---0--0--0---0---|---------------------0---------|-------4----4---4---4-----2---|
G|---------------------------------------|------2----2----2---------2----|-1----------------------------|
D|-4---4--4--4---4--4--4---4--4--4---4---|-------------------------------|------------------------------|
A|---------------------------------------|-------------------------------|------------------------------|
E|---------------------------------------|-------------------------------|------------------------------|


E|-------------------------------|---------------------------0------|-------------------------------|
B|-4----0----0----2----0---------|-0----4----4----4---4---4-----2---|-4----0----0----2----0---------|
G|--------------------------3----|----------------------------------|--------------------------3----|
D|-------------------------------|----------------------------------|-------------------------------|
A|-------------------------------|----------------------------------|-------------------------------|
E|-------------------------------|----------------------------------|-------------------------------|


E|-------------------------------|-------------------------------|---------------------------|
B|-0--------------0---------0----|------0---------0---------0----|-----------0---0-----------|
G|------1----1---------1---------|-1---------1---------1---------|-3-----3-----------1---1---|
D|-------------------------------|-------------------------------|---------------------------|
A|-------------------------------|-------------------------------|---------------------------|
E|-------------------------------|-------------------------------|---------------------------|


E|-------------------------------|-----------------------0------|-------------------------------|
B|---------------------0---------|-------4----4---4---4-----2---|-4----0----0----2----0---------|
G|-2----2----2----2---------2----|-1----------------------------|--------------------------3----|
D|-------------------------------|------------------------------|-------------------------------|
A|-------------------------------|------------------------------|-------------------------------|
E|-------------------------------|------------------------------|-------------------------------|


E|---------------------------0------|-------------------------------|-------------------------------|
B|-0----4----4----4---4---4-----2---|-4----0----0----2----0---------|-0--------------0---------0----|
G|----------------------------------|--------------------------3----|------1----1---------1---------|
D|----------------------------------|-------------------------------|-------------------------------|
A|----------------------------------|-------------------------------|-------------------------------|
E|----------------------------------|-------------------------------|-------------------------------|


E|-------------------------------|---------------------------|-----------------|--------|
B|------0---------0---------0----|-----------0---0-----------|-----------------|--------|
G|-1---------1---------1---------|-3-----3-----------1---1---|-2---------------|--------|
D|-------------------------------|---------------------------|-----------------|--------|
A|-------------------------------|---------------------------|-----------------|--------|
E|-------------------------------|---------------------------|-----------------|--------|


E|--------|--------|--------|--------|--------|--------|--------|--------|--------|
B|--------|--------|--------|--------|--------|--------|--------|--------|--------|
G|--------|--------|--------|--------|--------|--------|--------|--------|--------|
D|--------|--------|--------|--------|--------|--------|--------|--------|--------|
A|--------|--------|--------|--------|--------|--------|--------|--------|--------|
E|--------|--------|--------|--------|--------|--------|--------|--------|--------|


E|--------|--------|--------|--------|--------|--------|--------|--------|--------|
B|--------|--------|--------|--------|--------|--------|--------|--------|--------|
G|--------|--------|--------|--------|--------|--------|--------|--------|--------|
D|--------|--------|--------|--------|--------|--------|--------|--------|--------|
A|--------|--------|--------|--------|--------|--------|--------|--------|--------|
E|--------|--------|--------|--------|--------|--------|--------|--------|--------|


E|--------|--------|--------|--------|--------|--------|--------|--------|--------|
B|--------|--------|--------|--------|--------|--------|--------|--------|--------|
G|--------|--------|--------|--------|--------|--------|--------|--------|--------|
D|--------|--------|--------|--------|--------|--------|--------|--------|--------|
A|--------|--------|--------|--------|--------|--------|--------|--------|--------|
E|--------|--------|--------|--------|--------|--------|--------|--------|--------|


E|--------|--------|--------|---------------------------|-----------------------0------|
B|--------|--------|--------|-----------------0---------|-------4----4---4---4-----2---|
G|--------|--------|--------|-------2----2---------2----|-1----------------------------|
D|--------|--------|--------|---------------------------|------------------------------|
A|--------|--------|--------|---------------------------|------------------------------|
E|--------|--------|--------|---------------------------|------------------------------|


E|-------------------------------|---------------------------0------|-------------------------------|
B|-4----0----0----2----0---------|-0----4----4----4---4---4-----2---|-4----0----0----2----0---------|
G|--------------------------3----|----------------------------------|--------------------------3----|
D|-------------------------------|----------------------------------|-------------------------------|
A|-------------------------------|----------------------------------|-------------------------------|
E|-------------------------------|----------------------------------|-------------------------------|


E|-------------------------------|-------------------------------|---------------------------|
B|-0--------------0---------0----|------0---------0---------0----|-----------0---0-----------|
G|------1----1---------1---------|-1---------1---------1---------|-3-----3-----------1---1---|
D|-------------------------------|-------------------------------|---------------------------|
A|-------------------------------|-------------------------------|---------------------------|
E|-------------------------------|-------------------------------|---------------------------|


E|-------------------------------|-----------------------0------|-------------------------------|
B|---------------------0---------|-------4----4---4---4-----2---|-4----0----0----2----0---------|
G|-2----2----2----2---------2----|-1----------------------------|--------------------------3----|
D|-------------------------------|------------------------------|-------------------------------|
A|-------------------------------|------------------------------|-------------------------------|
E|-------------------------------|------------------------------|-------------------------------|


E|---------------------------0------|-------------------------------|-------------------------------|
B|-0----4----4----4---4---4-----2---|-4----0----0----2----0---------|-0--------------0---------0----|
G|----------------------------------|--------------------------3----|------1----1---------1---------|
D|----------------------------------|-------------------------------|-------------------------------|
A|----------------------------------|-------------------------------|-------------------------------|
E|----------------------------------|-------------------------------|-------------------------------|


E|-------------------------------|---------------------------|-------------------------------|
B|------0---------0---------0----|-----------0---0-----------|---------------------0---------|
G|-1---------1---------1---------|-3-----3-----------1---1---|-2----2----2----2---------2----|
D|-------------------------------|---------------------------|-------------------------------|
A|-------------------------------|---------------------------|-------------------------------|
E|-------------------------------|---------------------------|-------------------------------|


E|--------|
B|--------|
G|-1------|
D|--------|
A|--------|
E|--------|





Track 4: Acstica

E|--------|--------|--------|--------|--------|--------|--------|--------|--------|
B|--------|--------|--------|--------|--------|--------|--------|--------|--------|
G|--------|--------|--------|--------|--------|--------|--------|--------|--------|
D|--------|--------|--------|--------|--------|--------|--------|--------|--------|
A|--------|--------|--------|--------|--------|--------|--------|--------|--------|
E|--------|--------|--------|--------|--------|--------|--------|--------|--------|


E|--------|--------|--------|--------|--------|--------|--------|--------|--------|
B|--------|--------|--------|--------|--------|--------|--------|--------|--------|
G|--------|--------|--------|--------|--------|--------|--------|--------|--------|
D|--------|--------|--------|--------|--------|--------|--------|--------|--------|
A|--------|--------|--------|--------|--------|--------|--------|--------|--------|
E|--------|--------|--------|--------|--------|--------|--------|--------|--------|


E|--------|--------|--------|--------|--------|--------|--------|--------|--------|
B|--------|--------|--------|--------|--------|--------|--------|--------|--------|
G|--------|--------|--------|--------|--------|--------|--------|--------|--------|
D|--------|--------|--------|--------|--------|--------|--------|--------|--------|
A|--------|--------|--------|--------|--------|--------|--------|--------|--------|
E|--------|--------|--------|--------|--------|--------|--------|--------|--------|


E|--------|--------|-4---4--4--4---4--4--4---4--4--4---4---|-2---2--2--2---2--2--2---2--2--2---2---|
B|--------|--------|-4---4--4--4---4--4--4---4--4--4---4---|-4---4--4--4---4--4--4---4--4--4---4---|
G|--------|--------|-4---4--4--4---4--4--4---4--4--4---4---|-4---4--4--4---4--4--4---4--4--4---4---|
D|--------|--------|-6---6--6--6---6--6--6---6--6--6---6---|-4---4--4--4---4--4--4---4--4--4---4---|
A|--------|--------|-6---6--6--6---6--6--6---6--6--6---6---|-2---2--2--2---2--2--2---2--2--2---2---|
E|--------|--------|-4---4--4--4---4--4--4---4--4--4---4---|---------------------------------------|


E|-4---4--4--4---4--4--4---4--4--4---4---|-2---2--2--2---2--2--2---2--2--2---2---|
B|-4---4--4--4---4--4--4---4--4--4---4---|-4---4--4--4---4--4--4---4--4--4---4---|
G|-4---4--4--4---4--4--4---4--4--4---4---|-4---4--4--4---4--4--4---4--4--4---4---|
D|-6---6--6--6---6--6--6---6--6--6---6---|-4---4--4--4---4--4--4---4--4--4---4---|
A|-6---6--6--6---6--6--6---6--6--6---6---|-2---2--2--2---2--2--2---2--2--2---2---|
E|-4---4--4--4---4--4--4---4--4--4---4---|---------------------------------------|


E|-4---4--4--4---4--4--4---4--4--4---4---|-4---4--4--4---4--4--4---4--4--4---4---|
B|-5---5--5--5---5--5--5---5--5--5---5---|-4---4--4--4---4--4--4---4--4--4---4---|
G|-6---6--6--6---6--6--6---6--6--6---6---|-4---4--4--4---4--4--4---4--4--4---4---|
D|-6---6--6--6---6--6--6---6--6--6---6---|-6---6--6--6---6--6--6---6--6--6---6---|
A|-4---4--4--4---4--4--4---4--4--4---4---|-6---6--6--6---6--6--6---6--6--6---6---|
E|---------------------------------------|-4---4--4--4---4--4--4---4--4--4---4---|


E|-2---2--2--2---2--2--2---2--2--2---2---|-5---------------|-4---4--4--4---4--4--4---4--4--4---4---|
B|-2---2--2--2---2--2--2---2--2--2---2---|-5---------------|-4---4--4--4---4--4--4---4--4--4---4---|
G|-3---3--3--3---3--3--3---3--3--3---3---|-6---------------|-4---4--4--4---4--4--4---4--4--4---4---|
D|-4---4--4--4---4--4--4---4--4--4---4---|-7---------------|-6---6--6--6---6--6--6---6--6--6---6---|
A|-4---4--4--4---4--4--4---4--4--4---4---|-7---------------|-6---6--6--6---6--6--6---6--6--6---6---|
E|-2---2--2--2---2--2--2---2--2--2---2---|-5---------------|-4---4--4--4---4--4--4---4--4--4---4---|


E|-2---2--2--2---2--2--2---2--2--2---2---|-4---4--4--4---4--4--4---4--4--4---4---|
B|-4---4--4--4---4--4--4---4--4--4---4---|-4---4--4--4---4--4--4---4--4--4---4---|
G|-4---4--4--4---4--4--4---4--4--4---4---|-4---4--4--4---4--4--4---4--4--4---4---|
D|-4---4--4--4---4--4--4---4--4--4---4---|-6---6--6--6---6--6--6---6--6--6---6---|
A|-2---2--2--2---2--2--2---2--2--2---2---|-6---6--6--6---6--6--6---6--6--6---6---|
E|---------------------------------------|-4---4--4--4---4--4--4---4--4--4---4---|


E|-2---2--2--2---2--2--2---2--2--2---2---|-4---4--4--4---4--4--4---4--4--4---4---|
B|-4---4--4--4---4--4--4---4--4--4---4---|-5---5--5--5---5--5--5---5--5--5---5---|
G|-4---4--4--4---4--4--4---4--4--4---4---|-6---6--6--6---6--6--6---6--6--6---6---|
D|-4---4--4--4---4--4--4---4--4--4---4---|-6---6--6--6---6--6--6---6--6--6---6---|
A|-2---2--2--2---2--2--2---2--2--2---2---|-4---4--4--4---4--4--4---4--4--4---4---|
E|---------------------------------------|---------------------------------------|


E|-4---4--4--4---4--4--4---4--4--4---4---|-2---2--2--2---2--2--2---2--2--2---2---|
B|-4---4--4--4---4--4--4---4--4--4---4---|-2---2--2--2---2--2--2---2--2--2---2---|
G|-4---4--4--4---4--4--4---4--4--4---4---|-3---3--3--3---3--3--3---3--3--3---3---|
D|-6---6--6--6---6--6--6---6--6--6---6---|-4---4--4--4---4--4--4---4--4--4---4---|
A|-6---6--6--6---6--6--6---6--6--6---6---|-4---4--4--4---4--4--4---4--4--4---4---|
E|-4---4--4--4---4--4--4---4--4--4---4---|-2---2--2--2---2--2--2---2--2--2---2---|


E|-5---------------|-4---4--4--4---4--4--4---4--4--4---4---|-2---2--2--2---2--2--2---2--2--2---2---|
B|-5---------------|-4---4--4--4---4--4--4---4--4--4---4---|-4---4--4--4---4--4--4---4--4--4---4---|
G|-6---------------|-4---4--4--4---4--4--4---4--4--4---4---|-4---4--4--4---4--4--4---4--4--4---4---|
D|-7---------------|-6---6--6--6---6--6--6---6--6--6---6---|-4---4--4--4---4--4--4---4--4--4---4---|
A|-7---------------|-6---6--6--6---6--6--6---6--6--6---6---|-2---2--2--2---2--2--2---2--2--2---2---|
E|-5---------------|-4---4--4--4---4--4--4---4--4--4---4---|---------------------------------------|


E|-4---4--4--4---4--4--4---4--4--4---4---|-2---2--2--2---2--2--2---2--2--2---2---|
B|-4---4--4--4---4--4--4---4--4--4---4---|-4---4--4--4---4--4--4---4--4--4---4---|
G|-4---4--4--4---4--4--4---4--4--4---4---|-4---4--4--4---4--4--4---4--4--4---4---|
D|-6---6--6--6---6--6--6---6--6--6---6---|-4---4--4--4---4--4--4---4--4--4---4---|
A|-6---6--6--6---6--6--6---6--6--6---6---|-2---2--2--2---2--2--2---2--2--2---2---|
E|-4---4--4--4---4--4--4---4--4--4---4---|---------------------------------------|


E|-4---4--4--4---4--4--4---4--4--4---4---|-4---4--4--4---4--4--4---4--4--4---4---|
B|-5---5--5--5---5--5--5---5--5--5---5---|-4---4--4--4---4--4--4---4--4--4---4---|
G|-6---6--6--6---6--6--6---6--6--6---6---|-4---4--4--4---4--4--4---4--4--4---4---|
D|-6---6--6--6---6--6--6---6--6--6---6---|-6---6--6--6---6--6--6---6--6--6---6---|
A|-4---4--4--4---4--4--4---4--4--4---4---|-6---6--6--6---6--6--6---6--6--6---6---|
E|---------------------------------------|-4---4--4--4---4--4--4---4--4--4---4---|


E|-2---2--2--2---2--2--2---2--2--2---2---|--------|--------|--------|--------|--------|
B|-2---2--2--2---2--2--2---2--2--2---2---|--------|--------|--------|--------|--------|
G|-3---3--3--3---3--3--3---3--3--3---3---|--------|--------|--------|--------|--------|
D|-4---4--4--4---4--4--4---4--4--4---4---|--------|--------|--------|--------|--------|
A|-4---4--4--4---4--4--4---4--4--4---4---|--------|--------|--------|--------|--------|
E|-2---2--2--2---2--2--2---2--2--2---2---|--------|--------|--------|--------|--------|


E|--------|--------|--------|--------|--------|--------|--------|--------|--------|
B|--------|--------|--------|--------|--------|--------|--------|--------|--------|
G|--------|--------|--------|--------|--------|--------|--------|--------|--------|
D|--------|--------|--------|--------|--------|--------|--------|--------|--------|
A|--------|--------|--------|--------|--------|--------|--------|--------|--------|
E|--------|--------|--------|--------|--------|--------|--------|--------|--------|


E|--------|--------|--------|--------|--------|--------|--------|--------|--------|
B|--------|--------|--------|--------|--------|--------|--------|--------|--------|
G|--------|--------|--------|--------|--------|--------|--------|--------|--------|
D|--------|--------|--------|--------|--------|--------|--------|--------|--------|
A|--------|--------|--------|--------|--------|--------|--------|--------|--------|
E|--------|--------|--------|--------|--------|--------|--------|--------|--------|


E|--------|--------|--------|--------|--------|--------|--------|--------|--------|
B|--------|--------|--------|--------|--------|--------|--------|--------|--------|
G|--------|--------|--------|--------|--------|--------|--------|--------|--------|
D|--------|--------|--------|--------|--------|--------|--------|--------|--------|
A|--------|--------|--------|--------|--------|--------|--------|--------|--------|
E|--------|--------|--------|--------|--------|--------|--------|--------|--------|


E|--------|--------|--------|--------|--------|--------|--------|--------|--------|
B|--------|--------|--------|--------|--------|--------|--------|--------|--------|
G|--------|--------|--------|--------|--------|--------|--------|--------|--------|
D|--------|--------|--------|--------|--------|--------|--------|--------|--------|
A|--------|--------|--------|--------|--------|--------|--------|--------|--------|
E|--------|--------|--------|--------|--------|--------|--------|--------|--------|


E|--------|--------|--------|--------|--------|--------|--------|--------|--------|
B|--------|--------|--------|--------|--------|--------|--------|--------|--------|
G|--------|--------|--------|--------|--------|--------|--------|--------|--------|
D|--------|--------|--------|--------|--------|--------|--------|--------|--------|
A|--------|--------|--------|--------|--------|--------|--------|--------|--------|
E|--------|--------|--------|--------|--------|--------|--------|--------|--------|





Track 5: Acstica

E|--------|--------|--------|--------|--------|--------|--------|--------|--------|
B|--------|--------|--------|--------|--------|--------|--------|--------|--------|
G|--------|--------|--------|--------|--------|--------|--------|--------|--------|
D|--------|--------|--------|--------|--------|--------|--------|--------|--------|
A|--------|--------|--------|--------|--------|--------|--------|--------|--------|
E|--------|--------|--------|--------|--------|--------|--------|--------|--------|


E|--------|--------|--------|--------|--------|--------|--------|--------|--------|
B|--------|--------|--------|--------|--------|--------|--------|--------|--------|
G|--------|--------|--------|--------|--------|--------|--------|--------|--------|
D|--------|--------|--------|--------|--------|--------|--------|--------|--------|
A|--------|--------|--------|--------|--------|--------|--------|--------|--------|
E|--------|--------|--------|--------|--------|--------|--------|--------|--------|


E|--------|--------|--------|--------|--------|--------|--------|--------|--------|
B|--------|--------|--------|--------|--------|--------|--------|--------|--------|
G|--------|--------|--------|--------|--------|--------|--------|--------|--------|
D|--------|--------|--------|--------|--------|--------|--------|--------|--------|
A|--------|--------|--------|--------|--------|--------|--------|--------|--------|
E|--------|--------|--------|--------|--------|--------|--------|--------|--------|


E|--------|--------|--------|--------|--------|--------|--------|--------|--------|
B|--------|--------|--------|--------|--------|--------|--------|--------|--------|
G|--------|--------|--------|--------|--------|--------|--------|--------|--------|
D|--------|--------|--------|--------|--------|--------|--------|--------|--------|
A|--------|--------|--------|--------|--------|--------|--------|--------|--------|
E|--------|--------|--------|--------|--------|--------|--------|--------|--------|


E|--------|--------|--------|--------|--------|--------|--------|--------|--------|
B|--------|--------|--------|--------|--------|--------|--------|--------|--------|
G|--------|--------|--------|--------|--------|--------|--------|--------|--------|
D|--------|--------|--------|--------|--------|--------|--------|--------|--------|
A|--------|--------|--------|--------|--------|--------|--------|--------|--------|
E|--------|--------|--------|--------|--------|--------|--------|--------|--------|


E|--------|--------|--------|--------|--------|--------|--------|--------|--------|
B|--------|--------|--------|--------|--------|--------|--------|--------|--------|
G|--------|--------|--------|--------|--------|--------|--------|--------|--------|
D|--------|--------|--------|--------|--------|--------|--------|--------|--------|
A|--------|--------|--------|--------|--------|--------|--------|--------|--------|
E|--------|--------|--------|--------|--------|--------|--------|--------|--------|


E|--------|--------|--------|--------|--------|--------|--------|--------|--------|
B|--------|--------|--------|--------|--------|--------|--------|--------|--------|
G|--------|--------|--------|--------|--------|--------|--------|--------|--------|
D|--------|--------|--------|--------|--------|--------|--------|--------|--------|
A|--------|--------|--------|--------|--------|--------|--------|--------|--------|
E|--------|--------|--------|--------|--------|--------|--------|--------|--------|


E|--------|--------|--------|--------|--------|--------|--------|--------|--------|
B|--------|--------|--------|--------|--------|--------|--------|--------|--------|
G|--------|--------|--------|--------|--------|--------|--------|--------|--------|
D|--------|--------|--------|--------|--------|--------|--------|--------|--------|
A|--------|--------|--------|--------|--------|--------|--------|--------|--------|
E|--------|--------|--------|--------|--------|--------|--------|--------|--------|


E|--------|--------|--------|--------|--------|--------|--------|--------|--------|
B|--------|--------|--------|--------|--------|--------|--------|--------|--------|
G|--------|--------|--------|--------|--------|--------|--------|--------|--------|
D|--------|--------|--------|--------|--------|--------|--------|--------|--------|
A|--------|--------|--------|--------|--------|--------|--------|--------|--------|
E|--------|--------|--------|--------|--------|--------|--------|--------|--------|


E|--------|--------|--------|-----------------|-4---4--4--4---4--4--4---4--4--4---4---|
B|--------|--------|--------|-----------------|-4---4--4--4---4--4--4---4--4--4---4---|
G|--------|--------|--------|-----------------|-4---4--4--4---4--4--4---4--4--4---4---|
D|--------|--------|--------|-----------------|-6---6--6--6---6--6--6---6--6--6---6---|
A|--------|--------|--------|-----------------|-6---6--6--6---6--6--6---6--6--6---6---|
E|--------|--------|--------|-----------------|-4---4--4--4---4--4--4---4--4--4---4---|


E|-2---2--2--2---2--2--2---2--2--2---2---|-4---4--4--4---4--4--4---4--4--4---4---|
B|-4---4--4--4---4--4--4---4--4--4---4---|-4---4--4--4---4--4--4---4--4--4---4---|
G|-4---4--4--4---4--4--4---4--4--4---4---|-4---4--4--4---4--4--4---4--4--4---4---|
D|-4---4--4--4---4--4--4---4--4--4---4---|-6---6--6--6---6--6--6---6--6--6---6---|
A|-2---2--2--2---2--2--2---2--2--2---2---|-6---6--6--6---6--6--6---6--6--6---6---|
E|---------------------------------------|-4---4--4--4---4--4--4---4--4--4---4---|


E|-2---2--2--2---2--2--2---2--2--2---2---|-4---4--4--4---4--4--4---4--4--4---4---|
B|-4---4--4--4---4--4--4---4--4--4---4---|-5---5--5--5---5--5--5---5--5--5---5---|
G|-4---4--4--4---4--4--4---4--4--4---4---|-6---6--6--6---6--6--6---6--6--6---6---|
D|-4---4--4--4---4--4--4---4--4--4---4---|-6---6--6--6---6--6--6---6--6--6---6---|
A|-2---2--2--2---2--2--2---2--2--2---2---|-4---4--4--4---4--4--4---4--4--4---4---|
E|---------------------------------------|---------------------------------------|


E|-4---4--4--4---4--4--4---4--4--4---4---|-2---2--2--2---2--2--2---2--2--2---2---|
B|-4---4--4--4---4--4--4---4--4--4---4---|-2---2--2--2---2--2--2---2--2--2---2---|
G|-4---4--4--4---4--4--4---4--4--4---4---|-3---3--3--3---3--3--3---3--3--3---3---|
D|-6---6--6--6---6--6--6---6--6--6---6---|-4---4--4--4---4--4--4---4--4--4---4---|
A|-6---6--6--6---6--6--6---6--6--6---6---|-4---4--4--4---4--4--4---4--4--4---4---|
E|-4---4--4--4---4--4--4---4--4--4---4---|-2---2--2--2---2--2--2---2--2--2---2---|


E|-5---------------|-4---4--4--4---4--4--4---4--4--4---4---|-2---2--2--2---2--2--2---2--2--2---2---|
B|-5---------------|-4---4--4--4---4--4--4---4--4--4---4---|-4---4--4--4---4--4--4---4--4--4---4---|
G|-6---------------|-4---4--4--4---4--4--4---4--4--4---4---|-4---4--4--4---4--4--4---4--4--4---4---|
D|-7---------------|-6---6--6--6---6--6--6---6--6--6---6---|-4---4--4--4---4--4--4---4--4--4---4---|
A|-7---------------|-6---6--6--6---6--6--6---6--6--6---6---|-2---2--2--2---2--2--2---2--2--2---2---|
E|-5---------------|-4---4--4--4---4--4--4---4--4--4---4---|---------------------------------------|


E|-4---4--4--4---4--4--4---4--4--4---4---|-2---2--2--2---2--2--2---2--2--2---2---|
B|-4---4--4--4---4--4--4---4--4--4---4---|-4---4--4--4---4--4--4---4--4--4---4---|
G|-4---4--4--4---4--4--4---4--4--4---4---|-4---4--4--4---4--4--4---4--4--4---4---|
D|-6---6--6--6---6--6--6---6--6--6---6---|-4---4--4--4---4--4--4---4--4--4---4---|
A|-6---6--6--6---6--6--6---6--6--6---6---|-2---2--2--2---2--2--2---2--2--2---2---|
E|-4---4--4--4---4--4--4---4--4--4---4---|---------------------------------------|


E|-4---4--4--4---4--4--4---4--4--4---4---|-4---4--4--4---4--4--4---4--4--4---4---|
B|-5---5--5--5---5--5--5---5--5--5---5---|-4---4--4--4---4--4--4---4--4--4---4---|
G|-6---6--6--6---6--6--6---6--6--6---6---|-4---4--4--4---4--4--4---4--4--4---4---|
D|-6---6--6--6---6--6--6---6--6--6---6---|-6---6--6--6---6--6--6---6--6--6---6---|
A|-4---4--4--4---4--4--4---4--4--4---4---|-6---6--6--6---6--6--6---6--6--6---6---|
E|---------------------------------------|-4---4--4--4---4--4--4---4--4--4---4---|


E|-2---2--2--2---2--2--2---2--2--2---2---|-5---------------|-4------|
B|-2---2--2--2---2--2--2---2--2--2---2---|-5---------------|-4------|
G|-3---3--3--3---3--3--3---3--3--3---3---|-6---------------|-4------|
D|-4---4--4--4---4--4--4---4--4--4---4---|-7---------------|-6------|
A|-4---4--4--4---4--4--4---4--4--4---4---|-7---------------|-6------|
E|-2---2--2--2---2--2--2---2--2--2---2---|-5---------------|-4------|





Track 6: Untitled

G|--------|--------|--------|--------|--------|--------|--------|--------|--------|
D|--------|--------|--------|--------|--------|--------|--------|--------|--------|
A|--------|--------|--------|--------|--------|--------|--------|--------|--------|
E|--------|--------|--------|--------|--------|--------|--------|--------|--------|


G|--------|--------|--------|-----------------|--------|--------|--------|--------|
D|--------|--------|--------|-----------------|--------|--------|--------|--------|
A|--------|--------|--------|-0---------------|--------|--------|--------|--------|
E|--------|--------|--------|-----------------|--------|--------|--------|--------|


G|--------|--------|--------|-----------------|---------------------------------|---------------------------------|
D|--------|--------|--------|-----------------|---------------------------------|---------------------------------|
A|--------|--------|--------|-0---------------|---------------------------------|-2---2---2---2---2---2---2---2---|
E|--------|--------|--------|-----------------|-4---4---4---4---4---4---2---4---|---------------------------------|


G|---------------------------------|---------------------------------|---------------------------------|
D|---------------------------------|---------------------------------|-------------------------2-------|
A|---------------------------------|-2---2---2---2---2---2---2---2---|-4---4---4---4---4---4-------4---|
E|-4---4---4---4---4---4---2---4---|---------------------------------|---------------------------------|


G|------------------------------|---------------------------------|-----------------|
D|-----------------1------------|---------------------------------|-----------------|
A|----------------------2-------|---------------------------------|-0---------------|
E|-4---4---4---4------------4---|-2---2---2---2---2---2---2---2---|-----------------|


G|---------------------------------|---------------------------------|---------------------------------|
D|---------------------------------|---------------------------------|---------------------------------|
A|---------------------------------|-2---2---2---2---2---2---2---2---|---------------------------------|
E|-4---4---4---4---4---4---2---4---|---------------------------------|-4---4---4---4---4---4---2---4---|


G|---------------------------------|---------------------------------|------------------------------|
D|---------------------------------|-------------------------2-------|-----------------1------------|
A|-2---2---2---2---2---2---2---2---|-4---4---4---4---4---4-------4---|----------------------2-------|
E|---------------------------------|---------------------------------|-4---4---4---4------------4---|


G|---------------------------------|-----------------|---------------------------------|
D|---------------------------------|-----------------|---------------------------------|
A|---------------------------------|-0---------------|---------------------------------|
E|-2---2---2---2---2---2---2---2---|-----------------|-4---4---4---4---4---4---2---4---|


G|---------------------------------|---------------------------------|---------------------------------|
D|---------------------------------|---------------------------------|---------------------------------|
A|-2---2---2---2---2---2---2---2---|---------------------------------|-2---2---2---2---2---2---2---2---|
E|---------------------------------|-4---4---4---4---4---4---2---4---|---------------------------------|


G|---------------------------------|------------------------------|---------------------------------|
D|-------------------------2-------|-----------------1------------|---------------------------------|
A|-4---4---4---4---4---4-------4---|----------------------2-------|---------------------------------|
E|---------------------------------|-4---4---4---4------------4---|-2---2---2---2---2---2---2---2---|


G|-----------------|---------------------------------|---------------------------------|
D|-----------------|---------------------------------|---------------------------------|
A|-0---------------|---------------------------------|-2---2---2---2---2---2---2---2---|
E|-----------------|-4---4---4---4---4---4---2---4---|---------------------------------|


G|---------------------------------|---------------------------------|---------------------------------|
D|---------------------------------|---------------------------------|-------------------------2-------|
A|---------------------------------|-2---2---2---2---2---2---2---2---|-4---4---4---4---4---4-------4---|
E|-4---4---4---4---4---4---2---4---|---------------------------------|---------------------------------|


G|------------------------------|---------------------------------|-----------------|
D|-----------------1------------|---------------------------------|-----------------|
A|----------------------2-------|---------------------------------|-0---------------|
E|-4---4---4---4------------4---|-2---2---2---2---2---2---2---2---|-----------------|


G|-----------------|-----------------|-----------------|-----------------|-----------------|
D|-----------------|-----------------|-----------------|-----------------|-----------------|
A|-----------------|-2---------------|-----------------|-2---------------|-4---------------|
E|-4---------------|-----------------|-4---------------|-----------------|-----------------|


G|-----------------|-----------------|-----------------|-----------------|-----------------|
D|-----------------|-----------------|-----------------|-----------------|-----------------|
A|-----------------|-----------------|-0---------------|-----------------|-2---------------|
E|-4---------------|-2---------------|-----------------|-4---------------|-----------------|


G|-----------------|-----------------|-----------------|-----------------|---------------------|
D|-----------------|-----------------|-----------------|-----------------|---------------------|
A|-----------------|-2---------------|-4---------------|-----------------|---------------------|
E|-4---------------|-----------------|-----------------|-4---------------|-2---------2---------|


G|---------------------|---------------------------------|---------------------------------|
D|---------------------|---------------------------------|---------------------------------|
A|-0----0----0----0----|---------------------------------|-2---2---2---2---2---2---2---2---|
E|---------------------|-4---4---4---4---4---4---2---4---|---------------------------------|


G|---------------------------------|---------------------------------|---------------------------------|
D|---------------------------------|---------------------------------|-------------------------2-------|
A|---------------------------------|-2---2---2---2---2---2---2---2---|-4---4---4---4---4---4-------4---|
E|-4---4---4---4---4---4---2---4---|---------------------------------|---------------------------------|


G|------------------------------|---------------------------------|---------------------|
D|-----------------1------------|---------------------------------|---------------------|
A|----------------------2-------|---------------------------------|-0---------2----0----|
E|-4---4---4---4------------4---|-2---2---2---2---2---2---2---2---|---------------------|


G|---------------------------------|---------------------------------|---------------------------------|
D|---------------------------------|---------------------------------|---------------------------------|
A|---------------------------------|-2---2---2---2---2---2---2---2---|---------------------------------|
E|-4---4---4---4---4---4---2---4---|---------------------------------|-4---4---4---4---4---4---2---4---|


G|---------------------------------|---------------------------------|------------------------------|
D|---------------------------------|-------------------------2-------|-----------------1------------|
A|-2---2---2---2---2---2---2---2---|-4---4---4---4---4---4-------4---|----------------------2-------|
E|---------------------------------|---------------------------------|-4---4---4---4------------4---|


G|---------------------------------|-----------------|---------------------------------|
D|---------------------------------|-----------------|---------------------------------|
A|---------------------------------|-0---------------|-----------------------------2---|
E|-2---2---2---2---2---2---2---2---|-----------------|-4---4---4---4---4---2---4-------|


G|---------------------------------|---------------------------------|---------------------------------|
D|---------------------------------|---------------------------------|---------------------------------|
A|-2---2---2---2---2---2---2---2---|-----------------------------2---|-2---2---2---2---2---2---2---2---|
E|---------------------------------|-4---4---4---4---4---2---4-------|---------------------------------|


G|---------------------------------|------------------------------|---------------------------------|
D|-------------------------2-------|-----------------1------------|---------------------------------|
A|-4---4---4---4---4---4-------4---|----------------------2-------|---------------------------------|
E|---------------------------------|-4---4---4---4------------4---|-2---2---2---2---2---2---2---2---|


G|---------------------|---------------------------------|---------------------------------|
D|----------------2----|---------------------------------|---------------------------------|
A|-0-------------------|-----------------------------2---|-2---2---2---2---2---2---2---2---|
E|---------------------|-4---4---4---4---4---2---4-------|---------------------------------|


G|---------------------------------|---------------------------------|---------------------------------|
D|---------------------------------|---------------------------------|-------------------------2-------|
A|-----------------------------2---|-2---2---2---2---2---2---2---2---|-4---4---4---4---4---4-------4---|
E|-4---4---4---4---4---2---4-------|---------------------------------|---------------------------------|


G|------------------------------|---------------------------------|-----------------|
D|-----------------1------------|---------------------------------|-----------------|
A|----------------------2-------|---------------------------------|-0---------------|
E|-4---4---4---4------------4---|-2---2---2---2---2---2---2---2---|-----------------|


G|--------|
D|--------|
A|--------|
E|-4------|