Menu:

 

Search:

 

led zeppelin - i cant quit you babe:

 



Title: I Can't Quit You Babe
Artist: 
Album: Coda
Author: Jimmy Page


Track 1: Untitled

E|--------|-------5-----|------5-----------|-------------------------------------------------------|
B|--------|-------5-----|------5-----------|---------8-5-8-5-8-5-8-5-8-5-8-5------8---8---8--8--5--|
G|--------|-------5-----|------5-----------|-------------------------------------------------------|
D|--------|-------4-----|------4-----------|-------------------------------------------------------|
A|--------|-------5-----|------5-----------|-------------------------------------------------------|
E|--------|-------------|------------------|-------------------------------------------------------|


E|-------------------------------------------------|---------------------------------------|
B|----------------------------------------------5--|-8--5--10--10---8--5-------------------|
G|-7--5--------------------------------------5-----|----------------------7--6-------------|
D|-------7--7--5-----------------7-----5-----5-----|---------------------------------5--7--|
A|----------------7--6--5--3--4--------------------|---------------------------------------|
E|-------------------------------------------------|---------------------------------------|


E|------------------------|-8--5--8---8--12-8--12-8--8--5-----8-----8------8--5-5-5-5-|
B|------------------------|-----------------------------------------------------------|
G|-----7---9---7----------|-----------------------------------------------------------|
D|-4----------------------|-----------------------------------------------------------|
A|------------------------|-----------------------------------------------------------|
E|------------------------|-----------------------------------------------------------|


E|-5---8--5---------|--------------------------------------------------------|----------------------------------------------------|
B|------------------|--------5-5-8-5-8-5-8-5-8-5-8-5-8-5-8-5-8-5-8-5----8----|-----8--5-------------------------------------------|
G|------------------|------7-------------------------------------------------|-----------7--5-----5-------------------------------|
D|------------------|--------------------------------------------------------|-----------------7-----7--5---------------7--5--5---|
A|------------------|--------------------------------------------------------|------------------------------7--6--5--4------------|
E|------------------|--------------------------------------------------------|----------------------------------------------------|


E|----------5----------------------------------|------------------------15--|-15--15--15--15------------|
B|-------5-----8--5--10--10-10---17--15--13-15-|-13---------------------15--|-15--15--15--15--15----15--|
G|-7--9----------------------------------------|----------------------------|---------------------------|
D|---------------------------------------------|----1414-14-----------------|---------------------------|
A|---------------------------------------------|----------------------------|---------------------------|
E|---------------------------------------------|----------------------------|---------------------------|


E|---------------------------------------------------|----------------------------------------|
B|-----17-1513---13-15-15-15-15-17-1513--15----15----|-13-------------------------------------|
G|------------14-----------------------14------------|----14--14------------------------------|
D|---------------------------------------------------|----------------7-----8-----7--7--5--7--|
A|---------------------------------------------------|----------------7-----8-----------------|
E|---------------------------------------------------|------------0---5-----9-----------------|


E|--------------5-------------------------------|-------------8----8-----7-----5-----5-------|
B|----------5-5---8-5---------------------------|----------5----------------------8----8-7-5-|
G|--------------------7-7-5-----7-----5-----6---|--------------------------------------------|
D|-5-----5-------------------7-----7--------7---|------8-------------------------------------|
A|----7-------------------------------------7---|------8-------------------------------------|
E|------------------------------------------5---|------6-------------------------------------|


E|---------------------|---------------------------------------------|-------------|
B|-5---5----5----------|-----15--15-13-15-15-13----------------------|-------------|
G|---------------------|-----------------------14141414---121212-1111|-11----------|
D|---------------------|---------------------------------------------|-------------|
A|---------------------|---------------------------------------------|-------------|
E|---------------------|---------------------------------------------|-------------|


E|----------------------------------------|-------------------------------------------------------------------------------------------------|
B|---------5-5-8-5----------5-5-8-5-------|---5-5-8-5-----5-5-8-5-----5-5-8-5-----5-5-8-5-----5-5-8-5-----5-5-8-5-----5-5-8-5-----5-5-8-5---|
G|-------7----------------7---------------|-7-----------7-----------7-----------7-----------7-----------7-----------7-----------7-----------|
D|----------------------------------------|-------------------------------------------------------------------------------------------------|
A|----------------------------------------|-------------------------------------------------------------------------------------------------|
E|----------------------------------------|-------------------------------------------------------------------------------------------------|


E|-------8-118-108---8-118-108------------------------------------------|-------------------------------|
B|-8-10------------10----------8-10-------------------------------------|----8--------------------------|
G|---------------------------------7-9---5-7---4-5-4-----------------5--|-7--------7--7--7---7----------|
D|---------------------------------------------------7-5-7-5------7-----|-------------------------------|
A|-----------------------------------------------------------7-0--------|-------------------------------|
E|----------------------------------------------------------------------|-------------------------------|


E|----------8---8--5-----8---8---8---8--|---8---8---7--8--7--7----6----6----|-5------------------------------------------|
B|--------------------7-----------------|-----------------------------------|-----------------8----8--5------------------|
G|--------------------------------------|-----------------------------------|-----7--7--5----------------7--6-5----------|
D|--------------------------------------|-----------------------------------|--------------7--------------------7--5-----|
A|--------------------------------------|-----------------------------------|-----------------------------------------7--|
E|--------------------------------------|-----------------------------------|--------------------------------------------|


E|--------------------------------------------------|--------------------------------------------------|
B|------------------------------------------8-5-8-5-|-8-5-8-5-8-5-8-5-8----8--5------------------------|
G|--------------------------------------7-9---------|----------------------------7-8-7--5--------------|
D|-------------7----5-5-5-5--5----------------------|--------------------------------------7--5-----5--|
A|-6--5--4------------------------------------------|--------------------------------------------7-----|
E|--------------------------------------------------|--------------------------------------------------|


E|----------------------------------|------------------------------------|-------------------------------|
B|-------------8--8---8-------------|-----7----7---7---------------------|-------------------------------|
G|----------9--9--9---9-------------|-----7----7---7--5------------------|-------------------------------|
D|-7--5--7--------------------------|--------------------7--6--5--4--4---|----------4--4--4---4----4--7--|
A|----------------------------------|------------------------------------|----------------------------7--|
E|----------------------------------|------------------------------------|----------------------------5--|


E|------------------------------------|----------5------------------------------|-------------------------|
B|------------------------------------|-------------8--5------------------------|-------------------------|
G|---------------------7--7--5--7--5--|----5--7-----------7--5-----7--5---------|-------------------------|
D|-7----------7-----8-----------------|-7-----------------------7-----------7---|------8-----8------------|
A|-7----------7-----8-----------------|-------------------------------------7---|------8-----8------------|
E|-5----------5-----6-----------------|-------------------------------------5---|------6-----6------------|


E|--------|--------|--------|--------|--------|--------|-----5----------5----------5----------5----------5----------5----------5----------5------|
B|--------|--------|--------|--------|--------|--------|---5---8-5----5---8-5----5---8-5----5---8-5----5---8-5----5---8-5----5---8-5----5---8-5--|
G|--------|--------|--------|--------|--------|--------|-7----------7----------7----------7----------7----------7----------7----------7----------|
D|--------|--------|--------|--------|--------|--------|-----------------------------------------------------------------------------------------|
A|--------|--------|--------|--------|--------|--------|-----------------------------------------------------------------------------------------|
E|--------|--------|--------|--------|--------|--------|-----------------------------------------------------------------------------------------|


E|-----5----------5----------5------8-118-108-----8-118-108-----8-118-108-----8-118-108-----8-118-108-----|
B|---5---8-5----5---8-5----5---8-5------------8-10----------8-10----------8-10----------8-10----------8-10|
G|-7----------7----------7--------------------------------------------------------------------------------|
D|--------------------------------------------------------------------------------------------------------|
A|--------------------------------------------------------------------------------------------------------|
E|--------------------------------------------------------------------------------------------------------|


E|------------------------------------------------0--3--0--3--0--------|-------------------------------------------------------------------------|
B|-----------------0-1-0-----------------0-----5-----------------3--1--|-------------------------------------------------------------------------|
G|-7-7-9---5-5-7----------2--------0--2-----2--------------------------|-------------------0--2--0---------------0-2-0---------------------------|
D|---------------------------0--2--------------------------------------|-----0-------0--2-----------2--0-----0-2-------2-0-----------5--7--7--5--|
A|---------------------------------------------------------------------|-0-3---3-0-----------------------3-0---------------3-0-5--7--------------|
E|---------------------------------------------------------------------|-----------3-------------------------------------------------------------|


E|----------------------------------------------------------------------|----------------------------------------5-------5-9--------13---|
B|------------5-8-5-----------------------------------------------------|-------------------------------------------8-5-------8--------12|
G|-5-----7--7-------7--5-----5------------------------------------------|------------------------------------5-7----------------9--------|
D|----7-------------------7----7-5---5-------------------2-5-2----------|------------------------------5-7-------------------------------|
A|---------------------------------7---7-5-3-5-----3-----------3-5-3----|------------------3-5---5-7-------------------------------------|
E|----------------------------------------------------------------------|-3----3-----3-5-------------------------------------------------|


E|-------16-16-15----15------------------------------------------------|---------------------------------------------------------------17--------|
B|-12-------------17----17-1615----------------------------------------|------------------------------------------------------------17----20--20-|
G|---13------------------------1714141714--1414---141714--14-----141714|---14----141714--14-141714--14-141714--14-141714--14-14--19--------------|
D|---------------------------------------17----17-------17---1717------|-17---17-------17---------17---------17---------17-----------------------|
A|---------------------------------------------------------------------|-------------------------------------------------------------------------|
E|---------------------------------------------------------------------|-------------------------------------------------------------------------|


E|--------------------------------------------------|------------------------------------|
B|----20--20-20-20--20-17---17----------19-19-19-19-|-19--17-----------------------------|
G|------------------------19--201917----19-19-19-19-|-19--17-----------------------------|
D|----------------------------------19--------------|--------19-----7-----8----5-7-5---5-|
A|--------------------------------------------------|---------------7-----8--7-------7---|
E|--------------------------------------------------|---------------5-----6--------------|


E|------------------------------------------|---------------------|---------------------------|
B|------------------------------------------|---------------------|-15---15--15--13--15--15---|
G|---5-7-5----5--7--7----7--5---------------|-----------------14--|---------------------------|
D|-7-------7------------------------7---7---|------8--------------|---------------------------|
A|----------------------------------7---7---|------8--------------|---------------------------|
E|----------------------------------5---5---|------6--------------|---------------------------|


E|---------------------------|-----------------0---------------|-----------------------------------------------|
B|--------------15---15--15--|-----15--13----------------------|-15-15-15-15-15-15-15-15-15-15-15-15-15-15-14--|
G|-14-------14---------------|-------------14--------------14--|-----------------------------------------------|
D|---------------------------|---------------------------------|-----------------------------------------------|
A|---------------------------|---------------------16----------|-----------------------------------------------|
E|---------------------------|---------------------------------|-----------------------------------------------|


E|-----------------17-------17-------17-------17-|-------17-------17-------17-------17-------17-------------|
B|--------------17-------17-------17-------17----|----17-------17-------17-------17-------17----20--20--17--|
G|--------------------19-------19-------19-------|-19-------19-------19-------19-------19-------------------|
D|-----------19----------------------------------|----------------------------------------------------------|
A|-----------------------------------------------|----------------------------------------------------------|
E|-----------------------------------------------|----------------------------------------------------------|


E|-2117--2017--2117--2017--2117--2017--2117--2017--2117--2017--2117--2017--2117--2017---------20--|
B|-----17----17----17----17----17----17----17----17----17----17----17----17----17----17171717-----|
G|------------------------------------------------------------------------------------------------|
D|------------------------------------------------------------------------------------------------|
A|------------------------------------------------------------------------------------------------|
E|------------------------------------------------------------------------------------------------|


E|-------20------------20-20---20---|-------20--20-20-20-19-17---17-------------------------------------|
B|----------------------------------|--------------------------17--2017---------17----------------------|
G|----------------------------------|----------------------------------20-19-17---1917--------141614--14|
D|----------------------------------|-------------------------------------------------191414--------16--|
A|----------------------------------|-------------------------------------------------------16----------|
E|----------------------------------|-------------------------------------------------------------------|


E|--------------14-------------------------------------------|---------------------------------------------------------------|
B|-----------14----17-14----14-------------17----------------|---------5-8---------------------------------------------------|
G|-------16--------------16----16-14----14----16-16----14--14|-------7-----7--5----------------------------------------------|
D|-----------------------------------16------------------16--|-------------------7--5----------------------------------------|
A|-----------------------------------------------------------|-------------------------7----6--5-----4-----3-----0--3-5-4----|
E|-----------------------------------------------------------|-------------------------------------------------------------3-|


E|-------------------------------------------------|------------------------------15--15|
B|-----------------------------------------------7-|------------------------------15--15|
G|-------------------------2-----4--4-2---2--2-----|----7--9--7--9---9------------------|
D|----------------2--3--4---------------4----------|------------------------------------|
A|-------0--3--4-----------------------------------|------------------------------------|
E|-------------------------------------------------|------------------------------------|


E|-------15--15--------------------------------|-------------------------15-15--15-15--15-12---------|
B|-------15--15-15-13-15-15--15-15--1515--15---|----------15-15-13---------------------------15-15-13|
G|---------------------------------------------|-------------------14-12-----------------------------|
D|---------------------------------------------|-----------------------------------------------------|
A|---------------------------------------------|-----------------------------------------------------|
E|---------------------------------------------|-----------------------------------------------------|


E|-------------------------------------------|-------------5-----------------------------------|
B|-------------------------------------------|-----------5---8-5-------------------------------|
G|---1414----------------------------5-7-5-7-|-7-5---5-7---------7-5---5-----------------------|
D|----------------7-----8--7-5---5-7---------|-----7-----------------7---7-6-5------------7----|
A|----------------7-----8------7-------------|---------------------------------7--6--5----7----|
E|------------0---5-----6--------------------|--------------------------------------------5----|


E|-------------8------8---7-----5-----------------|----------------------|--------------------|
B|--------------------------------8-5-------------|----------------------|--------------------|
G|------------------------------------8-7-5---7-5-|----------------------|--------------------|
D|---------8--------------------------------7-----|----------7-----8-----|--------------------|
A|---------8--------------------------------------|----------7-----8-----|--------------------|
E|---------6--------------------------------------|----------5-----6-----|--------------------|


E|------------------|------------------|--------|
B|------------------|------------------|--------|
G|------------------|------------------|--------|
D|------------------|------------------|--------|
A|------------------|------------------|--------|
E|------------------|------------------|--------|





Track 2: slow solo

E|--------|--------|--------|--------|--------|--------|--------|--------|--------|
B|--------|--------|--------|--------|--------|--------|--------|--------|--------|
G|--------|--------|--------|--------|--------|--------|--------|--------|--------|
D|--------|--------|--------|--------|--------|--------|--------|--------|--------|
A|--------|--------|--------|--------|--------|--------|--------|--------|--------|
E|--------|--------|--------|--------|--------|--------|--------|--------|--------|


E|--------|--------|--------|--------|--------|--------|--------|--------|--------|
B|--------|--------|--------|--------|--------|--------|--------|--------|--------|
G|--------|--------|--------|--------|--------|--------|--------|--------|--------|
D|--------|--------|--------|--------|--------|--------|--------|--------|--------|
A|--------|--------|--------|--------|--------|--------|--------|--------|--------|
E|--------|--------|--------|--------|--------|--------|--------|--------|--------|


E|--------|--------|--------|--------|--------|--------|--------|--------|--------|
B|--------|--------|--------|--------|--------|--------|--------|--------|--------|
G|--------|--------|--------|--------|--------|--------|--------|--------|--------|
D|--------|--------|--------|--------|--------|--------|--------|--------|--------|
A|--------|--------|--------|--------|--------|--------|--------|--------|--------|
E|--------|--------|--------|--------|--------|--------|--------|--------|--------|


E|--------|--------|--------|--------|--------|--------|--------|--------|------------------------|
B|--------|--------|--------|--------|--------|--------|--------|--------|---------------5--7--8--|
G|--------|--------|--------|--------|--------|--------|--------|--------|------------6-----------|
D|--------|--------|--------|--------|--------|--------|--------|--------|------------------------|
A|--------|--------|--------|--------|--------|--------|--------|--------|------------------------|
E|--------|--------|--------|--------|--------|--------|--------|--------|------------------------|


E|------------8--9--|-10--10--12-10-9--10----10-10-8--------8-108---|--------------------------------------------|
B|-10-----10--------|---------------------------------10-10-------10|-108-10----------------17---17--16--15------|
G|------------------|-----------------------------------------------|-----------9--------14------------------17--|
D|------------------|-----------------------------------------------|-----------------16-------------------------|
A|------------------|-----------------------------------------------|--------------------------------------------|
E|------------------|-----------------------------------------------|--------------------------------------------|


E|--------------------------------------------|--------------------------------------------|
B|-----------------------------------15-17----|------------17-17-16-15---------------------|
G|-17--21-17-17-14----17-14---16--16-------14-|-----16-14--------------17--17-17-14--17-14-|
D|-----------------16-------------------------|--------------------------------------------|
A|--------------------------------------------|--------------------------------------------|
E|--------------------------------------------|--------------------------------------------|


E|-------------------------------------------|--------|--------|--------|--------|
B|-------------------------------------------|--------|--------|--------|--------|
G|-14--17-18-18-18-18-18-17-17-17-17-17--17--|--------|--------|--------|--------|
D|-------------------------------------------|--------|--------|--------|--------|
A|-------------------------------------------|--------|--------|--------|--------|
E|-------------------------------------------|--------|--------|--------|--------|


E|--------|--------|--------|--------|--------|--------|--------|--------|--------|
B|--------|--------|--------|--------|--------|--------|--------|--------|--------|
G|--------|--------|--------|--------|--------|--------|--------|--------|--------|
D|--------|--------|--------|--------|--------|--------|--------|--------|--------|
A|--------|--------|--------|--------|--------|--------|--------|--------|--------|
E|--------|--------|--------|--------|--------|--------|--------|--------|--------|


E|--------|--------|--------|--------|--------|--------|--------|--------|--------|
B|--------|--------|--------|--------|--------|--------|--------|--------|--------|
G|--------|--------|--------|--------|--------|--------|--------|--------|--------|
D|--------|--------|--------|--------|--------|--------|--------|--------|--------|
A|--------|--------|--------|--------|--------|--------|--------|--------|--------|
E|--------|--------|--------|--------|--------|--------|--------|--------|--------|


E|--------|--------|--------|--------|--------|--------|--------|--------|--------|
B|--------|--------|--------|--------|--------|--------|--------|--------|--------|
G|--------|--------|--------|--------|--------|--------|--------|--------|--------|
D|--------|--------|--------|--------|--------|--------|--------|--------|--------|
A|--------|--------|--------|--------|--------|--------|--------|--------|--------|
E|--------|--------|--------|--------|--------|--------|--------|--------|--------|


E|--------|--------|--------|--------|
B|--------|--------|--------|--------|
G|--------|--------|--------|--------|
D|--------|--------|--------|--------|
A|--------|--------|--------|--------|
E|--------|--------|--------|--------|





Track 3: Untitled

G|--------|--------------------|------------------5-----------|------------------------|
D|--------|----------------4---|-----4---7----7-------4---7---|------------------------|
A|--------|-------5----5-------|------------------------------|----------4----4---7----|
E|--------|--------------------|------------------------------|-5----5-----------------|


G|------------------------------|---------------------------|---------------------------|
D|-----5---6---7----------------|------------------5----7---|----------4-------4---7----|
A|-7------------------------4---|-----4---7----4------------|-5----5--------------------|
E|-----------------5----5-------|---------------------------|---------------------------|


G|-----5---6---7----------------|--------------5-----7--5------------|------------------------|
D|-7------------------------4---|-----4---7-------7--------7---5--6--|------------------------|
A|-----------------5----5-------|------------------------------------|----------4----4---7----|
E|------------------------------|------------------------------------|-5----5-----------------|


G|------------------------------|------------------------------|------------------------|
D|-----5---6---7----------------|------------------5---6---7---|----------6----6---9----|
A|-7------------------------4---|-----4---7----7---------------|-7----7-----------------|
E|-----------------5----5-------|------------------------------|------------------------|


G|-7-----9-----------7------------------|---------------------------------------------|
D|----9-----9-----9-----7-----------4---|-5---6--7---7------2---2--2---2--3---4---6---|
A|-------------7-----------5----5-------|---------------------------------------------|
E|--------------------------------------|---------------0-----------------------------|


G|---------------------|--------------------|-------------|---------------------------|
D|-7-------------------|--------------------|-------------|---------------------------|
A|----------0-----1----|-------0--------0---|------1------|----------4---5---6---7----|
E|---------------------|--------------------|-------------|-5----5--------------------|


G|------------------------------|-----5---7-----------------------|------------------------------|
D|-----5---6---7------------4---|-7------------7----------5-------|------------------------------|
A|-7---------------5----5-------|-----------------5---7-------7---|-------------4---5---6---7----|
E|------------------------------|---------------------------------|-5-------5--------------------|


G|---------------------------------|------------------------------|------------------5---7-------|
D|-----5---------------------------|-----5---7--------------------|----------4---7------------7--|
A|-7---------------------------4---|-7------------0---3---0---4---|-5----5-----------------------|
E|---------8---7---5-------5-------|------------------------------|------------------------------|


G|-------------8---7------------|------------------------------|------------------------|
D|---------8------------7-------|----------------------5---7---|------------------------|
A|-5---6--------------------5---|-----0---5----6---7-----------|----------4----4---7----|
E|------------------------------|------------------------------|-5----5-----------------|


G|------------------------------|---------------------5--5--5------------------|----------9----------------|
D|-----5---6---7----------------|--------------5---------------7------5--6--7--|--------------9---6--------|
A|-7------------------------4---|-----4---7--------7---------------7-----------|-7----7---------------7----|
E|-----------------5----5-------|----------------------------------------------|---------------------------|


G|------------------------|---------------------------------------|---------------------|
D|--------------------4---|-5---6---7---4-----------5----4--2-----|---------------------|
A|-----6-----5----5-------|-----------------5---5--------------3--|-0--------0-----1----|
E|------------------------|---------------------------------------|---------------------|


G|------------3--3-----2---3-----------|--------------------------2--0--|-2-----0----------|
D|---------3--------3------------------|-----------------------2--------|-------------4----|
A|-----1---------------------------0---|------1-----1---1---4-----------|------------------|
E|-------------------------------------|--------------------------------|------------------|


G|------------------------------|------------------|------------------------|---------------------------|
D|-----2------------------------|------------------|------------------------|--------------7----5---5---|
A|----------4---5-------5---3---|------2-----1-----|-0----0---4----4---5----|-6---6---7-----------------|
E|------------------------------|------------------|------------------------|---------------------------|


G|------------------------------------------------------|-------------------------5----|
D|-----7---7--5-----------------------------------------|-------------4---5---7--------|
A|-7--------------7---------3---3--4---4--0---0--4---4--|-5-------5--------------------|
E|-------------------5---5------------------------------|------------------------------|


G|-----7---5-----------------------|---------5---5------7---5-----------------------|
D|-7-----------4---------------4---|-5---7-----------7-------------4--4---5--5---5--|
A|-----------------5-------5-------|---------------------------5--------------------|
E|---------------------------------|------------------------------------------------|


G|------------------------------|---------------------------------|-------------------------------------------|
D|-7----------------------------|---------------------------------|-----5---7--------7--7--------7--7---------|
A|-------------4---5---6---7----|-------------3---------------4---|-7-------------7-----------5-----------6---|
E|---------5--------------------|-0---3---5-------5-------5-------|------------5-----------5-----------5------|


G|-------6---4------------|-----9--------------------4---|-2-------4---2-------------------|
D|---------------6--------|------------------------------|-----4-----------4---2-----------|
A|-7-----------------7----|-7--------6---5-------5-------|-------------------------3---1---|
E|------------------------|------------------------------|---------------------------------|


G|---------------------|------------3--3-----2---2-----------|------------------|---------------------|
D|---------------------|---------3--------2------------------|------------------|---------------------|
A|-0--------0-----1----|-----1---------------------------0---|------1-----------|-0-------------------|
E|---------------------|-------------------------------------|------------------|---------------------|


G|-------------|-------------|--------|-------------------------------|----------------------5--5-----------------------|
D|-------------|-------------|--------|-------------------------------|----5--5-----7--7--------------7-----------------|
A|-------------|-------------|--------|-------------------------------|----------7--------7--------7-----5--5--5--5--0--|
E|-------------|-------------|--------|-------5--5--5--5--5--5--5--5--|-5-----------------------------------------------|


G|----------------------------5-----7--|-----------------------------------------|
D|-------------4---5---6---7-----7-----|----4--5--6--7-----------------------4---|
A|-5-------5---------------------------|-5--------------0--3--4--5-------5-------|
E|-------------------------------------|-----------------------------------------|


G|---------5---5--7--7---------------------|------------------------|------------------------------|
D|-5---7-------------------5---5--7--7-----|------------------------|------------------------------|
A|----------------------5------------------|----------4---5----6----|-7---7--------------------4---|
E|--------------------------------------5--|-5----5-----------------|---------3---4---5------------|


G|--------------------5---|-------9---7-----------------|-------------------------------------|
D|-----5---7-----5--------|---------------9----------9--|----9--9-----9-----------------7-----|
A|-7----------------------|-7-----------------7---7-----|-7--------7-----0--7--8--5--------5--|
E|------------------------|-----------------------------|-------------------------------------|


G|-------------------------------------|---------------------|--------------------|
D|-7-----------------------------------|---------------------|--------------------|
A|----0--5--3--0---3---4---5-----------|----------0-----1----|-------0--------0---|
E|-----------------------------3---4---|-5-------------------|--------------------|


G|-------------|---------------------|-------------|--------|--------|-------------|
D|-------------|---------------------|-------------|--------|--------|-------------|
A|------1------|-0--------0-----1----|-------------|--------|--------|-------------|
E|-------------|---------------------|-------------|--------|--------|-------------|