Menu:

 

Search:

 

led zeppelin - communication breakdown:

 



Title: Communication Breakdown
Artist: 
Album: Led Zeppelin
Author: Jimmy Page, John Paul Jones, John Bonham


Track 1: Lead Guitar

E|---------------------------------|---------------------|---------------------------------|
B|---------------------------------|-----7-----5----7----|---------------------------------|
G|---------------------------------|-----7-----6----7----|---------------------------------|
D|---------------------------------|-----7-----7----7----|---------------------------------|
A|---------------------------------|---------------------|---------------------------------|
E|-0---0---0---0---0---0---0---0---|-0-------------------|-0---0---0---0---0---0---0---0---|


E|---------------------|---------------------------------|---------------------|---------------------------------|
B|-----7-----5----7----|---------------------------------|-----7-----5----7----|---------------------------------|
G|-----7-----6----7----|---------------------------------|-----7-----6----7----|---------------------------------|
D|-----7-----7----7----|---------------------------------|-----7-----7----7----|---------------------------------|
A|---------------------|---------------------------------|---------------------|---------------------------------|
E|-0-------------------|-0---0---0---0---0---0---0---0---|-0-------------------|-0---0---0---0---0---0---0---0---|


E|---------------------|---------------------------------|---------------------|---------------------------------|
B|-----7-----5----7----|---------------------------------|-----7-----5----7----|---------------------------------|
G|-----7-----6----7----|---------------------------------|-----7-----6----7----|---------------------------------|
D|-----7-----7----7----|---------------------------------|-----7-----7----7----|---------------------------------|
A|---------------------|---------------------------------|-----5-----7----5----|---------------------------------|
E|-0-------------------|-0---0---0---0---0---0---0---0---|-0-------------------|-0---0---0---0---0---0---0---0---|


E|---------------------|---------------------------------|---------------------|---------------------------------|
B|-----7-----5----7----|---------------------------------|-----7-----5----7----|---------------------------------|
G|-----7-----6----7----|---------------------------------|-----7-----6----7----|---------------------------------|
D|-----7-----7----7----|---------------------------------|-----7-----7----7----|---------------------------------|
A|-----5-----7----5----|---------------------------------|-----5-----7----5----|---------------------------------|
E|-0-------------------|-0---0---0---0---0---0---0---0---|-0-------------------|-0---0---0---0---0---0---0---0---|


E|---------------------|---------------------------------|---------------------|---------------------------------|
B|-----7-----5----7----|---------------------------------|-----7-----5----7----|---------------------------------|
G|-----7-----6----7----|---------------------------------|-----7-----6----7----|---------------------------------|
D|-----7-----7----7----|---------------------------------|-----7-----7----7----|---------------------------------|
A|-----5-----7----5----|---------------------------------|-----5-----7----5----|---------------------------------|
E|-0-------------------|-0---0---0---0---0---0---0---0---|-0-------------------|-0---0---0---0---0---0---0---0---|


E|---------------------|---------------------------------|---------------------|---------------------------------|
B|-----7-----5----7----|---------------------------------|-----7-----5----7----|---------------------------------|
G|-----7-----6----7----|---------------------------------|-----7-----6----7----|---------------------------------|
D|-----7-----7----7----|---------------------------------|-----7-----7----7----|---------------------------------|
A|-----5-----7----5----|---------------------------------|-----5-----7----5----|---------------------------------|
E|-0-------------------|-0---0---0---0---0---0---0---0---|-0-------------------|-0---0---0---0---0---0---0---0---|


E|------------------------|-----------------------------5---|-5---------------------------5---|
B|-----7-----5----7-------|-----------------------------5---|-5---------------------------5---|
G|-----7-----6----7-------|-----------------------------6---|-6---------------------------6---|
D|-----7-----7----7-------|-----------------------------5---|-5---------------------------5---|
A|-----5-----7----5---0---|-7---7---9---7---7---9---7---7---|-7---7---9---7---7---9-------7---|
E|-0------------------0---|-5---5---5---5---5---5---5---5---|-5---5---5---5---5---5-------5---|


E|-5---------------------------5---|-5-------------------------------|-----------------------------7---|
B|-5---------------------------5---|-5-------------------------------|-----------------------------7---|
G|-6---------------------------6---|-6-------------------------------|-----------------------------8---|
D|-5---------------------------5---|-5-------------------------------|-----------------------------7---|
A|-7---7---9---7---7---7---9---7---|-7---7---9---7---7---7---9---7---|-9---9---11--9---9---9---11--9---|
E|-5---5---5---5---5---5---5---5---|-5---5---5---5---5---5---5---5---|-7---7---7---7---7---7---7---7---|


E|-7---------------------------7---|-7-----------------------------7---|-7-------------------------------|
B|-7---------------------------7---|-7-----------------------------7---|-7-------------------------------|
G|-8---------------------------8---|-8-----------------------------8---|-8-------------------------------|
D|-7---------------------------7---|-7-----------------------------7---|-7-------------------------------|
A|-9---9---11--9---9---9---11--9---|-9---9---11--9--9--9---9---11--9---|-9---9---11--9---9---9---11------|
E|-7---7---7---7---7---7---7---7---|-7---7---7---7--7--7---7---7---7---|-7---7---7---7---7---7---7---0---|


E|---------------------------------|---------------------|---------------------------------|
B|---------------------------------|-----7-----5----7----|---------------------------------|
G|---------------------------------|-----7-----6----7----|---------------------------------|
D|---------------------------------|-----7-----7----7----|---------------------------------|
A|---------------------------------|-----5-----7----5----|---------------------------------|
E|-0---0---0---0---0---0---0---0---|-0---------5---------|-0---0---0---0---0---0---0---0---|


E|---------------------|---------------------------------|---------------------|---------------------------------|
B|-----7-----5----7----|---------------------------------|-----7-----5----7----|---------------------------------|
G|-----7-----6----7----|---------------------------------|-----7-----6----7----|---------------------------------|
D|-----7-----7----7----|---------------------------------|-----7-----7----7----|---------------------------------|
A|-----5-----7----5----|---------------------------------|-----5-----7----5----|---------------------------------|
E|-0---------5---------|-0---0---0---0---0---0---0---0---|-0---------5---------|-0---0---0---0---0---0---0---0---|


E|---------------------|---------------------------------|---------------------|---------------------------------|
B|-----7-----5----7----|---------------------------------|-----7-----5----7----|---------------------------------|
G|-----7-----6----7----|---------------------------------|-----7-----6----7----|---------------------------------|
D|-----7-----7----7----|---------------------------------|-----7-----5----7----|---------------------------------|
A|-----5-----7----5----|---------------------------------|-----5-----7----5----|---------------------------------|
E|-0---------5---------|-0---0---0---0---0---0---0---0---|-0---------5---------|-0---0---0---0---0---0---0---0---|


E|---------------------|---------------------------------|---------------------|---------------------------------|
B|-----7-----5----7----|---------------------------------|-----7-----5----7----|---------------------------------|
G|-----7-----6----7----|---------------------------------|-----7-----6----7----|---------------------------------|
D|-----7-----7----7----|---------------------------------|-----7-----7----7----|---------------------------------|
A|-----5-----7----5----|---------------------------------|-----5-----7----5----|---------------------------------|
E|-0---------5---------|-0---0---0---0---0---0---0---0---|-0---------5---------|-0---0---0---0---0---0---0---0---|


E|---------------------|---------------------------------|---------------------|---------------------------------|
B|-----7-----5----7----|---------------------------------|-----7-----5----7----|---------------------------------|
G|-----7-----6----7----|---------------------------------|-----7-----6----7----|---------------------------------|
D|-----7-----7----7----|---------------------------------|-----7-----7----7----|---------------------------------|
A|-----5-----7----5----|---------------------------------|-----5-----7----5----|---------------------------------|
E|-0---------5---------|-0---0---0---0---0---0---0---0---|-0---------5---------|-0---0---0---0---0---0---0---0---|


E|---------------------|-----------------------------5---|-5---------------------------5---|
B|-----7-----5----7----|-----------------------------5---|-5---------------------------5---|
G|-----7-----6----7----|-----------------------------6---|-6---------------------------6---|
D|-----7-----7----7----|-----------------------------5---|-5---------------------------5---|
A|-----5-----7----5----|-7-----------7---7---9---7---7---|-7---7---9---7---7---7---9---7---|
E|-0---------5---------|-5---5---5---5---5---5---5---5---|-5---5---5---5---5---5---5---5---|


E|-5---------------------------5---|-5-------------------------------|-----------------------------7---|
B|-5---------------------------5---|-5-------------------------------|-----------------------------7---|
G|-6---------------------------6---|-6-------------------------------|-----------------------------8---|
D|-5---------------------------5---|-5-------------------------------|-----------------------------7---|
A|-7---7---9---7---7---7---9---7---|-7---7---9---7---7---7---9---7---|-9---9---11--9---9---9---11--9---|
E|-5---5---5---5---5---5---5---5---|-5---5---5---5---5---5---5---5---|-7---7---7---7---7---7---7---7---|


E|-7---------------------------7---|-7---7-----------------------7---|-7---7--------------------------|
B|-7---------------------------7---|-7---7-----------------------7---|-7---7--------------------------|
G|-8---------------------------8---|-8---8-----------------------8---|-8---8--------------------------|
D|-7---------------------------7---|-7---7-----------------------7---|-7---7--------------------------|
A|-9---9---11--9---12--9---11--9---|-9---9---11--9---9---9---11--9---|-9---9---11--9---9----5---5--7--|
E|-7---7---7---7---7---7---7---7---|-7---7---7---7---7---7---7---7---|-7---7---7---7---7----5---5--7--|


E|--------|--------|-----12------------------14--------------|-------------------------12--------------|
B|-9------|--------|-12------15-12-12--------12--15-12-12-12-|-----12--15-12-12----12------15-12-12----|
G|-9------|--------|-14---------------14-14------------------|-14---------------14-14---------------14-|
D|-9------|--------|-----------------------------------------|-----------------------------------------|
A|-7------|--------|-----------------------------------------|-----------------------------------------|
E|-7------|--------|-----------------------------------------|-----------------------------------------|


E|-----------------------------------|-12--------12-------------|---------------------------------|
B|-12--12--15------12--12--15-12-12--|--------------------------|-----------------------------12--|
G|-14----------14--14----------------|------14---14---14-12-----|-14--12--------------12--14------|
D|-----------------------------------|----------------------14--|---------14--12--14--------------|
A|-----------------------------------|--------------------------|---------------------------------|
E|-----------------------------------|--------------------------|---------------------------------|


E|-12------12------12---12---|-15---15---12------12------|-----12---------------------------|
B|-----15------15------------|---------------15----------|-12-------------------------------|
G|---------------------------|-----------------------14--|----------14--14--12------14--12--|
D|---------------------------|---------------------------|----------------------14----------|
A|---------------------------|---------------------------|----------------------------------|
E|---------------------------|---------------------------|----------------------------------|


E|---------9-------9-------9-------|-----------------------------------|-----------------------------------|
B|-----9---9---12--9---12--9-------|-----------------------------------|-----9-------------------------10--|
G|-----------------------------11--|-11-9--11--11--9-------9---9---11--|-11------11-9------11--9---9-------|
D|-12------------------------------|-------------------11--------------|---------------11------------------|
A|---------------------------------|-----------------------------------|-----------------------------------|
E|---------------------------------|-----------------------------------|-----------------------------------|


E|-----10-------10----------------|-----------------------------------|-----9----9---9---7---7---0---|
B|-10--10---10------10--10-8------|-10--8-----------------------------|-----9----9---9---7---7---0---|
G|----------------------------9---|---------9---8---9-----------------|-----9----9---9---7---7---0---|
D|--------------------------------|-----------------------------------|------------------------------|
A|--------------------------------|-----------------------------------|------------------------------|
E|--------------------------------|---------------------12--12-12-0---|------------------------------|


E|---------------------------------|---------------------------------|-----------------------------------|
B|-----9---9-------10--10------11--|-----12------13------14------15--|-----16------17--20-17-----17--17--|
G|-11----------12----------13------|-14------15------16------17------|-18------19------------19----------|
D|---------------------------------|---------------------------------|-----------------------------------|
A|---------------------------------|---------------------------------|-----------------------------------|
E|---------------------------------|---------------------------------|-----------------------------------|


E|---------------------------------|-----19--19----19--18--|-17------------------------------|
B|-----17--20------20--20--17------|-17--------------------|-----20--19--17--17------17--19--|
G|-19----------------------0---19--|-----------------------|---------------------18----------|
D|---------------------------------|-----------------------|---------------------------------|
A|---------------------------------|-----------------------|---------------------------------|
E|---------------------------------|-----------------------|---------------------------------|


E|------19---------------------------|-----22------22--22-----------|-----------------|
B|-19------19-17-----17--17--19--17--|------------------------------|------11---------|
G|---------------18------------------|------------------------------|------12---------|
D|-----------------------------------|------------------------------|-----------------|
A|-----------------------------------|------------------------------|-----------------|
E|-----------------------------------|------------------------------|-----------------|


E|--------|--------|--------|---------------------------------|---------------------|
B|--------|--------|--------|---------------------------------|-----7-----5----7----|
G|--------|--------|--------|---------------------------------|-----7-----6----7----|
D|--------|--------|--------|---------------------------------|-----7-----7----7----|
A|--------|--------|--------|---------------------------------|-----5-----7----5----|
E|--------|--------|--------|-0---0---0---0---0---0---0---0---|-0---------5---------|


E|---------------------------------|---------------------|---------------------------------|
B|---------------------------------|-----7-----5----7----|---------------------------------|
G|---------------------------------|-----7-----6----7----|---------------------------------|
D|---------------------------------|-----7-----7----7----|---------------------------------|
A|---------------------------------|-----5-----7----5----|---------------------------------|
E|-0---0---0---0---0---0---0---0---|-0---------5---------|-0---0---0---0---0---0---0---0---|


E|---------------------|---------------------------------|---------------------|---------------------------------|
B|-----7-----5----7----|---------------------------------|-----7-----5----7----|---------------------------------|
G|-----7-----6----7----|---------------------------------|-----7-----6----7----|---------------------------------|
D|-----7-----7----7----|---------------------------------|-----7-----7----7----|---------------------------------|
A|-----5-----7----5----|---------------------------------|-----5-----7----5----|---------------------------------|
E|-0---------5---------|-0---0---0---0---0---0---0---0---|-0---------5---------|-0---0---0---0---0---0---0---0---|


E|---------------------|---------------------------------|---------------------|---------------------------------|
B|-----7-----5----7----|---------------------------------|-----7-----5----7----|---------------------------------|
G|-----7-----6----7----|---------------------------------|-----7-----6----7----|---------------------------------|
D|-----7-----7----7----|---------------------------------|-----7-----7----7----|---------------------------------|
A|-----5-----7----5----|---------------------------------|-----5-----7----5----|---------------------------------|
E|-0---------5---------|-0---0---0---0---0---0---0---0---|-0---------5---------|-0---0---0---0---0---0---0---0---|


E|---------------------|---------------------------------|---------------------|---------------------------------|
B|-----7-----5----7----|---------------------------------|-----7-----5----7----|---------------------------------|
G|-----7-----6----7----|---------------------------------|-----7-----6----7----|---------------------------------|
D|-----7-----7----7----|---------------------------------|-----7-----7----7----|---------------------------------|
A|-----5-----7----5----|---------------------------------|-----5-----7----5----|---------------------------------|
E|-0---------5---------|-0---0---0---0---0---0---0---0---|-0---------5---------|-0---0---0---0---0---0---0---0---|


E|---------------------|---------------------------------|---------------------|---------------------------------|
B|-----7-----5----7----|---------------------------------|-----7-----5----7----|---------------------------------|
G|-----7-----6----7----|---------------------------------|-----7-----6----7----|---------------------------------|
D|-----7-----7----7----|---------------------------------|-----7-----7----7----|---------------------------------|
A|-----5-----7----5----|---------------------------------|-----5-----7----5----|---------------------------------|
E|-0---------5---------|-0---0---0---0---0---0---0---0---|-0---------5---------|-0---0---0---0---0---0---0---0---|





Track 2: Rhythm Guitar

E|---------------------------------|---------------------|---------------------------------|
B|---------------------------------|-----7-----5----7----|---------------------------------|
G|---------------------------------|-----7-----6----7----|---------------------------------|
D|---------------------------------|-----7-----7----7----|---------------------------------|
A|---------------------------------|-----5-----7----5----|---------------------------------|
E|-0---0---0---0---0---0---0---0---|-0---------5---------|-0---0---0---0---0---0---0---0---|


E|---------------------|---------------------------------|---------------------|---------------------------------|
B|-----7-----5----7----|---------------------------------|-----7-----5----7----|---------------------------------|
G|-----7-----6----7----|---------------------------------|-----7-----6----7----|---------------------------------|
D|-----7-----7----7----|---------------------------------|-----7-----7----7----|---------------------------------|
A|-----5-----7----5----|---------------------------------|-----5-----7----5----|---------------------------------|
E|-0---------5---------|-0---0---0---0---0---0---0---0---|-0---------5---------|-0---0---0---0---0---0---0---0---|


E|---------------------|---------------------------------|---------------------|---------------------------------|
B|-----7-----5----7----|---------------------------------|-----7-----5----7----|---------------------------------|
G|-----7-----6----7----|---------------------------------|-----7-----6----7----|---------------------------------|
D|-----7-----7----7----|---------------------------------|-----7-----7----7----|---------------------------------|
A|-----5-----7----5----|---------------------------------|-----5-----7----5----|---------------------------------|
E|-0---------5---------|-0---0---0---0---0---0---0---0---|-0---------5---------|-0---0---0---0---0---0---0---0---|


E|---------------------|---------------------------------|---------------------|---------------------------------|
B|-----7-----5----7----|---------------------------------|-----7-----5----7----|---------------------------------|
G|-----7-----6----7----|---------------------------------|-----7-----6----7----|---------------------------------|
D|-----7-----7----7----|---------------------------------|-----7-----7----7----|---------------------------------|
A|-----5-----7----5----|---------------------------------|-----5-----7----5----|---------------------------------|
E|-0---------5---------|-0---0---0---0---0---0---0---0---|-0---------5---------|-0---0---0---0---0---0---0---0---|


E|---------------------|---------------------------------|---------------------|---------------------------------|
B|-----7-----5----7----|---------------------------------|-----7-----5----7----|---------------------------------|
G|-----7-----6----7----|---------------------------------|-----7-----6----7----|---------------------------------|
D|-----7-----7----7----|---------------------------------|-----7-----7----7----|---------------------------------|
A|-----5-----7----5----|---------------------------------|-----5-----7----5----|---------------------------------|
E|-0---------5---------|-0---0---0---0---0---0---0---0---|-0---------5---------|-0---0---0---0---0---0---0---0---|


E|---------------------|---------------------------------|---------------------|---------------------------------|
B|-----7-----5----7----|---------------------------------|-----7-----5----7----|---------------------------------|
G|-----7-----6----7----|---------------------------------|-----7-----6----7----|---------------------------------|
D|-----7-----7----7----|---------------------------------|-----7-----7----7----|---------------------------------|
A|-----5-----7----5----|---------------------------------|-----5-----7----5----|---------------------------------|
E|-0---------5---------|-0---0---0---0---0---0---0---0---|-0---------5---------|-0---0---0---0---0---0---0---0---|


E|------------------------|-----------------------------5---|-5---------------------------5---|
B|-----7-----5----7-------|-----------------------------5---|-5---------------------------5---|
G|-----7-----6----7-------|-----------------------------6---|-6---------------------------6---|
D|-----7-----7----7-------|-----------------------------5---|-5---------------------------5---|
A|-----5-----7----5---0---|-7---7---9---7---7---9---7---7---|-7---7---9---7---7---9-------7---|
E|-0---------5------------|-5---5---5---5---5---5---5---5---|-5---5---5---5---5---5-------5---|


E|-5---------------------------5---|-5-------------------------------|-----------------------------7---|
B|-5---------------------------5---|-5-------------------------------|-----------------------------7---|
G|-6---------------------------6---|-6-------------------------------|-----------------------------8---|
D|-5---------------------------5---|-5-------------------------------|-----------------------------7---|
A|-7---7---9---7---7---7---9---7---|-7---7---9---7---7---7---9---7---|-9---9---11--9---9---9---11--9---|
E|-5---5---5---5---5---5---5---5---|-5---5---5---5---5---5---5---5---|-7---7---7---7---7---7---7---7---|


E|-7---------------------------7---|-7-----------------------------7---|-7-------------------------------|
B|-7---------------------------7---|-7-----------------------------7---|-7-------------------------------|
G|-8---------------------------8---|-8-----------------------------8---|-8-------------------------------|
D|-7---------------------------7---|-7-----------------------------7---|-7-------------------------------|
A|-9---9---11--9---9---9---11--9---|-9---9---11--9--9--9---9---11--9---|-9---9---11--9---9---9---11------|
E|-7---7---7---7---7---7---7---7---|-7---7---7---7--7--7---7---7---7---|-7---7---7---7---7---7---7---0---|


E|--------|--------|--------|--------|---------------------------------|---------------------|
B|--------|--------|--------|--------|-----9---------------------------|---------------------|
G|--------|--------|--------|--------|-----9---9-------9---9---9---9---|-9---7----------7----|
D|--------|--------|--------|--------|-----9---9---9---9---9---9---9---|-9---0-----7----7----|
A|--------|--------|--------|--------|-----7---7---7---7---7---7---7---|-7---------0----0----|
E|--------|--------|--------|--------|-0-----------0-------------------|---------------------|


E|---------------------------------|---------------------|-------------------------------------|
B|---------------------------------|---------------------|-------------------------------------|
G|-9---9---9---9---9---9---9---9---|-9---------0---------|-------------------------------------|
D|-9---9---9---9---9---9---9---9---|-9--------------0----|-9---9---9---9--9--9---9---9---9--9--|
A|-7---7---7---7---7---7---7---7---|-7---0---------------|-7---7---7---7--7--7---7---7---7--7--|
E|---------------------------------|---------------------|-------------------------------------|


E|---------------------|-----------------------------------|---------------------|
B|---------------------|-----------------------------------|---------------------|
G|---------------------|-----------------------------------|---------------------|
D|-9---------0---------|-9---9---9---9--9--9---9---9---9---|-9---------0---------|
A|-7---0----------0----|-7---7---7---7--7--7---7---7---7---|-7---0----------0----|
E|---------------------|-----------------------------------|---------------------|


E|---------------------------------|---------------------|---------------------------------|
B|---------------------------------|---------------------|---------------------------------|
G|---------------------------------|---------------------|---------------------------------|
D|-9---9---9---9---9---9---9---9---|-9---------0---------|-9---9---9---9---9---9---9---9---|
A|-7---7---7---7---7---7---7---7---|-7---0----------0----|-7---7---7---7---7---7---7---7---|
E|---------------------------------|---------------------|---------------------------------|


E|------------------------|---------------------------------|---------------------|
B|------------------------|---------------------------------|---------------------|
G|------------------------|---------------------------------|-----------0----0----|
D|-9------------0---------|-9---9---9---9---9---9---9---9---|-9--------------0----|
A|-7---0----0--------0----|-7---7---7---7---7---7---7---7---|-7---0---------------|
E|------------------------|---------------------------------|---------------------|


E|---------------------------------|---------------------|-----------------------------5---|
B|---------------------------------|---------------------|-----------------------------5---|
G|---------------------------------|---------------------|-----------------------------6---|
D|-9---9---9---9---9---9---9---9---|-9--------------0----|-----------------------------5---|
A|-7---7---7---7---7---7---7---7---|-7---0-----5---------|-7-----------7---7---9---7---7---|
E|---------------------------------|---------------------|-5---5---5---5---5---5---5---5---|


E|-5---------------------------5---|-5---------------------------5---|-5-------------------------------|
B|-5---------------------------5---|-5---------------------------5---|-5-------------------------------|
G|-6---------------------------6---|-6---------------------------6---|-6-------------------------------|
D|-5---------------------------5---|-5---------------------------5---|-5-------------------------------|
A|-7---7---9---7---7---7---9---7---|-7---7---9---7---7---7---9---7---|-7---7---9---7---7---7---9---7---|
E|-5---5---5---5---5---5---5---5---|-5---5---5---5---5---5---5---5---|-5---5---5---5---5---5---5---5---|


E|-----------------------------7---|-7---------------------------7---|-7---7-----------------------7---|
B|-----------------------------7---|-7---------------------------7---|-7---7-----------------------7---|
G|-----------------------------8---|-8---------------------------8---|-8---8-----------------------8---|
D|-----------------------------7---|-7---------------------------7---|-7---7-----------------------7---|
A|-9---9---11--9---9---9---11--9---|-9---9---11--9---12--9---11--9---|-9---9---11--9---9---9---11--9---|
E|-7---7---7---7---7---7---7---7---|-7---7---7---7---7---7---7---7---|-7---7---7---7---7---7---7---7---|


E|-7---7--------------------------|--------|--------|---------------------------------|
B|-7---7--------------------------|--------|--------|-9-------------------------------|
G|-8---8--------------------------|--------|--------|-9---9---9---9---9---9---9---9---|
D|-7---7--------------------------|--------|--------|-9---9---9---9---9---9---9---9---|
A|-9---9---11--9---9----5---5--7--|--------|--------|-7---7---7---7---7---7---7---7---|
E|-7---7---7---7---7----5---5--7--|--------|--------|-0---0---0---0---0---0---0---0---|


E|---------------------|---------------------------------|---------------------|---------------------------------|
B|-----7-----5----7----|-9-------------------------------|-9---7-----5----7----|-9-------------------------------|
G|-----7-----6----7----|-9---9---9---9---9---9---9---9---|-9---7-----6----7----|-9---9---9---9---9---9---9---9---|
D|-----7-----7----7----|-9---9---9---9---9---9---9---9---|-9---7-----7----7----|-9---9---9---9---9---9---9---9---|
A|-----5-----7----5----|-7---7---7---7---7---7---7---7---|-7---5-----7----5----|-7---7---7---7---7---7---7---7---|
E|-----------5---------|-0---0---0---0---0---0---0---0---|-0---------5---------|-0---0---0---0---0---0---0---0---|


E|---------------------|---------------------------------|---------------------|---------------------------------|
B|-9---7-----5----7----|-9-------------------------------|-9---7-----5----7----|-9-------------------------------|
G|-9---7-----6----7----|-9---9---9---9---9---9---9---9---|-9---7-----6----7----|-9---9---9---9---9---9---9---9---|
D|-9---7-----7----7----|-9---9---9---9---9---9---9---9---|-9---7-----7----7----|-9---9---9---9---9---9---9---9---|
A|-7---5-----7----5----|-7---7---7---7---7---7---7---7---|-7---5-----7----5----|-7---7---7---7---7---7---7---7---|
E|-0---------5---------|-0---0---0---0---0---0---0---0---|-0---------5---------|-0---0---0---0---0---0---0---0---|


E|---------------------|---------------------------------|---------------------|---------------------------------|
B|-9---7-----5----7----|-9-------------------------------|-9---7-----5----7----|-9---9---9---9---9---9---9---9---|
G|-9---7-----6----7----|-9---9---9---9---9---9---9---9---|-9---7-----6----7----|-9---9---9---9---9---9---9---9---|
D|-9---7-----7----7----|-9---9---9---9---9---9---9---9---|-9---7-----7----7----|-9---9---9---9---9---9---9---9---|
A|-7---5-----7----5----|-7---7---7---7---7---7---7---7---|-7---5-----7----5----|-7---7---7---7---7---7---7---7---|
E|-0---------5---------|-0---0---0---0---0---0---0---0---|-0---------5---------|-0---0---0---0---0---0---0---0---|


E|---------------------|-----------------------------5---|-5---------------------------5---|
B|-9---7-----5----7----|-----------------------------5---|-5---------------------------5---|
G|-9---7-----6----7----|-----------------------------6---|-6---------------------------6---|
D|-9---7-----7----7----|-7---------------------------5---|-5---------------------------5---|
A|-7---5-----7----5----|-7-------9---7---7---7---9---7---|-7---7---9---7---7---7---9---7---|
E|-0---------5---------|-5-------5---5---5---5---5---5---|-5---5---7---5---5---5---7---5---|


E|-5---------------------------5---|-5-------------------------------|-----------------------------7---|
B|-5---------------------------5---|-5-------------------------------|-----------------------------7---|
G|-6---------------------------6---|-6-------------------------------|-----------------------------8---|
D|-5---------------------------5---|-5-------------------------------|-----------------------------7---|
A|-7---7---9---7---7---7---9---7---|-7---7---9---7---7---7---9---7---|-9---9---11--9---9---9---11--9---|
E|-5---5---5---5---5---5---5---5---|-5---5---5---5---5---5---5---5---|-7---7---7---7---7---7---7---7---|


E|-7---------------------------7---|-7---------------------------7---|-7-------------------------------|
B|-7---------------------------7---|-7---------------------------7---|-7-------------------------------|
G|-8---------------------------8---|-8---------------------------8---|-8-------------------------------|
D|-7---------------------------7---|-7---------------------------7---|-7-------------------------------|
A|-9---9---11--9---9---9---11--9---|-9---9---11--9---9---9---11--9---|-9---9---11--9---9---9---11------|
E|-7---7---7---7---7---7---7---7---|-7---7---7---7---7---7---7---7---|-7---7---7---7---7---7---7---0---|


E|---------------------------------|---------------------|---------------------------------|
B|---------------------------------|-----7-----5----7----|---------------------------------|
G|---------------------------------|-----7-----6----7----|---------------------------------|
D|---------------------------------|-----7-----7----7----|---------------------------------|
A|---------------------------------|-----5-----7----5----|---------------------------------|
E|-0---0---0---0---0---0---0---0---|-0---------5---------|-0---0---0---0---0---0---0---0---|


E|---------------------|--------|---------------------------------|-----------------------------------|
B|-----7-----5----7----|--------|---------------------------------|-----------------------------------|
G|-----7-----6----7----|--------|---------------------------------|-----------------------------------|
D|-----7-----7----7----|--------|-9---9---9---9---9---9---9---9---|-9---9---9---9--9--9---9---9---9---|
A|-----5-----7----5----|--------|-7---7---7---7---7---7---7---7---|-7---7---7---7--7--7---7---7---7---|
E|-0---------5---------|--------|-0---0---0---0---0---0---0---0---|-0---0---0---0--0--0---0---0---0---|


E|---------------------|-----------------------------------|---------------------|
B|---------------------|-----------------------------------|---------------------|
G|---------------------|-----------------------------------|---------------------|
D|-9---7-----7----7----|-9---9---9---9--9--9---9---9---9---|-9---7-----7----7----|
A|-7---5-----7----5----|-7---7---7---7--7--7---7---7---7---|-7---5-----7----5----|
E|-0---------5---------|-0---0---0---0--0--0---0---0---0---|-0---------5---------|


E|-----------------------------------|---------------------|-----------------------------------|
B|-----------------------------------|---------------------|-----------------------------------|
G|-----------------------------------|---------------------|-----------------------------------|
D|-9---9---9---9--9--9---9---9---9---|-9---7-----7----7----|-9---9---9---9--9--9---9---9---9---|
A|-7---7---7---7--7--7---7---7---7---|-7---5-----7----5----|-7---7---7---7--7--7---7---7---7---|
E|-0---0---0---0--0--0---0---0---0---|-0---------5---------|-0---0---0---0--0--0---0---0---0---|


E|---------------------|------------------------------|---------------------|---------------------------------|
B|---------------------|------------------------------|---------------------|---------------------------------|
G|---------------------|------------------------------|---------------------|-9---9---9---9---9---7---7---14--|
D|-9---7-----7----7----|-9---9---9---9---9---9---9----|----------------7----|-9---9---9---9---9---7---7-------|
A|-7---5-----7----5----|-7---7---7---7---7---7---7----|-----------7----5----|-7---7---7---7---7---5---5-------|
E|-0---------5---------|-0---0---0---0---0---0---0----|-----0-----5---------|-0---0---0---0---0---------------|


E|----------------------------|------------------------------|---------------------------------------|
B|------12---12---12----------|-14--12-----------------------|---------20-----------------20---------|
G|-14---14---14---14-14-12----|-14--12--------------12-------|-19--19------19-19--19-19------19--19--|
D|-------------------------14-|---------14--12--14--0---0----|---------------------------------------|
A|----------------------------|------------------------------|---------------------------------------|
E|----------------------------|------------------------------|---------------------------------------|


E|-0---15--15-----|-------------|--------------------------------|---------17--------------------------------|
B|----------------|-22-----22---|-22--22--20--22-22-22--20--22---|-----20----------17-20-17-----17-20-17-----|
G|----------------|-------------|--------------------------------|-------------19-----------19-----------19--|
D|----------------|-------------|--------------------------------|-------------------------------------------|
A|----------------|-------------|--------------------------------|-------------------------------------------|
E|----------------|-------------|--------------------------------|-------------------------------------------|


E|-----------------|
B|-17--------------|
G|-----------------|
D|-----------------|
A|-----------------|
E|-----------------|





Track 3: Untitled

G|--------|--------|--------|--------|--------|--------|--------|--------|--------|
D|--------|--------|--------|--------|--------|--------|--------|--------|--------|
A|--------|--------|--------|--------|--------|--------|--------|--------|--------|
E|--------|--------|--------|--------|--------|--------|--------|--------|--------|


G|--------|--------|--------|--------|--------|--------|--------|--------|--------|
D|--------|--------|--------|--------|--------|--------|--------|--------|--------|
A|--------|--------|--------|--------|--------|--------|--------|--------|--------|
E|--------|--------|--------|--------|--------|--------|--------|--------|--------|


G|--------|--------|--------|--------|--------|--------|--------|--------|--------|
D|--------|--------|--------|--------|--------|--------|--------|--------|--------|
A|--------|--------|--------|--------|--------|--------|--------|--------|--------|
E|--------|--------|--------|--------|--------|--------|--------|--------|--------|


G|--------|--------|--------|--------|--------|--------|--------|--------|--------|
D|--------|--------|--------|--------|--------|--------|--------|--------|--------|
A|--------|--------|--------|--------|--------|--------|--------|--------|--------|
E|--------|--------|--------|--------|--------|--------|--------|--------|--------|


G|--------|--------|--------|--------|--------|--------|--------|--------|--------|
D|--------|--------|--------|--------|--------|--------|--------|--------|--------|
A|--------|--------|--------|--------|--------|--------|--------|--------|--------|
E|--------|--------|--------|--------|--------|--------|--------|--------|--------|


G|--------|--------|--------|--------|--------|--------|--------|--------|--------|
D|--------|--------|--------|--------|--------|--------|--------|--------|--------|
A|--------|--------|--------|--------|--------|--------|--------|--------|--------|
E|--------|--------|--------|--------|--------|--------|--------|--------|--------|


G|--------|--------|--------|--------|--------|--------|--------|--------|--------|
D|--------|--------|--------|--------|--------|--------|--------|--------|--------|
A|--------|--------|--------|--------|--------|--------|--------|--------|--------|
E|--------|--------|--------|--------|--------|--------|--------|--------|--------|


G|--------|--------|--------|--------|--------|--------|--------|--------|--------|
D|--------|--------|--------|--------|--------|--------|--------|--------|--------|
A|--------|--------|--------|--------|--------|--------|--------|--------|--------|
E|--------|--------|--------|--------|--------|--------|--------|--------|--------|


G|--------|--------|--------|--------|--------|--------|--------|--------|--------|
D|--------|--------|--------|--------|--------|--------|--------|--------|--------|
A|--------|--------|--------|--------|--------|--------|--------|--------|--------|
E|--------|--------|--------|--------|--------|--------|--------|--------|--------|


G|--------|--------|--------|--------|--------|--------|--------|--------|--------|
D|--------|--------|--------|--------|--------|--------|--------|--------|--------|
A|--------|--------|--------|--------|--------|--------|--------|--------|--------|
E|--------|--------|--------|--------|--------|--------|--------|--------|--------|


G|--------|--------|--------|--------|--------|--------|--------|--------|--------|
D|--------|--------|--------|--------|--------|--------|--------|--------|--------|
A|--------|--------|--------|--------|--------|--------|--------|--------|--------|
E|--------|--------|--------|--------|--------|--------|--------|--------|--------|


G|--------|--------|--------|--------|--------|--------|--------|--------|--------|
D|--------|--------|--------|--------|--------|--------|--------|--------|--------|
A|--------|--------|--------|--------|--------|--------|--------|--------|--------|
E|--------|--------|--------|--------|--------|--------|--------|--------|--------|


G|--------|
D|--------|
A|--------|
E|--------|