Menu:

 

Search:

 

klimt 1918 - snow of 85:

 



Title: Snow of '85
Artist: 
Album: Dopoguerra
Author: Klimt 1918


Track 1: Harmonics Guitar

 E|---------------------------------|---------------------------------|---------------------------------|
 B|---------------------------------|---------------------------------|---------------------------------|
F#|---------------------------------|-------------------------4-------|---------------------------------|
 D|-4-------4-------4-----------4---|---------4-----------------------|-4-------4-------4-----------4---|
 A|-----4-------4-------4-----------|-4-----------4-------4-------4---|-----4-------4-------4-----------|
F#|-------------------------4-------|-----4-----------4---------------|-------------------------4-------|
 B|---------------------------------|---------------------------------|---------------------------------|


 E|---------------------------------|---------------------------------|---------------------------------|
 B|---------------------------------|---------------------------------|---------------------------------|
F#|-------------------------4-------|---------------------------------|-------------------------4-------|
 D|---------4-----------------------|-4-------4-------4-----------4---|---------4-----------------------|
 A|-4-----------4-------4-------4---|-----4-------4-------4-----------|-4-----------4-------4-------4---|
F#|-----4-----------4---------------|-------------------------4-------|-----4-----------4---------------|
 B|---------------------------------|---------------------------------|---------------------------------|


 E|---------------------------------|---------------------------------|---------------------------------|
 B|---------------------------------|---------------------------------|---------------------------------|
F#|---------------------------------|-------------------------4-------|---------------------------------|
 D|-4-------4-------4-----------4---|---------4-----------------------|-4-------4-------4-----------4---|
 A|-----4-------4-------4-----------|-4-----------4-------4-------4---|-----4-------4-------4-----------|
F#|-------------------------4-------|-----4-----------4---------------|-------------------------4-------|
 B|---------------------------------|---------------------------------|---------------------------------|


 E|---------------------------------|---------------------------------|---------------------------------|
 B|---------------------------------|---------------------------------|---------------------------------|
F#|-------------------------4-------|---------------------------------|-------------------------4-------|
 D|---------4-----------------------|-4-------4-------4-----------4---|---------4-----------------------|
 A|-4-----------4-------4-------4---|-----4-------4-------4-----------|-4-----------4-------4-------4---|
F#|-----4-----------4---------------|-------------------------4-------|-----4-----------4---------------|
 B|---------------------------------|---------------------------------|---------------------------------|


 E|---------------------------------|---------------------------------|---------------------------------|
 B|---------------------------------|---------------------------------|---------------------------------|
F#|---------------------------------|-------------------------4-------|---------------------------------|
 D|-4-------4-------4-----------4---|---------4-----------------------|-4-------4-------4-----------4---|
 A|-----4-------4-------4-----------|-4-----------4-------4-------4---|-----4-------4-------4-----------|
F#|-------------------------4-------|-----4-----------4---------------|-------------------------4-------|
 B|---------------------------------|---------------------------------|---------------------------------|


 E|---------------------------------|---------------------------------|---------------------------------|
 B|---------------------------------|---------------------------------|---------------------------------|
F#|-------------------------4-------|---------------------------------|-------------------------4-------|
 D|---------4-----------------------|-4-------4-------4-----------4---|---------4-----------------------|
 A|-4-----------4-------4-------4---|-----4-------4-------4-----------|-4-----------4-------4-------4---|
F#|-----4-----------4---------------|-------------------------4-------|-----4-----------4---------------|
 B|---------------------------------|---------------------------------|---------------------------------|


 E|---------------------------------|---------------------------------|---------------------------------|
 B|---------------------------------|---------------------------------|---------------------------------|
F#|---------------------------------|-------------------------4-------|---------------------------------|
 D|-4-------4-------4-----------4---|---------4-----------------------|-4-------4-------4-----------4---|
 A|-----4-------4-------4-----------|-4-----------4-------4-------4---|-----4-------4-------4-----------|
F#|-------------------------4-------|-----4-----------4---------------|-------------------------4-------|
 B|---------------------------------|---------------------------------|---------------------------------|


 E|---------------------------------|---------------------------------|---------------------------------|
 B|---------------------------------|---------------------------------|---------------------------------|
F#|-------------------------4-------|---------------------------------|-------------------------4-------|
 D|---------4-----------------------|-4-------4-------4-----------4---|---------4-----------------------|
 A|-4-----------4-------4-------4---|-----4-------4-------4-----------|-4-----------4-------4-------4---|
F#|-----4-----------4---------------|-------------------------4-------|-----4-----------4---------------|
 B|---------------------------------|---------------------------------|---------------------------------|


 E|---------------------------------|---------------------------------|---------------------------------|
 B|---------------------------------|---------------------------------|---------------------------------|
F#|---------------------------------|-------------------------4-------|---------------------------------|
 D|-4-------4-------4-----------4---|---------4-----------------------|-4-------4-------4-----------4---|
 A|-----4-------4-------4-----------|-4-----------4-------4-------4---|-----4-------4-------4-----------|
F#|-------------------------4-------|-----4-----------4---------------|-------------------------4-------|
 B|---------------------------------|---------------------------------|---------------------------------|


 E|---------------------------------|--------|--------|--------|--------|--------|
 B|---------------------------------|--------|--------|--------|--------|--------|
F#|-------------------------4-------|--------|--------|--------|--------|--------|
 D|---------4-----------------------|--------|--------|--------|--------|--------|
 A|-4-----------4-------4-------4---|--------|--------|--------|--------|--------|
F#|-----4-----------4---------------|--------|--------|--------|--------|--------|
 B|---------------------------------|--------|--------|--------|--------|--------|


 E|--------|--------|--------|--------|--------|--------|--------|--------|--------|
 B|--------|--------|--------|--------|--------|--------|--------|--------|--------|
F#|--------|--------|--------|--------|--------|--------|--------|--------|--------|
 D|--------|--------|--------|--------|--------|--------|--------|--------|--------|
 A|--------|--------|--------|--------|--------|--------|--------|--------|--------|
F#|--------|--------|--------|--------|--------|--------|--------|--------|--------|
 B|--------|--------|--------|--------|--------|--------|--------|--------|--------|


 E|--------|--------|--------|--------|--------|--------|--------|--------|--------|
 B|--------|--------|--------|--------|--------|--------|--------|--------|--------|
F#|--------|--------|--------|--------|--------|--------|--------|--------|--------|
 D|--------|--------|--------|--------|--------|--------|--------|--------|--------|
 A|--------|--------|--------|--------|--------|--------|--------|--------|--------|
F#|--------|--------|--------|--------|--------|--------|--------|--------|--------|
 B|--------|--------|--------|--------|--------|--------|--------|--------|--------|


 E|--------|--------|--------|--------|--------|--------|--------|--------|--------|
 B|--------|--------|--------|--------|--------|--------|--------|--------|--------|
F#|--------|--------|--------|--------|--------|--------|--------|--------|--------|
 D|--------|--------|--------|--------|--------|--------|--------|--------|--------|
 A|--------|--------|--------|--------|--------|--------|--------|--------|--------|
F#|--------|--------|--------|--------|--------|--------|--------|--------|--------|
 B|--------|--------|--------|--------|--------|--------|--------|--------|--------|


 E|--------|--------|--------|--------|--------|--------|--------|--------|--------|
 B|--------|--------|--------|--------|--------|--------|--------|--------|--------|
F#|--------|--------|--------|--------|--------|--------|--------|--------|--------|
 D|--------|--------|--------|--------|--------|--------|--------|--------|--------|
 A|--------|--------|--------|--------|--------|--------|--------|--------|--------|
F#|--------|--------|--------|--------|--------|--------|--------|--------|--------|
 B|--------|--------|--------|--------|--------|--------|--------|--------|--------|


 E|--------|--------|--------|--------|--------|--------|--------|--------|--------|
 B|--------|--------|--------|--------|--------|--------|--------|--------|--------|
F#|--------|--------|--------|--------|--------|--------|--------|--------|--------|
 D|--------|--------|--------|--------|--------|--------|--------|--------|--------|
 A|--------|--------|--------|--------|--------|--------|--------|--------|--------|
F#|--------|--------|--------|--------|--------|--------|--------|--------|--------|
 B|--------|--------|--------|--------|--------|--------|--------|--------|--------|


 E|--------|--------|--------|--------|--------|--------|--------|---------------------------------|
 B|--------|--------|--------|--------|--------|--------|--------|---------------------------------|
F#|--------|--------|--------|--------|--------|--------|--------|---------------------------------|
 D|--------|--------|--------|--------|--------|--------|--------|-4-------4-------4-----------4---|
 A|--------|--------|--------|--------|--------|--------|--------|-----4-------4-------4-----------|
F#|--------|--------|--------|--------|--------|--------|--------|-------------------------4-------|
 B|--------|--------|--------|--------|--------|--------|--------|---------------------------------|


 E|---------------------------------|---------------------------------|---------------------------------|
 B|---------------------------------|---------------------------------|---------------------------------|
F#|-------------------------4-------|---------------------------------|-------------------------4-------|
 D|---------4-----------------------|-4-------4-------4-----------4---|---------4-----------------------|
 A|-4-----------4-------4-------4---|-----4-------4-------4-----------|-4-----------4-------4-------4---|
F#|-----4-----------4---------------|-------------------------4-------|-----4-----------4---------------|
 B|---------------------------------|---------------------------------|---------------------------------|


 E|---------------------------------|---------------------------------|---------------------------------|
 B|---------------------------------|---------------------------------|---------------------------------|
F#|---------------------------------|-------------------------4-------|---------------------------------|
 D|-4-------4-------4-----------4---|---------4-----------------------|-4-------4-------4-----------4---|
 A|-----4-------4-------4-----------|-4-----------4-------4-------4---|-----4-------4-------4-----------|
F#|-------------------------4-------|-----4-----------4---------------|-------------------------4-------|
 B|---------------------------------|---------------------------------|---------------------------------|


 E|---------------------------------|---------------------------------|---------------------------------|
 B|---------------------------------|---------------------------------|---------------------------------|
F#|-------------------------4-------|---------------------------------|-------------------------4-------|
 D|---------4-----------------------|-4-------4-------4-----------4---|---------4-----------------------|
 A|-4-----------4-------4-------4---|-----4-------4-------4-----------|-4-----------4-------4-------4---|
F#|-----4-----------4---------------|-------------------------4-------|-----4-----------4---------------|
 B|---------------------------------|---------------------------------|---------------------------------|


 E|---------------------------------|---------------------------------|---------------------------------|
 B|---------------------------------|---------------------------------|---------------------------------|
F#|---------------------------------|-------------------------4-------|---------------------------------|
 D|-4-------4-------4-----------4---|---------4-----------------------|-4-------4-------4-----------4---|
 A|-----4-------4-------4-----------|-4-----------4-------4-------4---|-----4-------4-------4-----------|
F#|-------------------------4-------|-----4-----------4---------------|-------------------------4-------|
 B|---------------------------------|---------------------------------|---------------------------------|


 E|---------------------------------|---------------------------------|---------------------------------|
 B|---------------------------------|---------------------------------|---------------------------------|
F#|-------------------------4-------|---------------------------------|-------------------------4-------|
 D|---------4-----------------------|-4-------4-------4-----------4---|---------4-----------------------|
 A|-4-----------4-------4-------4---|-----4-------4-------4-----------|-4-----------4-------4-------4---|
F#|-----4-----------4---------------|-------------------------4-------|-----4-----------4---------------|
 B|---------------------------------|---------------------------------|---------------------------------|


 E|--------|--------|--------|--------|--------|--------|--------|--------|--------|
 B|--------|--------|--------|--------|--------|--------|--------|--------|--------|
F#|--------|--------|--------|--------|--------|--------|--------|--------|--------|
 D|--------|--------|--------|--------|--------|--------|--------|--------|--------|
 A|--------|--------|--------|--------|--------|--------|--------|--------|--------|
F#|--------|--------|--------|--------|--------|--------|--------|--------|--------|
 B|--------|--------|--------|--------|--------|--------|--------|--------|--------|


 E|--------|--------|--------|--------|--------|--------|--------|--------|--------|
 B|--------|--------|--------|--------|--------|--------|--------|--------|--------|
F#|--------|--------|--------|--------|--------|--------|--------|--------|--------|
 D|--------|--------|--------|--------|--------|--------|--------|--------|--------|
 A|--------|--------|--------|--------|--------|--------|--------|--------|--------|
F#|--------|--------|--------|--------|--------|--------|--------|--------|--------|
 B|--------|--------|--------|--------|--------|--------|--------|--------|--------|


 E|--------|--------|--------|--------|--------|--------|--------|--------|--------|
 B|--------|--------|--------|--------|--------|--------|--------|--------|--------|
F#|--------|--------|--------|--------|--------|--------|--------|--------|--------|
 D|--------|--------|--------|--------|--------|--------|--------|--------|--------|
 A|--------|--------|--------|--------|--------|--------|--------|--------|--------|
F#|--------|--------|--------|--------|--------|--------|--------|--------|--------|
 B|--------|--------|--------|--------|--------|--------|--------|--------|--------|


 E|--------|--------|--------|--------|--------|--------|--------|--------|--------|
 B|--------|--------|--------|--------|--------|--------|--------|--------|--------|
F#|--------|--------|--------|--------|--------|--------|--------|--------|--------|
 D|--------|--------|--------|--------|--------|--------|--------|--------|--------|
 A|--------|--------|--------|--------|--------|--------|--------|--------|--------|
F#|--------|--------|--------|--------|--------|--------|--------|--------|--------|
 B|--------|--------|--------|--------|--------|--------|--------|--------|--------|


 E|--------|--------|--------|--------|--------|--------|--------|--------|--------|
 B|--------|--------|--------|--------|--------|--------|--------|--------|--------|
F#|--------|--------|--------|--------|--------|--------|--------|--------|--------|
 D|--------|--------|--------|--------|--------|--------|--------|--------|--------|
 A|--------|--------|--------|--------|--------|--------|--------|--------|--------|
F#|--------|--------|--------|--------|--------|--------|--------|--------|--------|
 B|--------|--------|--------|--------|--------|--------|--------|--------|--------|


 E|--------|--------|--------|--------|--------|--------|--------|--------|--------|
 B|--------|--------|--------|--------|--------|--------|--------|--------|--------|
F#|--------|--------|--------|--------|--------|--------|--------|--------|--------|
 D|--------|--------|--------|--------|--------|--------|--------|--------|--------|
 A|--------|--------|--------|--------|--------|--------|--------|--------|--------|
F#|--------|--------|--------|--------|--------|--------|--------|--------|--------|
 B|--------|--------|--------|--------|--------|--------|--------|--------|--------|


 E|--------|
 B|--------|
F#|--------|
 D|--------|
 A|--------|
F#|--------|
 B|--------|





Track 2: Clean Center

 E|--------|--------|--------|--------|---------------------------------|---------------------------------|
 B|--------|--------|--------|--------|---------------------------------|---------------------------------|
F#|--------|--------|--------|--------|---------------------------------|---------------------------------|
 D|--------|--------|--------|--------|---------------------------------|---------------------------------|
 A|--------|--------|--------|--------|-2---2---2---2---2---2---2---2---|-2---2---2---2---2---2---2---2---|
 E|--------|--------|--------|--------|---------------------------------|---------------------------------|
 B|--------|--------|--------|--------|---------------------------------|---------------------------------|


 E|---------------------------------|---------------------------------|---------------------------------|
 B|---------------------------------|---------------------------------|---------------------------------|
F#|---------------------------------|---------------------------------|---------------------------------|
 D|---------------------------------|---------------------------------|---------------------------------|
 A|---------------------------------|---------------------------------|-2---2---2---2---2---2---2---2---|
 E|-4---4---4---4---4---4---4---4---|-4---4---4---4---4---4---4---4---|---------------------------------|
 B|---------------------------------|---------------------------------|---------------------------------|


 E|---------------------------------|---------------------------------|---------------------------------|
 B|---------------------------------|---------------------------------|---------------------------------|
F#|---------------------------------|---------------------------------|---------------------------------|
 D|---------------------------------|---------------------------------|---------------------------------|
 A|-2---2---2---2---2---2---2---2---|---------------------------------|---------------------------------|
 E|---------------------------------|-4---4---4---4---4---4---4---4---|-4---4---4---4---4---4---4---4---|
 B|---------------------------------|---------------------------------|---------------------------------|


 E|--------|--------|--------|--------|--------|--------|--------|--------|--------|
 B|--------|--------|--------|--------|--------|--------|--------|--------|--------|
F#|--------|--------|--------|--------|--------|--------|--------|--------|--------|
 D|--------|--------|--------|--------|--------|--------|--------|--------|--------|
 A|--------|--------|--------|--------|--------|--------|--------|--------|--------|
 E|--------|--------|--------|--------|--------|--------|--------|--------|--------|
 B|--------|--------|--------|--------|--------|--------|--------|--------|--------|


 E|--------|--------|--------|--------|--------|--------|--------|-----------------------------------------------|
 B|--------|--------|--------|--------|--------|--------|--------|-0---11-0--12-11-0--12-11-0--12-11-0--12-11-0--|
F#|--------|--------|--------|--------|--------|--------|--------|-----------------------------------------------|
 D|--------|--------|--------|--------|--------|--------|--------|-----------------------------------------------|
 A|--------|--------|--------|--------|--------|--------|--------|-----------------------------------------------|
 E|--------|--------|--------|--------|--------|--------|--------|-----------------------------------------------|
 B|--------|--------|--------|--------|--------|--------|--------|-----------------------------------------------|


 E|-------------------------------------------------|-------------------------------------------------|
 B|-12-11-0--12-11-0--12-11-0--12-11-0--14-11-0--12-|-11-0--12-11-0--12-11-0--12-11-0--12-11-0--12-11-|
F#|-------------------------------------------------|-------------------------------------------------|
 D|-------------------------------------------------|-------------------------------------------------|
 A|-------------------------------------------------|-------------------------------------------------|
 E|-------------------------------------------------|-------------------------------------------------|
 B|-------------------------------------------------|-------------------------------------------------|


 E|-------------------------------------------------|-------------------------------------------------|
 B|-0--12-11-0--12-11-0--12-11-0--14-11-0--12-11-0--|-12-11-0--12-11-0--12-11-0--12-11-0--12-11-0--12-|
F#|-------------------------------------------------|-------------------------------------------------|
 D|-------------------------------------------------|-------------------------------------------------|
 A|-------------------------------------------------|-------------------------------------------------|
 E|-------------------------------------------------|-------------------------------------------------|
 B|-------------------------------------------------|-------------------------------------------------|


 E|-------------------------------------------------|-------------------------------------------------|
 B|-11-0--12-11-0--12-11-0--14-11-0--12-11-0--12-11-|-0--12-11-0--12-11-0--12-11-0--12-11-0--12-11-0--|
F#|-------------------------------------------------|-------------------------------------------------|
 D|-------------------------------------------------|-------------------------------------------------|
 A|-------------------------------------------------|-------------------------------------------------|
 E|-------------------------------------------------|-------------------------------------------------|
 B|-------------------------------------------------|-------------------------------------------------|


 E|-------------------------------------------------|-------------------------------------------------|
 B|-12-11-0--12-11-0--14-11-0--12-11-0--12-11-0--12-|-11-0--12-11-0--12-11-0--12-11-0--12-11-0--12-11-|
F#|-------------------------------------------------|-------------------------------------------------|
 D|-------------------------------------------------|-------------------------------------------------|
 A|-------------------------------------------------|-------------------------------------------------|
 E|-------------------------------------------------|-------------------------------------------------|
 B|-------------------------------------------------|-------------------------------------------------|


 E|-------------------------------------------------|-------------------------------------------------|
 B|-0--12-11-0--12-11-0--12-11-0--14-11-0--12-11-0--|-12-11-0--12-11-0--12-11-0--12-11-0--12-11-0--12-|
F#|-------------------------------------------------|-------------------------------------------------|
 D|-------------------------------------------------|-------------------------------------------------|
 A|-------------------------------------------------|-------------------------------------------------|
 E|-------------------------------------------------|-------------------------------------------------|
 B|-------------------------------------------------|-------------------------------------------------|


 E|-------------------------------------------------|-------------------------------------------------|
 B|-11-0--12-11-0--12-11-0--14-11-0--12-11-0--12-11-|-0--12-11-0--12-11-0--12-11-0--12-11-0--12-11-0--|
F#|-------------------------------------------------|-------------------------------------------------|
 D|-------------------------------------------------|-------------------------------------------------|
 A|-------------------------------------------------|-------------------------------------------------|
 E|-------------------------------------------------|-------------------------------------------------|
 B|-------------------------------------------------|-------------------------------------------------|


 E|-------------------------------------------------|-------------------------------------------------|
 B|-12-11-0--12-11-0--12-11-0--12-11-0--14-11-0--12-|-11-0--12-11-0--12-11-0--12-11-0--12-11-0--12-11-|
F#|-------------------------------------------------|-------------------------------------------------|
 D|-------------------------------------------------|-------------------------------------------------|
 A|-------------------------------------------------|-------------------------------------------------|
 E|-------------------------------------------------|-------------------------------------------------|
 B|-------------------------------------------------|-------------------------------------------------|


 E|-------------------------------------------------|---------------------------------------------|
 B|-0--12-11-0--12-11-0--12-11-0--14-11-0--12-11-0--|-0---17--19-17-0--19-17-0--19-17-0--19-17-0--|
F#|-------------------------------------------------|---------------------------------------------|
 D|-------------------------------------------------|---------------------------------------------|
 A|-------------------------------------------------|---------------------------------------------|
 E|-------------------------------------------------|---------------------------------------------|
 B|-------------------------------------------------|---------------------------------------------|


 E|-------------------------------------------------|---------------------------------------------|
 B|-19-17-0--19-17-0--19-17-0--19-17-0--19-17-0--17-|-0---12--14-12-0--14-12-0--14-12-0--14-11-0--|
F#|-------------------------------------------------|---------------------------------------------|
 D|-------------------------------------------------|---------------------------------------------|
 A|-------------------------------------------------|---------------------------------------------|
 E|-------------------------------------------------|---------------------------------------------|
 B|-------------------------------------------------|---------------------------------------------|


 E|-------------------------------------------------|---------------------------------------------|
 B|-12-11-0--12-11-0--12-11-0--12-11-0--12-11-0--12-|-0---17--19-17-0--19-17-0--19-17-0--19-17-0--|
F#|-------------------------------------------------|---------------------------------------------|
 D|-------------------------------------------------|---------------------------------------------|
 A|-------------------------------------------------|---------------------------------------------|
 E|-------------------------------------------------|---------------------------------------------|
 B|-------------------------------------------------|---------------------------------------------|


 E|-------------------------------------------------|---------------------------------------------|
 B|-19-17-0--19-17-0--19-17-0--19-17-0--19-17-0--17-|-0---12--14-12-0--14-12-0--14-12-0--14-11-0--|
F#|-------------------------------------------------|---------------------------------------------|
 D|-------------------------------------------------|---------------------------------------------|
 A|-------------------------------------------------|---------------------------------------------|
 E|-------------------------------------------------|---------------------------------------------|
 B|-------------------------------------------------|---------------------------------------------|


 E|-------------------------------------------------|-------------------------------------------------|
 B|-12-11-0--12-11-0--12-11-0--12-11-0--12-11-0--12-|-12-11-0--12-11-0--12-11-0--12-11-0--12-11-0--12-|
F#|-------------------------------------------------|-------------------------------------------------|
 D|-------------------------------------------------|-------------------------------------------------|
 A|-------------------------------------------------|-------------------------------------------------|
 E|-------------------------------------------------|-------------------------------------------------|
 B|-------------------------------------------------|-------------------------------------------------|


 E|--------|--------|--------|--------|--------|--------|--------|--------|--------|
 B|--------|--------|--------|--------|--------|--------|--------|--------|--------|
F#|--------|--------|--------|--------|--------|--------|--------|--------|--------|
 D|--------|--------|--------|--------|--------|--------|--------|--------|--------|
 A|--------|--------|--------|--------|--------|--------|--------|--------|--------|
 E|--------|--------|--------|--------|--------|--------|--------|--------|--------|
 B|--------|--------|--------|--------|--------|--------|--------|--------|--------|


 E|--------|--------|--------|--------|--------|--------|--------|-----------------------------------------------|
 B|--------|--------|--------|--------|--------|--------|--------|-0---11-0--12-11-0--12-11-0--12-11-0--12-11-0--|
F#|--------|--------|--------|--------|--------|--------|--------|-----------------------------------------------|
 D|--------|--------|--------|--------|--------|--------|--------|-----------------------------------------------|
 A|--------|--------|--------|--------|--------|--------|--------|-----------------------------------------------|
 E|--------|--------|--------|--------|--------|--------|--------|-----------------------------------------------|
 B|--------|--------|--------|--------|--------|--------|--------|-----------------------------------------------|


 E|-------------------------------------------------|-------------------------------------------------|
 B|-12-11-0--12-11-0--14-11-0--12-11-0--12-11-0--12-|-11-0--12-11-0--12-11-0--12-11-0--12-11-0--12-11-|
F#|-------------------------------------------------|-------------------------------------------------|
 D|-------------------------------------------------|-------------------------------------------------|
 A|-------------------------------------------------|-------------------------------------------------|
 E|-------------------------------------------------|-------------------------------------------------|
 B|-------------------------------------------------|-------------------------------------------------|


 E|-------------------------------------------------|-----------------------------------------------|
 B|-0--12-11-0--12-11-0--12-11-0--14-11-0--12-11-0--|-0---11-0--12-11-0--12-11-0--12-11-0--12-11-0--|
F#|-------------------------------------------------|-----------------------------------------------|
 D|-------------------------------------------------|-----------------------------------------------|
 A|-------------------------------------------------|-----------------------------------------------|
 E|-------------------------------------------------|-----------------------------------------------|
 B|-------------------------------------------------|-----------------------------------------------|


 E|-------------------------------------------------|-------------------------------------------------|
 B|-12-11-0--12-11-0--14-11-0--12-11-0--12-11-0--12-|-11-0--12-11-0--12-11-0--12-11-0--12-11-0--12-11-|
F#|-------------------------------------------------|-------------------------------------------------|
 D|-------------------------------------------------|-------------------------------------------------|
 A|-------------------------------------------------|-------------------------------------------------|
 E|-------------------------------------------------|-------------------------------------------------|
 B|-------------------------------------------------|-------------------------------------------------|


 E|-------------------------------------------------|-----------------------------------------------|
 B|-0--12-11-0--12-11-0--12-11-0--14-11-0--12-11-0--|-0---11-0--12-11-0--12-11-0--12-11-0--12-11-0--|
F#|-------------------------------------------------|-----------------------------------------------|
 D|-------------------------------------------------|-----------------------------------------------|
 A|-------------------------------------------------|-----------------------------------------------|
 E|-------------------------------------------------|-----------------------------------------------|
 B|-------------------------------------------------|-----------------------------------------------|


 E|-------------------------------------------------|-------------------------------------------------|
 B|-12-11-0--12-11-0--14-11-0--12-11-0--12-11-0--12-|-11-0--12-11-0--12-11-0--12-11-0--12-11-0--12-11-|
F#|-------------------------------------------------|-------------------------------------------------|
 D|-------------------------------------------------|-------------------------------------------------|
 A|-------------------------------------------------|-------------------------------------------------|
 E|-------------------------------------------------|-------------------------------------------------|
 B|-------------------------------------------------|-------------------------------------------------|


 E|-------------------------------------------------|-----------------------------------------------|
 B|-0--12-11-0--12-11-0--12-11-0--14-11-0--12-11-0--|-0---11-0--12-11-0--12-11-0--12-11-0--12-11-0--|
F#|-------------------------------------------------|-----------------------------------------------|
 D|-------------------------------------------------|-----------------------------------------------|
 A|-------------------------------------------------|-----------------------------------------------|
 E|-------------------------------------------------|-----------------------------------------------|
 B|-------------------------------------------------|-----------------------------------------------|


 E|-------------------------------------------------|-------------------------------------------------|
 B|-12-11-0--12-11-0--14-11-0--12-11-0--12-11-0--12-|-11-0--12-11-0--12-11-0--12-11-0--12-11-0--12-11-|
F#|-------------------------------------------------|-------------------------------------------------|
 D|-------------------------------------------------|-------------------------------------------------|
 A|-------------------------------------------------|-------------------------------------------------|
 E|-------------------------------------------------|-------------------------------------------------|
 B|-------------------------------------------------|-------------------------------------------------|


 E|-------------------------------------------------|--------|--------|--------|--------|
 B|-0--12-11-0--12-11-0--12-11-0--14-11-0--12-11-0--|--------|--------|--------|--------|
F#|-------------------------------------------------|--------|--------|--------|--------|
 D|-------------------------------------------------|--------|--------|--------|--------|
 A|-------------------------------------------------|--------|--------|--------|--------|
 E|-------------------------------------------------|--------|--------|--------|--------|
 B|-------------------------------------------------|--------|--------|--------|--------|


 E|--------|--------|--------|--------|---------------------------------|---------------------------------|
 B|--------|--------|--------|--------|-4---4---4---4---4---4---4---4---|-4---4---4---4---4---4---4---4---|
F#|--------|--------|--------|--------|---------------------------------|---------------------------------|
 D|--------|--------|--------|--------|---------------------------------|---------------------------------|
 A|--------|--------|--------|--------|---------------------------------|---------------------------------|
 E|--------|--------|--------|--------|---------------------------------|---------------------------------|
 B|--------|--------|--------|--------|---------------------------------|---------------------------------|


 E|---------------------------------|---------------------------------|---------------------------------|
 B|-7---7---7---7---7---7---7---7---|-7---7---7---7---7---7---7---7---|-4---4---4---4---4---4---4---4---|
F#|---------------------------------|---------------------------------|---------------------------------|
 D|---------------------------------|---------------------------------|---------------------------------|
 A|---------------------------------|---------------------------------|---------------------------------|
 E|---------------------------------|---------------------------------|---------------------------------|
 B|---------------------------------|---------------------------------|---------------------------------|


 E|---------------------------------|---------------------------------|---------------------------------|
 B|-4---4---4---4---4---4---4---4---|-7---7---7---7---7---7---7---7---|-7---7---7---7---7---7---7---7---|
F#|---------------------------------|---------------------------------|---------------------------------|
 D|---------------------------------|---------------------------------|---------------------------------|
 A|---------------------------------|---------------------------------|---------------------------------|
 E|---------------------------------|---------------------------------|---------------------------------|
 B|---------------------------------|---------------------------------|---------------------------------|


 E|--------|--------|--------|--------|--------|--------|--------|--------|--------|
 B|--------|--------|--------|--------|--------|--------|--------|--------|--------|
F#|--------|--------|--------|--------|--------|--------|--------|--------|--------|
 D|--------|--------|--------|--------|--------|--------|--------|--------|--------|
 A|--------|--------|--------|--------|--------|--------|--------|--------|--------|
 E|--------|--------|--------|--------|--------|--------|--------|--------|--------|
 B|--------|--------|--------|--------|--------|--------|--------|--------|--------|


 E|--------|--------|--------|--------|--------|--------|--------|--------|--------|
 B|--------|--------|--------|--------|--------|--------|--------|--------|--------|
F#|--------|--------|--------|--------|--------|--------|--------|--------|--------|
 D|--------|--------|--------|--------|--------|--------|--------|--------|--------|
 A|--------|--------|--------|--------|--------|--------|--------|--------|--------|
 E|--------|--------|--------|--------|--------|--------|--------|--------|--------|
 B|--------|--------|--------|--------|--------|--------|--------|--------|--------|


 E|--------|--------|-----------------------------------------------|-------------------------------------------------|
 B|--------|--------|-0---11-0--12-11-0--12-11-0--12-11-0--12-11-0--|-12-11-0--12-11-0--14-11-0--12-11-0--12-11-0--12-|
F#|--------|--------|-----------------------------------------------|-------------------------------------------------|
 D|--------|--------|-----------------------------------------------|-------------------------------------------------|
 A|--------|--------|-----------------------------------------------|-------------------------------------------------|
 E|--------|--------|-----------------------------------------------|-------------------------------------------------|
 B|--------|--------|-----------------------------------------------|-------------------------------------------------|


 E|-------------------------------------------------|-------------------------------------------------|
 B|-11-0--12-11-0--12-11-0--12-11-0--12-11-0--12-11-|-0--12-11-0--12-11-0--12-11-0--14-11-0--12-11-0--|
F#|-------------------------------------------------|-------------------------------------------------|
 D|-------------------------------------------------|-------------------------------------------------|
 A|-------------------------------------------------|-------------------------------------------------|
 E|-------------------------------------------------|-------------------------------------------------|
 B|-------------------------------------------------|-------------------------------------------------|


 E|-----------------------------------------------|-------------------------------------------------|
 B|-0---11-0--12-11-0--12-11-0--12-11-0--12-11-0--|-12-11-0--12-11-0--14-11-0--12-11-0--12-11-0--12-|
F#|-----------------------------------------------|-------------------------------------------------|
 D|-----------------------------------------------|-------------------------------------------------|
 A|-----------------------------------------------|-------------------------------------------------|
 E|-----------------------------------------------|-------------------------------------------------|
 B|-----------------------------------------------|-------------------------------------------------|


 E|-------------------------------------------------|-------------------------------------------------|
 B|-11-0--12-11-0--12-11-0--12-11-0--12-11-0--12-11-|-0--12-11-0--12-11-0--12-11-0--14-11-0--12-11-0--|
F#|-------------------------------------------------|-------------------------------------------------|
 D|-------------------------------------------------|-------------------------------------------------|
 A|-------------------------------------------------|-------------------------------------------------|
 E|-------------------------------------------------|-------------------------------------------------|
 B|-------------------------------------------------|-------------------------------------------------|


 E|-----------------------------------------------|-------------------------------------------------|
 B|-0---11-0--12-11-0--12-11-0--12-11-0--12-11-0--|-12-11-0--12-11-0--14-11-0--12-11-0--12-11-0--12-|
F#|-----------------------------------------------|-------------------------------------------------|
 D|-----------------------------------------------|-------------------------------------------------|
 A|-----------------------------------------------|-------------------------------------------------|
 E|-----------------------------------------------|-------------------------------------------------|
 B|-----------------------------------------------|-------------------------------------------------|


 E|-------------------------------------------------|-------------------------------------------------|
 B|-11-0--12-11-0--12-11-0--12-11-0--12-11-0--12-11-|-0--12-11-0--12-11-0--12-11-0--14-11-0--12-11-0--|
F#|-------------------------------------------------|-------------------------------------------------|
 D|-------------------------------------------------|-------------------------------------------------|
 A|-------------------------------------------------|-------------------------------------------------|
 E|-------------------------------------------------|-------------------------------------------------|
 B|-------------------------------------------------|-------------------------------------------------|


 E|-----------------------------------------------|-------------------------------------------------|
 B|-0---11-0--12-11-0--12-11-0--12-11-0--12-11-0--|-12-11-0--12-11-0--14-11-0--12-11-0--12-11-0--12-|
F#|-----------------------------------------------|-------------------------------------------------|
 D|-----------------------------------------------|-------------------------------------------------|
 A|-----------------------------------------------|-------------------------------------------------|
 E|-----------------------------------------------|-------------------------------------------------|
 B|-----------------------------------------------|-------------------------------------------------|


 E|-------------------------------------------------|-------------------------------------------------|
 B|-11-0--12-11-0--12-11-0--12-11-0--12-11-0--12-11-|-0--12-11-0--12-11-0--12-11-0--14-11-0--12-11-0--|
F#|-------------------------------------------------|-------------------------------------------------|
 D|-------------------------------------------------|-------------------------------------------------|
 A|-------------------------------------------------|-------------------------------------------------|
 E|-------------------------------------------------|-------------------------------------------------|
 B|-------------------------------------------------|-------------------------------------------------|


 E|-----------------------------------------------|-------------------------------------------------|
 B|-0---11-0--12-11-0--12-11-0--12-11-0--12-11-0--|-12-11-0--12-11-0--14-11-0--12-11-0--12-11-0--12-|
F#|-----------------------------------------------|-------------------------------------------------|
 D|-----------------------------------------------|-------------------------------------------------|
 A|-----------------------------------------------|-------------------------------------------------|
 E|-----------------------------------------------|-------------------------------------------------|
 B|-----------------------------------------------|-------------------------------------------------|


 E|-------------------------------------------------|-------------------------------------------------|
 B|-11-0--12-11-0--12-11-0--12-11-0--12-11-0--12-11-|-0--12-11-0--12-11-0--12-11-0--14-11-0--12-11-0--|
F#|-------------------------------------------------|-------------------------------------------------|
 D|-------------------------------------------------|-------------------------------------------------|
 A|-------------------------------------------------|-------------------------------------------------|
 E|-------------------------------------------------|-------------------------------------------------|
 B|-------------------------------------------------|-------------------------------------------------|


 E|-----------------------------------------------|-------------------------------------------------|
 B|-0---11-0--12-11-0--12-11-0--12-11-0--12-11-0--|-12-11-0--12-11-0--14-11-0--12-11-0--12-11-0--12-|
F#|-----------------------------------------------|-------------------------------------------------|
 D|-----------------------------------------------|-------------------------------------------------|
 A|-----------------------------------------------|-------------------------------------------------|
 E|-----------------------------------------------|-------------------------------------------------|
 B|-----------------------------------------------|-------------------------------------------------|


 E|-------------------------------------------------|-------------------------------------------------|
 B|-11-0--12-11-0--12-11-0--12-11-0--12-11-0--12-11-|-0--12-11-0--12-11-0--12-11-0--14-11-0--12-11-0--|
F#|-------------------------------------------------|-------------------------------------------------|
 D|-------------------------------------------------|-------------------------------------------------|
 A|-------------------------------------------------|-------------------------------------------------|
 E|-------------------------------------------------|-------------------------------------------------|
 B|-------------------------------------------------|-------------------------------------------------|


 E|-----------------------------------------------|-------------------------------------------------|
 B|-0---11-0--12-11-0--12-11-0--12-11-0--12-11-0--|-12-11-0--12-11-0--14-11-0--12-11-0--12-11-0--12-|
F#|-----------------------------------------------|-------------------------------------------------|
 D|-----------------------------------------------|-------------------------------------------------|
 A|-----------------------------------------------|-------------------------------------------------|
 E|-----------------------------------------------|-------------------------------------------------|
 B|-----------------------------------------------|-------------------------------------------------|


 E|-------------------------------------------------|-------------------------------------------------|
 B|-11-0--12-11-0--12-11-0--12-11-0--12-11-0--12-11-|-0--12-11-0--12-11-0--12-11-0--14-11-0--12-11-0--|
F#|-------------------------------------------------|-------------------------------------------------|
 D|-------------------------------------------------|-------------------------------------------------|
 A|-------------------------------------------------|-------------------------------------------------|
 E|-------------------------------------------------|-------------------------------------------------|
 B|-------------------------------------------------|-------------------------------------------------|


 E|--------|--------|--------|--------|--------|--------|--------|
 B|--------|--------|--------|--------|--------|--------|--------|
F#|--------|--------|--------|--------|--------|--------|--------|
 D|--------|--------|--------|--------|--------|--------|--------|
 A|--------|--------|--------|--------|--------|--------|--------|
 E|--------|--------|--------|--------|--------|--------|--------|
 B|--------|--------|--------|--------|--------|--------|--------|





Track 3: Clean Left

 E|--------|--------|--------|--------|--------|--------|--------|--------|--------|
 B|--------|--------|--------|--------|--------|--------|--------|--------|--------|
F#|--------|--------|--------|--------|--------|--------|--------|--------|--------|
 D|--------|--------|--------|--------|--------|--------|--------|--------|--------|
 A|--------|--------|--------|--------|--------|--------|--------|--------|--------|
 E|--------|--------|--------|--------|--------|--------|--------|--------|--------|
 B|--------|--------|--------|--------|--------|--------|--------|--------|--------|


 E|--------|--------|--------|---------------------------------|---------------------------------|
 B|--------|--------|--------|-4---4---4---4---4---4---4---4---|-4---4---4---4---4---4---4---4---|
F#|--------|--------|--------|-5---5---5---5---5---5---5---5---|-5---5---5---5---5---5---5---5---|
 D|--------|--------|--------|-4---4---4---4---4---4---4---4---|-4---4---4---4---4---4---4---4---|
 A|--------|--------|--------|-2---2---2---2---2---2---2---2---|-2---2---2---2---2---2---2---2---|
 E|--------|--------|--------|---------------------------------|---------------------------------|
 B|--------|--------|--------|---------------------------------|---------------------------------|


 E|---------------------------------|---------------------------------|---------------------------------|
 B|---------------------------------|---------------------------------|-4---4---4---4---4---4---4---4---|
F#|-5---5---5---5---5---5---5---5---|-5---5---5---5---5---5---5---5---|-5---5---5---5---5---5---5---5---|
 D|-6---6---6---6---6---6---6---6---|-6---6---6---6---6---6---6---6---|-4---4---4---4---4---4---4---4---|
 A|-6---6---6---6---6---6---6---6---|-6---6---6---6---6---6---6---6---|-2---2---2---2---2---2---2---2---|
 E|-4---4---4---4---4---4---4---4---|-4---4---4---4---4---4---4---4---|---------------------------------|
 B|---------------------------------|---------------------------------|---------------------------------|


 E|---------------------------------|---------------------------------|---------------------------------|
 B|-4---4---4---4---4---4---4---4---|---------------------------------|---------------------------------|
F#|-5---5---5---5---5---5---5---5---|-5---5---5---5---5---5---5---5---|-5---5---5---5---5---5---5---5---|
 D|-4---4---4---4---4---4---4---4---|-6---6---6---6---6---6---6---6---|-6---6---6---6---6---6---6---6---|
 A|-2---2---2---2---2---2---2---2---|-6---6---6---6---6---6---6---6---|-6---6---6---6---6---6---6---6---|
 E|---------------------------------|-4---4---4---4---4---4---4---4---|-4---4---4---4---4---4---4---4---|
 B|---------------------------------|---------------------------------|---------------------------------|


 E|---------------------------------|---------------------------------|---------------------------------|
 B|-4---4---4---4---4---4---4---4---|-4---4---4---4---4---4---4---4---|---------------------------------|
F#|-5---5---5---5---5---5---5---5---|-5---5---5---5---5---5---5---5---|-5---5---5---5---5---5---5---5---|
 D|-4---4---4---4---4---4---4---4---|-4---4---4---4---4---4---4---4---|-6---6---6---6---6---6---6---6---|
 A|-2---2---2---2---2---2---2---2---|-2---2---2---2---2---2---2---2---|-6---6---6---6---6---6---6---6---|
 E|---------------------------------|---------------------------------|-4---4---4---4---4---4---4---4---|
 B|---------------------------------|---------------------------------|---------------------------------|


 E|---------------------------------|---------------------------------|---------------------------------|
 B|---------------------------------|-4---4---4---4---4---4---4---4---|-4---4---4---4---4---4---4---4---|
F#|-5---5---5---5---5---5---5---5---|-5---5---5---5---5---5---5---5---|-5---5---5---5---5---5---5---5---|
 D|-6---6---6---6---6---6---6---6---|-4---4---4---4---4---4---4---4---|-4---4---4---4---4---4---4---4---|
 A|-6---6---6---6---6---6---6---6---|-2---2---2---2---2---2---2---2---|-2---2---2---2---2---2---2---2---|
 E|-4---4---4---4---4---4---4---4---|---------------------------------|---------------------------------|
 B|---------------------------------|---------------------------------|---------------------------------|


 E|---------------------------------|---------------------------------|--------|--------|
 B|---------------------------------|---------------------------------|--------|--------|
F#|-5---5---5---5---5---5---5---5---|-5---5---5---5---5---5---5---5---|--------|--------|
 D|-6---6---6---6---6---6---6---6---|-6---6---6---6---6---6---6---6---|--------|--------|
 A|-6---6---6---6---6---6---6---6---|-6---6---6---6---6---6---6---6---|--------|--------|
 E|-4---4---4---4---4---4---4---4---|-4---4---4---4---4---4---4---4---|--------|--------|
 B|---------------------------------|---------------------------------|--------|--------|


 E|--------|--------|--------|--------|--------|--------|--------|--------|--------|
 B|--------|--------|--------|--------|--------|--------|--------|--------|--------|
F#|--------|--------|--------|--------|--------|--------|--------|--------|--------|
 D|--------|--------|--------|--------|--------|--------|--------|--------|--------|
 A|--------|--------|--------|--------|--------|--------|--------|--------|--------|
 E|--------|--------|--------|--------|--------|--------|--------|--------|--------|
 B|--------|--------|--------|--------|--------|--------|--------|--------|--------|


 E|--------|--------|--------|--------|--------|--------|--------|--------|--------|
 B|--------|--------|--------|--------|--------|--------|--------|--------|--------|
F#|--------|--------|--------|--------|--------|--------|--------|--------|--------|
 D|--------|--------|--------|--------|--------|--------|--------|--------|--------|
 A|--------|--------|--------|--------|--------|--------|--------|--------|--------|
 E|--------|--------|--------|--------|--------|--------|--------|--------|--------|
 B|--------|--------|--------|--------|--------|--------|--------|--------|--------|


 E|--------|--------|--------|--------|--------|--------|--------|--------|--------|
 B|--------|--------|--------|--------|--------|--------|--------|--------|--------|
F#|--------|--------|--------|--------|--------|--------|--------|--------|--------|
 D|--------|--------|--------|--------|--------|--------|--------|--------|--------|
 A|--------|--------|--------|--------|--------|--------|--------|--------|--------|
 E|--------|--------|--------|--------|--------|--------|--------|--------|--------|
 B|--------|--------|--------|--------|--------|--------|--------|--------|--------|


 E|--------|--------|--------|--------|--------|--------|--------|--------|--------|
 B|--------|--------|--------|--------|--------|--------|--------|--------|--------|
F#|--------|--------|--------|--------|--------|--------|--------|--------|--------|
 D|--------|--------|--------|--------|--------|--------|--------|--------|--------|
 A|--------|--------|--------|--------|--------|--------|--------|--------|--------|
 E|--------|--------|--------|--------|--------|--------|--------|--------|--------|
 B|--------|--------|--------|--------|--------|--------|--------|--------|--------|


 E|--------|--------|--------|--------|--------|--------|--------|--------|--------|
 B|--------|--------|--------|--------|--------|--------|--------|--------|--------|
F#|--------|--------|--------|--------|--------|--------|--------|--------|--------|
 D|--------|--------|--------|--------|--------|--------|--------|--------|--------|
 A|--------|--------|--------|--------|--------|--------|--------|--------|--------|
 E|--------|--------|--------|--------|--------|--------|--------|--------|--------|
 B|--------|--------|--------|--------|--------|--------|--------|--------|--------|


 E|--------|--------|--------|--------|--------|--------|--------|--------|--------|
 B|--------|--------|--------|--------|--------|--------|--------|--------|--------|
F#|--------|--------|--------|--------|--------|--------|--------|--------|--------|
 D|--------|--------|--------|--------|--------|--------|--------|--------|--------|
 A|--------|--------|--------|--------|--------|--------|--------|--------|--------|
 E|--------|--------|--------|--------|--------|--------|--------|--------|--------|
 B|--------|--------|--------|--------|--------|--------|--------|--------|--------|


 E|--------|--------|--------|--------|--------|--------|--------|--------|--------|
 B|--------|--------|--------|--------|--------|--------|--------|--------|--------|
F#|--------|--------|--------|--------|--------|--------|--------|--------|--------|
 D|--------|--------|--------|--------|--------|--------|--------|--------|--------|
 A|--------|--------|--------|--------|--------|--------|--------|--------|--------|
 E|--------|--------|--------|--------|--------|--------|--------|--------|--------|
 B|--------|--------|--------|--------|--------|--------|--------|--------|--------|


 E|--------|--------|--------|--------|--------|--------|--------|--------|---------------------------------|
 B|--------|--------|--------|--------|--------|--------|--------|--------|-7---7---7---7---7---7---7---7---|
F#|--------|--------|--------|--------|--------|--------|--------|--------|---------------------------------|
 D|--------|--------|--------|--------|--------|--------|--------|--------|---------------------------------|
 A|--------|--------|--------|--------|--------|--------|--------|--------|---------------------------------|
 E|--------|--------|--------|--------|--------|--------|--------|--------|---------------------------------|
 B|--------|--------|--------|--------|--------|--------|--------|--------|---------------------------------|


 E|---------------------------------|---------------------------------|---------------------------------|
 B|-9---9---9---9---9---9---9---9---|-11--11--11--11--11--11--11--11--|-9---9---9---9---9---9---9---9---|
F#|---------------------------------|---------------------------------|---------------------------------|
 D|---------------------------------|---------------------------------|---------------------------------|
 A|---------------------------------|---------------------------------|---------------------------------|
 E|---------------------------------|---------------------------------|---------------------------------|
 B|---------------------------------|---------------------------------|---------------------------------|


 E|---------------------------------|---------------------------------|---------------------------------|
 B|-7---7---7---7---7---7---7---7---|-9---9---9---9---9---9---9---9---|-11--11--11--11--11--11--11--11--|
F#|---------------------------------|---------------------------------|---------------------------------|
 D|---------------------------------|---------------------------------|---------------------------------|
 A|---------------------------------|---------------------------------|---------------------------------|
 E|---------------------------------|---------------------------------|---------------------------------|
 B|---------------------------------|---------------------------------|---------------------------------|


 E|---------------------------------|---------------------------------|---------------------------------|
 B|-6---6---6---6---6---6---6---6---|-7---7---7---7---7---7---7---7---|-9---9---9---9---9---9---9---9---|
F#|---------------------------------|---------------------------------|---------------------------------|
 D|---------------------------------|---------------------------------|---------------------------------|
 A|---------------------------------|---------------------------------|---------------------------------|
 E|---------------------------------|---------------------------------|---------------------------------|
 B|---------------------------------|---------------------------------|---------------------------------|


 E|---------------------------------|---------------------------------|---------------------------------|
 B|-11--11--11--11--11--11--11--11--|-9---9---9---9---9---9---9---9---|-7---7---7---7---7---7---7---7---|
F#|---------------------------------|---------------------------------|---------------------------------|
 D|---------------------------------|---------------------------------|---------------------------------|
 A|---------------------------------|---------------------------------|---------------------------------|
 E|---------------------------------|---------------------------------|---------------------------------|
 B|---------------------------------|---------------------------------|---------------------------------|


 E|---------------------------------|---------------------------------|---------------------------------|
 B|-9---9---9---9---9---9---9---9---|-11--11--11--11--11--11--11--11--|-6---6---6---6---6---6---6---6---|
F#|---------------------------------|---------------------------------|---------------------------------|
 D|---------------------------------|---------------------------------|---------------------------------|
 A|---------------------------------|---------------------------------|---------------------------------|
 E|---------------------------------|---------------------------------|---------------------------------|
 B|---------------------------------|---------------------------------|---------------------------------|


 E|--------|--------|--------|--------|--------|--------|--------|--------|--------|
 B|--------|--------|--------|--------|--------|--------|--------|--------|--------|
F#|--------|--------|--------|--------|--------|--------|--------|--------|--------|
 D|--------|--------|--------|--------|--------|--------|--------|--------|--------|
 A|--------|--------|--------|--------|--------|--------|--------|--------|--------|
 E|--------|--------|--------|--------|--------|--------|--------|--------|--------|
 B|--------|--------|--------|--------|--------|--------|--------|--------|--------|


 E|--------|--------|--------|--------|--------|--------|--------|--------|--------|
 B|--------|--------|--------|--------|--------|--------|--------|--------|--------|
F#|--------|--------|--------|--------|--------|--------|--------|--------|--------|
 D|--------|--------|--------|--------|--------|--------|--------|--------|--------|
 A|--------|--------|--------|--------|--------|--------|--------|--------|--------|
 E|--------|--------|--------|--------|--------|--------|--------|--------|--------|
 B|--------|--------|--------|--------|--------|--------|--------|--------|--------|


 E|--------|--------|--------|--------|--------|--------|--------|--------|--------|
 B|--------|--------|--------|--------|--------|--------|--------|--------|--------|
F#|--------|--------|--------|--------|--------|--------|--------|--------|--------|
 D|--------|--------|--------|--------|--------|--------|--------|--------|--------|
 A|--------|--------|--------|--------|--------|--------|--------|--------|--------|
 E|--------|--------|--------|--------|--------|--------|--------|--------|--------|
 B|--------|--------|--------|--------|--------|--------|--------|--------|--------|


 E|--------|--------|--------|--------|--------|--------|--------|--------|--------|
 B|--------|--------|--------|--------|--------|--------|--------|--------|--------|
F#|--------|--------|--------|--------|--------|--------|--------|--------|--------|
 D|--------|--------|--------|--------|--------|--------|--------|--------|--------|
 A|--------|--------|--------|--------|--------|--------|--------|--------|--------|
 E|--------|--------|--------|--------|--------|--------|--------|--------|--------|
 B|--------|--------|--------|--------|--------|--------|--------|--------|--------|


 E|--------|--------|--------|
 B|--------|--------|--------|
F#|--------|--------|--------|
 D|--------|--------|--------|
 A|--------|--------|--------|
 E|--------|--------|--------|
 B|--------|--------|--------|





Track 4: Harmonics Guitar

 E|--------|--------|--------|--------|--------|--------|--------|--------|--------|
 B|--------|--------|--------|--------|--------|--------|--------|--------|--------|
F#|--------|--------|--------|--------|--------|--------|--------|--------|--------|
 D|--------|--------|--------|--------|--------|--------|--------|--------|--------|
 A|--------|--------|--------|--------|--------|--------|--------|--------|--------|
F#|--------|--------|--------|--------|--------|--------|--------|--------|--------|
 B|--------|--------|--------|--------|--------|--------|--------|--------|--------|


 E|--------|--------|--------|--------|--------|--------|--------|--------|--------|
 B|--------|--------|--------|--------|--------|--------|--------|--------|--------|
F#|--------|--------|--------|--------|--------|--------|--------|--------|--------|
 D|--------|--------|--------|--------|--------|--------|--------|--------|--------|
 A|--------|--------|--------|--------|--------|--------|--------|--------|--------|
F#|--------|--------|--------|--------|--------|--------|--------|--------|--------|
 B|--------|--------|--------|--------|--------|--------|--------|--------|--------|


 E|--------|--------|--------|--------|--------|--------|--------|--------|--------|
 B|--------|--------|--------|--------|--------|--------|--------|--------|--------|
F#|--------|--------|--------|--------|--------|--------|--------|--------|--------|
 D|--------|--------|--------|--------|--------|--------|--------|--------|--------|
 A|--------|--------|--------|--------|--------|--------|--------|--------|--------|
F#|--------|--------|--------|--------|--------|--------|--------|--------|--------|
 B|--------|--------|--------|--------|--------|--------|--------|--------|--------|


 E|--------|---------------------------------|---------------------------------|---------------------------------|
 B|--------|---------------------------------|---------------------------------|---------------------------------|
F#|--------|-2---2---2---2---2---2---2---2---|-2---2---2---2---2---2---2---2---|-4---4---4---4---4---4---4---4---|
 D|--------|-2---2---2---2---2---2---2---2---|-2---2---2---2---2---2---2---2---|-4---4---4---4---4---4---4---4---|
 A|--------|-2---2---2---2---2---2---2---2---|-2---2---2---2---2---2---2---2---|-4---4---4---4---4---4---4---4---|
F#|--------|-0---0---0---0---0---0---0---0---|-0---0---0---0---0---0---0---0---|-2---2---2---2---2---2---2---2---|
 B|--------|---------------------------------|---------------------------------|---------------------------------|


 E|---------------------------------|---------------------------------|---------------------------------|
 B|---------------------------------|---------------------------------|---------------------------------|
F#|-4---4---4---4---4---4---4---4---|-5---5---5---5---5---5---5---5---|-5---5---5---5---5---5---5---5---|
 D|-4---4---4---4---4---4---4---4---|-6---6---6---6---6---6---6---6---|-6---6---6---6---6---6---6---6---|
 A|-4---4---4---4---4---4---4---4---|-6---6---6---6---6---6---6---6---|-6---6---6---6---6---6---6---6---|
F#|-2---2---2---2---2---2---2---2---|-4---4---4---4---4---4---4---4---|-4---4---4---4---4---4---4---4---|
 B|---------------------------------|---------------------------------|---------------------------------|


 E|---------------------------------|---------------------------------|---------------------------------|
 B|---------------------------------|---------------------------------|---------------------------------|
F#|-5---5---5---5---5---5---5---5---|-5---5---5---5---5---5---5---5---|-2---2---2---2---2---2---2---2---|
 D|-6---6---6---6---6---6---6---6---|-6---6---6---6---6---6---6---6---|-2---2---2---2---2---2---2---2---|
 A|-6---6---6---6---6---6---6---6---|-6---6---6---6---6---6---6---6---|-2---2---2---2---2---2---2---2---|
F#|-4---4---4---4---4---4---4---4---|-4---4---4---4---4---4---4---4---|-0---0---0---0---0---0---0---0---|
 B|---------------------------------|---------------------------------|---------------------------------|


 E|---------------------------------|---------------------------------|---------------------------------|
 B|---------------------------------|---------------------------------|---------------------------------|
F#|-2---2---2---2---2---2---2---2---|-4---4---4---4---4---4---4---4---|-4---4---4---4---4---4---4---4---|
 D|-2---2---2---2---2---2---2---2---|-4---4---4---4---4---4---4---4---|-4---4---4---4---4---4---4---4---|
 A|-2---2---2---2---2---2---2---2---|-4---4---4---4---4---4---4---4---|-4---4---4---4---4---4---4---4---|
F#|-0---0---0---0---0---0---0---0---|-2---2---2---2---2---2---2---2---|-2---2---2---2---2---2---2---2---|
 B|---------------------------------|---------------------------------|---------------------------------|


 E|---------------------------------|---------------------------------|---------------------------------|
 B|---------------------------------|---------------------------------|---------------------------------|
F#|-5---5---5---5---5---5---5---5---|-5---5---5---5---5---5---5---5---|-5---5---5---5---5---5---5---5---|
 D|-6---6---6---6---6---6---6---6---|-6---6---6---6---6---6---6---6---|-6---6---6---6---6---6---6---6---|
 A|-6---6---6---6---6---6---6---6---|-6---6---6---6---6---6---6---6---|-6---6---6---6---6---6---6---6---|
F#|-4---4---4---4---4---4---4---4---|-4---4---4---4---4---4---4---4---|-4---4---4---4---4---4---4---4---|
 B|---------------------------------|---------------------------------|---------------------------------|


 E|---------------------------------|--------|--------|--------|--------|--------|
 B|---------------------------------|--------|--------|--------|--------|--------|
F#|-5---5---5---5---5---5---5---5---|--------|--------|--------|--------|--------|
 D|-6---6---6---6---6---6---6---6---|--------|--------|--------|--------|--------|
 A|-6---6---6---6---6---6---6---6---|--------|--------|--------|--------|--------|
F#|-4---4---4---4---4---4---4---4---|--------|--------|--------|--------|--------|
 B|---------------------------------|--------|--------|--------|--------|--------|


 E|--------|--------|--------|--------|--------|--------|--------|--------|--------|
 B|--------|--------|--------|--------|--------|--------|--------|--------|--------|
F#|--------|--------|--------|--------|--------|--------|--------|--------|--------|
 D|--------|--------|--------|--------|--------|--------|--------|--------|--------|
 A|--------|--------|--------|--------|--------|--------|--------|--------|--------|
F#|--------|--------|--------|--------|--------|--------|--------|--------|--------|
 B|--------|--------|--------|--------|--------|--------|--------|--------|--------|


 E|--------|--------|--------|--------|--------|--------|--------|--------|--------|
 B|--------|--------|--------|--------|--------|--------|--------|--------|--------|
F#|--------|--------|--------|--------|--------|--------|--------|--------|--------|
 D|--------|--------|--------|--------|--------|--------|--------|--------|--------|
 A|--------|--------|--------|--------|--------|--------|--------|--------|--------|
F#|--------|--------|--------|--------|--------|--------|--------|--------|--------|
 B|--------|--------|--------|--------|--------|--------|--------|--------|--------|


 E|--------|--------|--------|--------|--------|--------|--------|--------|--------|
 B|--------|--------|--------|--------|--------|--------|--------|--------|--------|
F#|--------|--------|--------|--------|--------|--------|--------|--------|--------|
 D|--------|--------|--------|--------|--------|--------|--------|--------|--------|
 A|--------|--------|--------|--------|--------|--------|--------|--------|--------|
F#|--------|--------|--------|--------|--------|--------|--------|--------|--------|
 B|--------|--------|--------|--------|--------|--------|--------|--------|--------|


 E|--------|--------|--------|--------|--------|--------|--------|--------|--------|
 B|--------|--------|--------|--------|--------|--------|--------|--------|--------|
F#|--------|--------|--------|--------|--------|--------|--------|--------|--------|
 D|--------|--------|--------|--------|--------|--------|--------|--------|--------|
 A|--------|--------|--------|--------|--------|--------|--------|--------|--------|
F#|--------|--------|--------|--------|--------|--------|--------|--------|--------|
 B|--------|--------|--------|--------|--------|--------|--------|--------|--------|


 E|--------|--------|--------|--------|--------|--------|--------|--------|--------|
 B|--------|--------|--------|--------|--------|--------|--------|--------|--------|
F#|--------|--------|--------|--------|--------|--------|--------|--------|--------|
 D|--------|--------|--------|--------|--------|--------|--------|--------|--------|
 A|--------|--------|--------|--------|--------|--------|--------|--------|--------|
F#|--------|--------|--------|--------|--------|--------|--------|--------|--------|
 B|--------|--------|--------|--------|--------|--------|--------|--------|--------|


 E|--------|--------|--------|--------|--------|--------|--------|--------|--------|
 B|--------|--------|--------|--------|--------|--------|--------|--------|--------|
F#|--------|--------|--------|--------|--------|--------|--------|--------|--------|
 D|--------|--------|--------|--------|--------|--------|--------|--------|--------|
 A|--------|--------|--------|--------|--------|--------|--------|--------|--------|
F#|--------|--------|--------|--------|--------|--------|--------|--------|--------|
 B|--------|--------|--------|--------|--------|--------|--------|--------|--------|


 E|--------|--------|--------|--------|--------|--------|--------|--------|--------|
 B|--------|--------|--------|--------|--------|--------|--------|--------|--------|
F#|--------|--------|--------|--------|--------|--------|--------|--------|--------|
 D|--------|--------|--------|--------|--------|--------|--------|--------|--------|
 A|--------|--------|--------|--------|--------|--------|--------|--------|--------|
F#|--------|--------|--------|--------|--------|--------|--------|--------|--------|
 B|--------|--------|--------|--------|--------|--------|--------|--------|--------|


 E|--------|--------|--------|--------|--------|--------|--------|--------|--------|
 B|--------|--------|--------|--------|--------|--------|--------|--------|--------|
F#|--------|--------|--------|--------|--------|--------|--------|--------|--------|
 D|--------|--------|--------|--------|--------|--------|--------|--------|--------|
 A|--------|--------|--------|--------|--------|--------|--------|--------|--------|
F#|--------|--------|--------|--------|--------|--------|--------|--------|--------|
 B|--------|--------|--------|--------|--------|--------|--------|--------|--------|


 E|--------|--------|--------|--------|--------|--------|--------|--------|--------|
 B|--------|--------|--------|--------|--------|--------|--------|--------|--------|
F#|--------|--------|--------|--------|--------|--------|--------|--------|--------|
 D|--------|--------|--------|--------|--------|--------|--------|--------|--------|
 A|--------|--------|--------|--------|--------|--------|--------|--------|--------|
F#|--------|--------|--------|--------|--------|--------|--------|--------|--------|
 B|--------|--------|--------|--------|--------|--------|--------|--------|--------|


 E|--------|--------|--------|--------|--------|--------|--------|--------|--------|
 B|--------|--------|--------|--------|--------|--------|--------|--------|--------|
F#|--------|--------|--------|--------|--------|--------|--------|--------|--------|
 D|--------|--------|--------|--------|--------|--------|--------|--------|--------|
 A|--------|--------|--------|--------|--------|--------|--------|--------|--------|
F#|--------|--------|--------|--------|--------|--------|--------|--------|--------|
 B|--------|--------|--------|--------|--------|--------|--------|--------|--------|


 E|--------|--------|--------|--------|--------|--------|--------|--------|--------|
 B|--------|--------|--------|--------|--------|--------|--------|--------|--------|
F#|--------|--------|--------|--------|--------|--------|--------|--------|--------|
 D|--------|--------|--------|--------|--------|--------|--------|--------|--------|
 A|--------|--------|--------|--------|--------|--------|--------|--------|--------|
F#|--------|--------|--------|--------|--------|--------|--------|--------|--------|
 B|--------|--------|--------|--------|--------|--------|--------|--------|--------|


 E|--------|--------|--------|--------|--------|--------|--------|--------|
 B|--------|--------|--------|--------|--------|--------|--------|--------|
F#|--------|--------|--------|--------|--------|--------|--------|--------|
 D|--------|--------|--------|--------|--------|--------|--------|--------|
 A|--------|--------|--------|--------|--------|--------|--------|--------|
F#|--------|--------|--------|--------|--------|--------|--------|--------|
 B|--------|--------|--------|--------|--------|--------|--------|--------|





Track 5: Distortion Center

 E|--------|--------|--------|--------|--------|--------|--------|--------|--------|
 B|--------|--------|--------|--------|--------|--------|--------|--------|--------|
F#|--------|--------|--------|--------|--------|--------|--------|--------|--------|
 D|--------|--------|--------|--------|--------|--------|--------|--------|--------|
 A|--------|--------|--------|--------|--------|--------|--------|--------|--------|
 E|--------|--------|--------|--------|--------|--------|--------|--------|--------|
 B|--------|--------|--------|--------|--------|--------|--------|--------|--------|


 E|--------|--------|--------|--------|--------|--------|--------|--------|--------|
 B|--------|--------|--------|--------|--------|--------|--------|--------|--------|
F#|--------|--------|--------|--------|--------|--------|--------|--------|--------|
 D|--------|--------|--------|--------|--------|--------|--------|--------|--------|
 A|--------|--------|--------|--------|--------|--------|--------|--------|--------|
 E|--------|--------|--------|--------|--------|--------|--------|--------|--------|
 B|--------|--------|--------|--------|--------|--------|--------|--------|--------|


 E|--------|--------|--------|--------|--------|--------|--------|--------|--------|
 B|--------|--------|--------|--------|--------|--------|--------|--------|--------|
F#|--------|--------|--------|--------|--------|--------|--------|--------|--------|
 D|--------|--------|--------|--------|--------|--------|--------|--------|--------|
 A|--------|--------|--------|--------|--------|--------|--------|--------|--------|
 E|--------|--------|--------|--------|--------|--------|--------|--------|--------|
 B|--------|--------|--------|--------|--------|--------|--------|--------|--------|


 E|--------|--------|--------|--------|--------|--------|--------|--------|--------|
 B|--------|--------|--------|--------|--------|--------|--------|--------|--------|
F#|--------|--------|--------|--------|--------|--------|--------|--------|--------|
 D|--------|--------|--------|--------|--------|--------|--------|--------|--------|
 A|--------|--------|--------|--------|--------|--------|--------|--------|--------|
 E|--------|--------|--------|--------|--------|--------|--------|--------|--------|
 B|--------|--------|--------|--------|--------|--------|--------|--------|--------|


 E|--------|--------|--------|--------|--------|--------|--------|--------|---------------------------------|
 B|--------|--------|--------|--------|--------|--------|--------|--------|---------------------------------|
F#|--------|--------|--------|--------|--------|--------|--------|--------|---------------------------------|
 D|--------|--------|--------|--------|--------|--------|--------|--------|---------------------------------|
 A|--------|--------|--------|--------|--------|--------|--------|--------|-2---2---2---2---2---2---2---2---|
 E|--------|--------|--------|--------|--------|--------|--------|--------|-2---2---2---2---2---2---2---2---|
 B|--------|--------|--------|--------|--------|--------|--------|--------|-0---0---0---0---0---0---0---0---|


 E|---------------------------------|---------------------------------|---------------------------------|
 B|---------------------------------|---------------------------------|---------------------------------|
F#|---------------------------------|---------------------------------|---------------------------------|
 D|---------------------------------|-6---6---6---6---6---6---6---6---|-6---6---6---6---6---6---6---6---|
 A|-2---2---2---2---2---2---2---2---|-6---6---6---6---6---6---6---6---|-6---6---6---6---6---6---6---6---|
 E|-2---2---2---2---2---2---2---2---|-4---4---4---4---4---4---4---4---|-4---4---4---4---4---4---4---4---|
 B|-0---0---0---0---0---0---0---0---|---------------------------------|---------------------------------|


 E|---------------------------------|---------------------------------|---------------------------------|
 B|---------------------------------|---------------------------------|---------------------------------|
F#|---------------------------------|---------------------------------|---------------------------------|
 D|---------------------------------|---------------------------------|-6---6---6---6---6---6---6---6---|
 A|-2---2---2---2---2---2---2---2---|-2---2---2---2---2---2---2---2---|-6---6---6---6---6---6---6---6---|
 E|-2---2---2---2---2---2---2---2---|-2---2---2---2---2---2---2---2---|-4---4---4---4---4---4---4---4---|
 B|-0---0---0---0---0---0---0---0---|-0---0---0---0---0---0---0---0---|---------------------------------|


 E|---------------------------------|---------------------------------|---------------------------------|
 B|---------------------------------|---------------------------------|---------------------------------|
F#|---------------------------------|---------------------------------|---------------------------------|
 D|-6---6---6---6---6---6---6---6---|-6---6---6---6---6---6---6---6---|---------------------------------|
 A|-6---6---6---6---6---6---6---6---|-6---6---6---6---6---6---6---6---|-6---6---6---6---6---6---6---6---|
 E|-4---4---4---4---4---4---4---4---|-4---4---4---4---4---4---4---4---|-6---6---6---6---6---6---6---6---|
 B|---------------------------------|---------------------------------|-4---4---4---4---4---4---4---4---|


 E|---------------------------------|---------------------------------|---------------------------------|
 B|---------------------------------|---------------------------------|---------------------------------|
F#|---------------------------------|---------------------------------|---------------------------------|
 D|---------------------------------|-6---6---6---6---6---6---6---6---|-6---6---6---6---6---6---6---6---|
 A|-6---6---6---6---6---6---6---6---|-6---6---6---6---6---6---6---6---|-6---6---6---6---6---6---6---6---|
 E|-6---6---6---6---6---6---6---6---|-4---4---4---4---4---4---4---4---|-4---4---4---4---4---4---4---4---|
 B|-4---4---4---4---4---4---4---4---|---------------------------------|---------------------------------|


 E|---------------------------------|---------------------------------|---------------------------------|
 B|---------------------------------|---------------------------------|---------------------------------|
F#|---------------------------------|---------------------------------|---------------------------------|
 D|---------------------------------|---------------------------------|-6---6---6---6---6---6---6---6---|
 A|-6---6---6---6---6---6---6---6---|-6---6---6---6---6---6---6---6---|-6---6---6---6---6---6---6---6---|
 E|-6---6---6---6---6---6---6---6---|-6---6---6---6---6---6---6---6---|-4---4---4---4---4---4---4---4---|
 B|-4---4---4---4---4---4---4---4---|-4---4---4---4---4---4---4---4---|---------------------------------|


 E|---------------------------------|---------------------------------|---------------------------------|
 B|---------------------------------|---------------------------------|---------------------------------|
F#|---------------------------------|---------------------------------|---------------------------------|
 D|-6---6---6---6---6---6---6---6---|---------------------------------|---------------------------------|
 A|-6---6---6---6---6---6---6---6---|-6---6---6---6---6---6---6---6---|-6---6---6---6---6---6---6---6---|
 E|-4---4---4---4---4---4---4---4---|-6---6---6---6---6---6---6---6---|-6---6---6---6---6---6---6---6---|
 B|---------------------------------|-4---4---4---4---4---4---4---4---|-4---4---4---4---4---4---4---4---|


 E|---------------------------------|---------------------------------|---------------------------------|
 B|---------------------------------|---------------------------------|---------------------------------|
F#|---------------------------------|---------------------------------|---------------------------------|
 D|-6---6---6---6---6---6---6---6---|-6---6---6---6---6---6---6---6---|---------------------------------|
 A|-6---6---6---6---6---6---6---6---|-6---6---6---6---6---6---6---6---|-6---6---6---6---6---6---6---6---|
 E|-4---4---4---4---4---4---4---4---|-4---4---4---4---4---4---4---4---|-6---6---6---6---6---6---6---6---|
 B|---------------------------------|---------------------------------|-4---4---4---4---4---4---4---4---|


 E|---------------------------------|---------------------------------|---------------------------------|
 B|---------------------------------|---------------------------------|---------------------------------|
F#|---------------------------------|---------------------------------|---------------------------------|
 D|---------------------------------|-6---6---6---6---6---6---6---6---|-6---6---6---6---6---6---6---6---|
 A|-6---6---6---6---6---6---6---6---|-6---6---6---6---6---6---6---6---|-6---6---6---6---6---6---6---6---|
 E|-6---6---6---6---6---6---6---6---|-4---4---4---4---4---4---4---4---|-4---4---4---4---4---4---4---4---|
 B|-4---4---4---4---4---4---4---4---|---------------------------------|---------------------------------|


 E|---------------------------------|---------------------------------|---------------------------------|
 B|---------------------------------|---------------------------------|---------------------------------|
F#|---------------------------------|---------------------------------|---------------------------------|
 D|---------------------------------|---------------------------------|---------------------------------|
 A|-2---2---2---2---2---2---2---2---|-4---4---4---4---4---4---4---4---|-6---6---6---6---6---6---6---6---|
 E|-2---2---2---2---2---2---2---2---|-4---4---4---4---4---4---4---4---|-6---6---6---6---6---6---6---6---|
 B|-0---0---0---0---0---0---0---0---|-2---2---2---2---2---2---2---2---|-4---4---4---4---4---4---4---4---|


 E|---------------------------------|---------------------------------|---------------------------------|
 B|---------------------------------|---------------------------------|---------------------------------|
F#|---------------------------------|---------------------------------|---------------------------------|
 D|---------------------------------|---------------------------------|---------------------------------|
 A|-6---6---6---6---6---4---4---2---|-2---2---2---2---2---2---2---2---|-4---4---4---4---4---4---4---4---|
 E|-6---6---6---6---6---4---4---2---|-2---2---2---2---2---2---2---2---|-4---4---4---4---4---4---4---4---|
 B|-4---4---4---4---4---2---2---0---|-0---0---0---0---0---0---0---0---|-2---2---2---2---2---2---2---2---|


 E|---------------------------------|---------------------------------|---------------------------------|
 B|---------------------------------|---------------------------------|---------------------------------|
F#|---------------------------------|---------------------------------|---------------------------------|
 D|---------------------------------|---------------------------------|---------------------------------|
 A|-6---6---6---6---6---6---6---6---|-6---6---6---6---6---4---4---2---|-2---2---2---2---2---2---2---2---|
 E|-6---6---6---6---6---6---6---6---|-6---6---6---6---6---4---4---2---|-2---2---2---2---2---2---2---2---|
 B|-4---4---4---4---4---4---4---4---|-4---4---4---4---4---2---2---0---|-0---0---0---0---0---0---0---0---|


 E|---------------------------------|---------------------------------|---------------------------------|
 B|---------------------------------|---------------------------------|---------------------------------|
F#|---------------------------------|---------------------------------|---------------------------------|
 D|---------------------------------|---------------------------------|---------------------------------|
 A|-4---4---4---4---4---4---4---4---|-6---6---6---6---6---6---6---6---|-6---6---6---6---6---4---4---2---|
 E|-4---4---4---4---4---4---4---4---|-6---6---6---6---6---6---6---6---|-6---6---6---6---6---4---4---2---|
 B|-2---2---2---2---2---2---2---2---|-4---4---4---4---4---4---4---4---|-4---4---4---4---4---2---2---0---|


 E|---------------------------------|---------------------------------|---------------------------------|
 B|---------------------------------|---------------------------------|---------------------------------|
F#|---------------------------------|---------------------------------|---------------------------------|
 D|---------------------------------|---------------------------------|---------------------------------|
 A|-2---2---2---2---2---2---2---2---|-4---4---4---4---4---4---4---4---|-6---6---6---6---6---6---6---6---|
 E|-2---2---2---2---2---2---2---2---|-4---4---4---4---4---4---4---4---|-6---6---6---6---6---6---6---6---|
 B|-0---0---0---0---0---0---0---0---|-2---2---2---2---2---2---2---2---|-4---4---4---4---4---4---4---4---|


 E|---------------------------------|-------------|--------|--------|--------|--------|
 B|---------------------------------|-------------|--------|--------|--------|--------|
F#|---------------------------------|-------------|--------|--------|--------|--------|
 D|---------------------------------|-------------|--------|--------|--------|--------|
 A|-6---6---6---6---6---4---4---2---|-2-----2-----|-2------|--------|--------|--------|
 E|-6---6---6---6---6---4---4---2---|-2-----2-----|-2------|--------|--------|--------|
 B|-4---4---4---4---4---2---2---0---|-0-----0-----|-0------|--------|--------|--------|


 E|--------|--------|--------|--------|--------|--------|--------|--------|--------|
 B|--------|--------|--------|--------|--------|--------|--------|--------|--------|
F#|--------|--------|--------|--------|--------|--------|--------|--------|--------|
 D|--------|--------|--------|--------|--------|--------|--------|--------|--------|
 A|--------|--------|--------|--------|--------|--------|--------|--------|--------|
 E|--------|--------|--------|--------|--------|--------|--------|--------|--------|
 B|--------|--------|--------|--------|--------|--------|--------|--------|--------|


 E|--------|--------|--------|--------|--------|--------|--------|--------|--------|
 B|--------|--------|--------|--------|--------|--------|--------|--------|--------|
F#|--------|--------|--------|--------|--------|--------|--------|--------|--------|
 D|--------|--------|--------|--------|--------|--------|--------|--------|--------|
 A|--------|--------|--------|--------|--------|--------|--------|--------|--------|
 E|--------|--------|--------|--------|--------|--------|--------|--------|--------|
 B|--------|--------|--------|--------|--------|--------|--------|--------|--------|


 E|--------|--------|--------|--------|--------|--------|--------|--------|--------|
 B|--------|--------|--------|--------|--------|--------|--------|--------|--------|
F#|--------|--------|--------|--------|--------|--------|--------|--------|--------|
 D|--------|--------|--------|--------|--------|--------|--------|--------|--------|
 A|--------|--------|--------|--------|--------|--------|--------|--------|--------|
 E|--------|--------|--------|--------|--------|--------|--------|--------|--------|
 B|--------|--------|--------|--------|--------|--------|--------|--------|--------|


 E|---------------------------------|---------------------------------|---------------------------------|
 B|---------------------------------|---------------------------------|---------------------------------|
F#|---------------------------------|---------------------------------|---------------------------------|
 D|---------------------------------|---------------------------------|---------------------------------|
 A|-2---2---2---2---2---2---2---2---|-4---4---4---4---4---4---4---4---|-6---6---6---6---6---6---6---6---|
 E|-2---2---2---2---2---2---2---2---|-4---4---4---4---4---4---4---4---|-6---6---6---6---6---6---6---6---|
 B|-0---0---0---0---0---0---0---0---|-2---2---2---2---2---2---2---2---|-4---4---4---4---4---4---4---4---|


 E|---------------------------------|---------------------------------|---------------------------------|
 B|---------------------------------|---------------------------------|---------------------------------|
F#|---------------------------------|---------------------------------|---------------------------------|
 D|---------------------------------|---------------------------------|---------------------------------|
 A|-6---6---6---6---6---4---4---2---|-2---2---2---2---2---2---2---2---|-4---4---4---4---4---4---4---4---|
 E|-6---6---6---6---6---4---4---2---|-2---2---2---2---2---2---2---2---|-4---4---4---4---4---4---4---4---|
 B|-4---4---4---4---4---2---2---0---|-0---0---0---0---0---0---0---0---|-2---2---2---2---2---2---2---2---|


 E|---------------------------------|---------------------------------|---------------------------------|
 B|---------------------------------|---------------------------------|---------------------------------|
F#|---------------------------------|---------------------------------|---------------------------------|
 D|---------------------------------|---------------------------------|---------------------------------|
 A|-6---6---6---6---6---6---6---6---|-6---6---6---6---6---4---4---2---|-2---2---2---2---2---2---2---2---|
 E|-6---6---6---6---6---6---6---6---|-6---6---6---6---6---4---4---2---|-2---2---2---2---2---2---2---2---|
 B|-4---4---4---4---4---4---4---4---|-4---4---4---4---4---2---2---0---|-0---0---0---0---0---0---0---0---|


 E|---------------------------------|---------------------------------|---------------------------------|
 B|---------------------------------|---------------------------------|---------------------------------|
F#|---------------------------------|---------------------------------|---------------------------------|
 D|---------------------------------|---------------------------------|---------------------------------|
 A|-4---4---4---4---4---4---4---4---|-6---6---6---6---6---6---6---6---|-6---6---6---6---6---4---4---2---|
 E|-4---4---4---4---4---4---4---4---|-6---6---6---6---6---6---6---6---|-6---6---6---6---6---4---4---2---|
 B|-2---2---2---2---2---2---2---2---|-4---4---4---4---4---4---4---4---|-4---4---4---4---4---2---2---0---|


 E|---------------------------------|---------------------------------|---------------------------------|
 B|---------------------------------|---------------------------------|---------------------------------|
F#|---------------------------------|---------------------------------|---------------------------------|
 D|---------------------------------|---------------------------------|---------------------------------|
 A|-2---2---2---2---2---2---2---2---|-4---4---4---4---4---4---4---4---|-6---6---6---6---6---6---6---6---|
 E|-2---2---2---2---2---2---2---2---|-4---4---4---4---4---4---4---4---|-6---6---6---6---6---6---6---6---|
 B|-0---0---0---0---0---0---0---0---|-2---2---2---2---2---2---2---2---|-4---4---4---4---4---4---4---4---|


 E|---------------------------------|---------------------------------|---------------------------------|
 B|---------------------------------|---------------------------------|---------------------------------|
F#|---------------------------------|---------------------------------|---------------------------------|
 D|---------------------------------|---------------------------------|---------------------------------|
 A|-6---6---6---6---6---4---4---2---|-2---2---2---2---2---2---2---2---|-4---4---4---4---4---4---4---4---|
 E|-6---6---6---6---6---4---4---2---|-2---2---2---2---2---2---2---2---|-4---4---4---4---4---4---4---4---|
 B|-4---4---4---4---4---2---2---0---|-0---0---0---0---0---0---0---0---|-2---2---2---2---2---2---2---2---|


 E|---------------------------------|---------------------------------|---------------------------------|
 B|---------------------------------|---------------------------------|---------------------------------|
F#|---------------------------------|---------------------------------|---------------------------------|
 D|---------------------------------|---------------------------------|---------------------------------|
 A|-6---6---6---6---6---6---6---6---|-6---6---6---6---6---4---4---2---|-2---2---2---2---2---2---2---2---|
 E|-6---6---6---6---6---6---6---6---|-6---6---6---6---6---4---4---2---|-2---2---2---2---2---2---2---2---|
 B|-4---4---4---4---4---4---4---4---|-4---4---4---4---4---2---2---0---|-0---0---0---0---0---0---0---0---|


 E|---------------------------------|---------------------------------|---------------------------------|
 B|---------------------------------|---------------------------------|---------------------------------|
F#|---------------------------------|---------------------------------|---------------------------------|
 D|---------------------------------|---------------------------------|---------------------------------|
 A|-4---4---4---4---4---4---4---4---|-6---6---6---6---6---6---6---6---|-6---6---6---6---6---4---4---2---|
 E|-4---4---4---4---4---4---4---4---|-6---6---6---6---6---6---6---6---|-6---6---6---6---6---4---4---2---|
 B|-2---2---2---2---2---2---2---2---|-4---4---4---4---4---4---4---4---|-4---4---4---4---4---2---2---0---|


 E|---------------------------------|---------------------------------|---------------------------------|
 B|---------------------------------|---------------------------------|---------------------------------|
F#|---------------------------------|---------------------------------|---------------------------------|
 D|---------------------------------|---------------------------------|---------------------------------|
 A|-2---2---2---2---2---2---2---2---|-4---4---4---4---4---4---4---4---|-6---6---6---6---6---6---6---6---|
 E|-2---2---2---2---2---2---2---2---|-4---4---4---4---4---4---4---4---|-6---6---6---6---6---6---6---6---|
 B|-0---0---0---0---0---0---0---0---|-2---2---2---2---2---2---2---2---|-4---4---4---4---4---4---4---4---|


 E|---------------------------------|---------------------------------|---------------------------------|
 B|---------------------------------|---------------------------------|---------------------------------|
F#|---------------------------------|---------------------------------|---------------------------------|
 D|---------------------------------|---------------------------------|---------------------------------|
 A|-6---6---6---6---6---4---4---2---|-2---2---2---2---2---2---2---2---|-4---4---4---4---4---4---4---4---|
 E|-6---6---6---6---6---4---4---2---|-2---2---2---2---2---2---2---2---|-4---4---4---4---4---4---4---4---|
 B|-4---4---4---4---4---2---2---0---|-0---0---0---0---0---0---0---0---|-2---2---2---2---2---2---2---2---|


 E|---------------------------------|---------------------------------|--------|--------|
 B|---------------------------------|---------------------------------|--------|--------|
F#|---------------------------------|---------------------------------|--------|--------|
 D|---------------------------------|---------------------------------|--------|--------|
 A|-6---6---6---6---6---6---6---6---|-6---6---6---6---6---4---4---2---|--------|--------|
 E|-6---6---6---6---6---6---6---6---|-6---6---6---6---6---4---4---2---|--------|--------|
 B|-4---4---4---4---4---4---4---4---|-4---4---4---4---4---2---2---0---|--------|--------|


 E|--------|--------|--------|--------|--------|
 B|--------|--------|--------|--------|--------|
F#|--------|--------|--------|--------|--------|
 D|--------|--------|--------|--------|--------|
 A|--------|--------|--------|--------|--------|
 E|--------|--------|--------|--------|--------|
 B|--------|--------|--------|--------|--------|





Track 6: Clean Right

 E|--------|--------|--------|--------|--------|--------|--------|--------|--------|
 B|--------|--------|--------|--------|--------|--------|--------|--------|--------|
F#|--------|--------|--------|--------|--------|--------|--------|--------|--------|
 D|--------|--------|--------|--------|--------|--------|--------|--------|--------|
 A|--------|--------|--------|--------|--------|--------|--------|--------|--------|
 E|--------|--------|--------|--------|--------|--------|--------|--------|--------|
 B|--------|--------|--------|--------|--------|--------|--------|--------|--------|


 E|--------|--------|--------|--------|--------|--------|--------|--------|--------|
 B|--------|--------|--------|--------|--------|--------|--------|--------|--------|
F#|--------|--------|--------|--------|--------|--------|--------|--------|--------|
 D|--------|--------|--------|--------|--------|--------|--------|--------|--------|
 A|--------|--------|--------|--------|--------|--------|--------|--------|--------|
 E|--------|--------|--------|--------|--------|--------|--------|--------|--------|
 B|--------|--------|--------|--------|--------|--------|--------|--------|--------|


 E|--------|--------|--------|--------|--------|--------|--------|--------|--------|
 B|--------|--------|--------|--------|--------|--------|--------|--------|--------|
F#|--------|--------|--------|--------|--------|--------|--------|--------|--------|
 D|--------|--------|--------|--------|--------|--------|--------|--------|--------|
 A|--------|--------|--------|--------|--------|--------|--------|--------|--------|
 E|--------|--------|--------|--------|--------|--------|--------|--------|--------|
 B|--------|--------|--------|--------|--------|--------|--------|--------|--------|


 E|--------|--------|--------|--------|--------|--------|--------|--------|--------|
 B|--------|--------|--------|--------|--------|--------|--------|--------|--------|
F#|--------|--------|--------|--------|--------|--------|--------|--------|--------|
 D|--------|--------|--------|--------|--------|--------|--------|--------|--------|
 A|--------|--------|--------|--------|--------|--------|--------|--------|--------|
 E|--------|--------|--------|--------|--------|--------|--------|--------|--------|
 B|--------|--------|--------|--------|--------|--------|--------|--------|--------|


 E|--------|--------|--------|--------|--------|--------|--------|--------|--------|
 B|--------|--------|--------|--------|--------|--------|--------|--------|--------|
F#|--------|--------|--------|--------|--------|--------|--------|--------|--------|
 D|--------|--------|--------|--------|--------|--------|--------|--------|--------|
 A|--------|--------|--------|--------|--------|--------|--------|--------|--------|
 E|--------|--------|--------|--------|--------|--------|--------|--------|--------|
 B|--------|--------|--------|--------|--------|--------|--------|--------|--------|


 E|--------|--------|--------|--------|--------|--------|--------|-----------------------|
 B|--------|--------|--------|--------|--------|--------|--------|-------------------12--|
F#|--------|--------|--------|--------|--------|--------|--------|---------------14------|
 D|--------|--------|--------|--------|--------|--------|--------|-----------13----------|
 A|--------|--------|--------|--------|--------|--------|--------|-----------------------|
 E|--------|--------|--------|--------|--------|--------|--------|-----------------------|
 B|--------|--------|--------|--------|--------|--------|--------|-----------------------|


 E|---------------------------------|---------------------------------|---------------------------------|
 B|-12----------11--11----------12--|-12----------11--11----------12--|-12----------11--11----------12--|
F#|---------14--------------14------|---------14--------------14------|---------14--------------14------|
 D|-----13--------------13----------|-----13--------------13----------|-----13--------------13----------|
 A|---------------------------------|---------------------------------|---------------------------------|
 E|---------------------------------|---------------------------------|---------------------------------|
 B|---------------------------------|---------------------------------|---------------------------------|


 E|---------------------------------|---------------------------------|---------------------------------|
 B|-12----------11--11----------12--|-12----------11--11----------12--|-12----------11--11----------12--|
F#|---------14--------------14------|---------14--------------14------|---------14--------------14------|
 D|-----13--------------13----------|-----13--------------13----------|-----13--------------13----------|
 A|---------------------------------|---------------------------------|---------------------------------|
 E|---------------------------------|---------------------------------|---------------------------------|
 B|---------------------------------|---------------------------------|---------------------------------|


 E|---------------------------------|---------------------------------|---------------------------------|
 B|-12----------11--11----------12--|-12----------11--11----------12--|-12----------11--11----------12--|
F#|---------14--------------14------|---------14--------------14------|---------14--------------14------|
 D|-----13--------------13----------|-----13--------------13----------|-----13--------------13----------|
 A|---------------------------------|---------------------------------|---------------------------------|
 E|---------------------------------|---------------------------------|---------------------------------|
 B|---------------------------------|---------------------------------|---------------------------------|


 E|---------------------------------|---------------------------------|---------------------------------|
 B|-12----------11--11----------12--|-12----------11--11----------12--|-12----------11--11----------12--|
F#|---------14--------------14------|---------14--------------14------|---------14--------------14------|
 D|-----13--------------13----------|-----13--------------13----------|-----13--------------13----------|
 A|---------------------------------|---------------------------------|---------------------------------|
 E|---------------------------------|---------------------------------|---------------------------------|
 B|---------------------------------|---------------------------------|---------------------------------|


 E|---------------------------------|---------------------------------|---------------------------------|
 B|-12----------11--11----------12--|-12----------11--11----------12--|-12----------11--11----------12--|
F#|---------14--------------14------|---------14--------------14------|---------14--------------14------|
 D|-----13--------------13----------|-----13--------------13----------|-----13--------------13----------|
 A|---------------------------------|---------------------------------|---------------------------------|
 E|---------------------------------|---------------------------------|---------------------------------|
 B|---------------------------------|---------------------------------|---------------------------------|


 E|---------------------------------|--------|--------|--------|--------|--------|
 B|-12----------11--11----------12--|--------|--------|--------|--------|--------|
F#|---------14--------------14------|--------|--------|--------|--------|--------|
 D|-----13--------------13----------|--------|--------|--------|--------|--------|
 A|---------------------------------|--------|--------|--------|--------|--------|
 E|---------------------------------|--------|--------|--------|--------|--------|
 B|---------------------------------|--------|--------|--------|--------|--------|


 E|--------|--------|--------|--------|--------|--------|--------|--------|--------|
 B|--------|--------|--------|--------|--------|--------|--------|--------|--------|
F#|--------|--------|--------|--------|--------|--------|--------|--------|--------|
 D|--------|--------|--------|--------|--------|--------|--------|--------|--------|
 A|--------|--------|--------|--------|--------|--------|--------|--------|--------|
 E|--------|--------|--------|--------|--------|--------|--------|--------|--------|
 B|--------|--------|--------|--------|--------|--------|--------|--------|--------|


 E|--------|--------|---------------------------------|---------------------------------|
 B|--------|--------|---------------------------------|---------------------------------|
F#|--------|--------|---------------------------------|---------------------------------|
 D|--------|--------|---------------------------------|---------------------------------|
 A|--------|--------|-2---2---2---2---2---2---2---2---|-2---2---2---2---2---2---2---2---|
 E|--------|--------|---------------------------------|---------------------------------|
 B|--------|--------|---------------------------------|---------------------------------|


 E|---------------------------------|---------------------------------|---------------------------------|
 B|---------------------------------|---------------------------------|---------------------------------|
F#|---------------------------------|---------------------------------|---------------------------------|
 D|---------------------------------|---------------------------------|---------------------------------|
 A|-6---6---6---6---6---6---6---6---|-6---6---6---6---6---6---6---6---|-2---2---2---2---2---2---2---2---|
 E|---------------------------------|---------------------------------|---------------------------------|
 B|---------------------------------|---------------------------------|---------------------------------|


 E|---------------------------------|---------------------------------|---------------------------------|
 B|---------------------------------|---------------------------------|---------------------------------|
F#|---------------------------------|---------------------------------|---------------------------------|
 D|---------------------------------|---------------------------------|---------------------------------|
 A|-2---2---2---2---2---2---2---2---|-6---6---6---6---6---6---6---6---|-6---6---6---6---6---6---6---6---|
 E|---------------------------------|---------------------------------|---------------------------------|
 B|---------------------------------|---------------------------------|---------------------------------|


 E|---------------------------------|---------------------------------|---------------------------------|
 B|---------------------------------|---------------------------------|---------------------------------|
F#|---------------------------------|---------------------------------|---------------------------------|
 D|---------------------------------|---------------------------------|---------------------------------|
 A|-2---2---2---2---2---2---2---2---|-2---2---2---2---2---2---2---2---|-6---6---6---6---6---6---6---6---|
 E|---------------------------------|---------------------------------|---------------------------------|
 B|---------------------------------|---------------------------------|---------------------------------|


 E|---------------------------------|---------------------------------|---------------------------------|
 B|---------------------------------|---------------------------------|---------------------------------|
F#|---------------------------------|---------------------------------|---------------------------------|
 D|---------------------------------|---------------------------------|---------------------------------|
 A|-6---6---6---6---6---6---6---6---|-2---2---2---2---2---2---2---2---|-2---2---2---2---2---2---2---2---|
 E|---------------------------------|---------------------------------|---------------------------------|
 B|---------------------------------|---------------------------------|---------------------------------|


 E|---------------------------------|---------------------------------|---------------------------------|
 B|---------------------------------|---------------------------------|---------------------------------|
F#|---------------------------------|---------------------------------|---------------------------------|
 D|---------------------------------|---------------------------------|-9---9---9---9---9---9---9---9---|
 A|-6---6---6---6---6---6---6---6---|-6---6---6---6---6---6---6---6---|---------------------------------|
 E|---------------------------------|---------------------------------|---------------------------------|
 B|---------------------------------|---------------------------------|---------------------------------|


 E|---------------------------------|---------------------------------|---------------------------------|
 B|---------------------------------|---------------------------------|---------------------------------|
F#|---------------------------------|---------------------------------|---------------------------------|
 D|-11--11--11--11--11--11--11--11--|-13--13--13--13--13--13--13--13--|-11--11--11--11--11--11--11--11--|
 A|---------------------------------|---------------------------------|---------------------------------|
 E|---------------------------------|---------------------------------|---------------------------------|
 B|---------------------------------|---------------------------------|---------------------------------|


 E|---------------------------------|---------------------------------|---------------------------------|
 B|---------------------------------|---------------------------------|---------------------------------|
F#|---------------------------------|---------------------------------|---------------------------------|
 D|-9---9---9---9---9---9---9---9---|-11--11--11--11--11--11--11--11--|-13--13--13--13--13--13--13--13--|
 A|---------------------------------|---------------------------------|---------------------------------|
 E|---------------------------------|---------------------------------|---------------------------------|
 B|---------------------------------|---------------------------------|---------------------------------|


 E|---------------------------------|---------------------------------|---------------------------------|
 B|---------------------------------|---------------------------------|---------------------------------|
F#|---------------------------------|-----0---------------------------|-----0---------------------------|
 D|-8---8---8---8---8---8---8---8---|-9-------9---9---9---9---9---9---|-11------11--11--11--11--11--11--|
 A|---------------------------------|---------------------------------|---------------------------------|
 E|---------------------------------|---------------------------------|---------------------------------|
 B|---------------------------------|---------------------------------|---------------------------------|


 E|---------------------------------|---------------------------------|---------------------------------|
 B|---------------------------------|---------------------------------|---------------------------------|
F#|-----0---------------------------|-----0---------------------------|-----0---------------------------|
 D|-13------13--13--13--13--13--13--|-11------11--11--11--11--11--11--|-9-------9---9---9---9---9---9---|
 A|---------------------------------|---------------------------------|---------------------------------|
 E|---------------------------------|---------------------------------|---------------------------------|
 B|---------------------------------|---------------------------------|---------------------------------|


 E|---------------------------------|---------------------------------|---------------------------------|
 B|---------------------------------|---------------------------------|---------------------------------|
F#|-----0---------------------------|-----0---------------------------|-----0---------------------------|
 D|-11------11--11--11--11--11--11--|-13------13--13--13--13--13--13--|-8-------8---8---8---8---8---8---|
 A|---------------------------------|---------------------------------|---------------------------------|
 E|---------------------------------|---------------------------------|---------------------------------|
 B|---------------------------------|---------------------------------|---------------------------------|


 E|--------|--------|--------|--------|--------|--------|--------|--------|--------|
 B|--------|--------|--------|--------|--------|--------|--------|--------|--------|
F#|--------|--------|--------|--------|--------|--------|--------|--------|--------|
 D|--------|--------|--------|--------|--------|--------|--------|--------|--------|
 A|--------|--------|--------|--------|--------|--------|--------|--------|--------|
 E|--------|--------|--------|--------|--------|--------|--------|--------|--------|
 B|--------|--------|--------|--------|--------|--------|--------|--------|--------|


 E|--------|--------|--------|--------|--------|--------|--------|--------|--------|
 B|--------|--------|--------|--------|--------|--------|--------|--------|--------|
F#|--------|--------|--------|--------|--------|--------|--------|--------|--------|
 D|--------|--------|--------|--------|--------|--------|--------|--------|--------|
 A|--------|--------|--------|--------|--------|--------|--------|--------|--------|
 E|--------|--------|--------|--------|--------|--------|--------|--------|--------|
 B|--------|--------|--------|--------|--------|--------|--------|--------|--------|


 E|--------|--------|--------|--------|--------|--------|--------|--------|--------|
 B|--------|--------|--------|--------|--------|--------|--------|--------|--------|
F#|--------|--------|--------|--------|--------|--------|--------|--------|--------|
 D|--------|--------|--------|--------|--------|--------|--------|--------|--------|
 A|--------|--------|--------|--------|--------|--------|--------|--------|--------|
 E|--------|--------|--------|--------|--------|--------|--------|--------|--------|
 B|--------|--------|--------|--------|--------|--------|--------|--------|--------|


 E|--------|--------|--------|--------|--------|--------|--------|--------|--------|
 B|--------|--------|--------|--------|--------|--------|--------|--------|--------|
F#|--------|--------|--------|--------|--------|--------|--------|--------|--------|
 D|--------|--------|--------|--------|--------|--------|--------|--------|--------|
 A|--------|--------|--------|--------|--------|--------|--------|--------|--------|
 E|--------|--------|--------|--------|--------|--------|--------|--------|--------|
 B|--------|--------|--------|--------|--------|--------|--------|--------|--------|


 E|--------|--------|--------|
 B|--------|--------|--------|
F#|--------|--------|--------|
 D|--------|--------|--------|
 A|--------|--------|--------|
 E|--------|--------|--------|
 B|--------|--------|--------|





Track 7: Bass

G|--------|--------|--------|--------|---------------------|---------------------|
D|--------|--------|--------|--------|---------------------|---------------------|
A|--------|--------|--------|--------|-2----2----2----2----|-2----2----2----2----|
E|--------|--------|--------|--------|---------------------|---------------------|
B|--------|--------|--------|--------|---------------------|---------------------|


G|---------------------|---------------------|---------------------|---------------------|
D|---------------------|---------------------|---------------------|---------------------|
A|---------------------|---------------------|-2----2----2----2----|-2----2----2----2----|
E|-4----4----4----4----|-4----4----4----4----|---------------------|---------------------|
B|---------------------|---------------------|---------------------|---------------------|


G|---------------------|---------------------|---------------------------------|---------------------------------|
D|---------------------|---------------------|---------------------------------|---------------------------------|
A|---------------------|---------------------|-2---2---2---2---2---2---2---2---|-2---2---2---2---2---2---2---2---|
E|-4----4----4----4----|-4----4----4----4----|---------------------------------|---------------------------------|
B|---------------------|---------------------|---------------------------------|---------------------------------|


G|---------------------------------|---------------------------------|---------------------------------|
D|---------------------------------|---------------------------------|---------------------------------|
A|---------------------------------|---------------------------------|-2---2---2---2---2---2---2---2---|
E|-4---4---4---4---4---4---4---4---|-4---4---4---4---4---4---4---4---|---------------------------------|
B|---------------------------------|---------------------------------|---------------------------------|


G|---------------------------------|---------------------------------|---------------------------------|
D|---------------------------------|---------------------------------|---------------------------------|
A|-2---2---2---2---2---2---2---2---|---------------------------------|---------------------------------|
E|---------------------------------|-4---4---4---4---4---4---4---4---|-4---4---4---4---4---4---4---4---|
B|---------------------------------|---------------------------------|---------------------------------|


G|---------------------------------|---------------------------------|---------------------------------|
D|---------------------------------|---------------------------------|---------------------------------|
A|-2---2---2---2---2---2---2---2---|-2---2---2---2---2---2---2---2---|---------------------------------|
E|---------------------------------|---------------------------------|-4---4---4---4---4---4---4---4---|
B|---------------------------------|---------------------------------|---------------------------------|


G|---------------------------------|---------------------------------|---------------------------------|
D|---------------------------------|---------------------------------|---------------------------------|
A|---------------------------------|-2---2---2---2---2---2---2---2---|-2---2---2---2---2---2---2---2---|
E|-4---4---4---4---4---4---4---4---|---------------------------------|---------------------------------|
B|---------------------------------|---------------------------------|---------------------------------|


G|---------------------------------|---------------------------------|---------------------------------|
D|---------------------------------|---------------------------------|---------------------------------|
A|---------------------------------|---------------------------------|---------------------------------|
E|-4---4---4---4---4---4---4---4---|-4---4---4---4---4---4---4---4---|-0---0---0---0---0---0---0---0---|
B|---------------------------------|---------------------------------|---------------------------------|


G|---------------------------------|---------------------------------|---------------------------------|
D|---------------------------------|---------------------------------|---------------------------------|
A|---------------------------------|---------------------------------|---------------------------------|
E|-0---0---0---0---0---0---0---0---|-2---2---2---2---2---2---2---2---|-2---2---2---2---2---2---2---2---|
B|---------------------------------|---------------------------------|---------------------------------|


G|---------------------------------|---------------------------------|---------------------------------|
D|---------------------------------|---------------------------------|---------------------------------|
A|-------------6-----------7-------|-----6-----------6-------7-------|-------------6-----------7-------|
E|-4---4---4-------4---4-------4---|-4-------4---4-------4-------4---|-4---4---4-------4---4-------4---|
B|---------------------------------|---------------------------------|---------------------------------|


G|---------------------------------|---------------------------------|---------------------------------|
D|---------------------------------|---------------------------------|---------------------------------|
A|-----6-----------6-------7-------|---------------------------------|---------------------------------|
E|-4-------4---4-------4-------4---|-0---0---0---0---0---0---0---0---|-0---0---0---0---0---0---0---0---|
B|---------------------------------|---------------------------------|---------------------------------|


G|---------------------------------|---------------------------------|---------------------------------|
D|---------------------------------|---------------------------------|---------------------------------|
A|---------------------------------|---------------------------------|-------------6-----------7-------|
E|-2---2---2---2---2---2---2---2---|-2---2---2---2---2---2---2---2---|-4---4---4-------4---4-------4---|
B|---------------------------------|---------------------------------|---------------------------------|


G|---------------------------------|---------------------------------|---------------------------------|
D|---------------------------------|---------------------------------|---------------------------------|
A|-----6-----------6-------7-------|-------------6-----------7-------|-----6-----------6-------7-------|
E|-4-------4---4-------4-------4---|-4---4---4-------4---4-------4---|-4-------4---4-------4-------4---|
B|---------------------------------|---------------------------------|---------------------------------|


G|---------------------|---------------------|---------------------|------------------------|
D|---------------------|---------------------|---------------------|------------------------|
A|---------------------|---------------------|---------------------|------------------------|
E|---------------------|---------------------|-4----4----4----4----|-4----4----4---4---4----|
B|-0----0----0----0----|-0----0----0----0----|---------------------|------------------------|


G|---------------------|---------------------|---------------------------|---------------------------------|
D|---------------------|---------------------|---------------------------|---------------------------------|
A|---------------------|---------------------|---------------------------|---------------------------------|
E|---------------------|---------------------|-4----4----4---4---4----4--|-4---4---4----4--4---4---4---4---|
B|-0----0----0----0----|-0----0----0----0----|---------------------------|---------------------------------|


G|---------------------|---------------------|---------------------|------------------------|
D|---------------------|---------------------|---------------------|------------------------|
A|---------------------|---------------------|---------------------|------------------------|
E|---------------------|---------------------|-4----4----4----4----|-4----4----4---4---4----|
B|-0----0----0----0----|-0----0----0----0----|---------------------|------------------------|


G|---------------------|---------------------|---------------------------|---------------------------------|
D|---------------------|---------------------|---------------------------|---------------------------------|
A|---------------------|---------------------|---------------------------|---------------------------------|
E|---------------------|---------------------|-4----4----4---4---4----4--|-4---4---4----4--4---4---4---4---|
B|-0----0----0----0----|-0----0----0----0----|---------------------------|---------------------------------|


G|---------------------------------|---------------------------------|---------------------------------|
D|---------------------------------|---------------------------------|---------------------------------|
A|-6---6---6---6---6---6---6---6---|-6---6---6---6---6---6---6---6---|---------------------------------|
E|---------------------------------|---------------------------------|-4---4---4---4---4---4---4---4---|
B|---------------------------------|---------------------------------|---------------------------------|


G|-----------------------------------|---------------------------------|---------------------------------|
D|-----------------------------------|---------------------------------|---------------------------------|
A|-----------------------------------|---------------------------------|---------------------------------|
E|-4---4---4---4--4--4---4---4---4---|---------------------------------|---------------------------------|
B|-----------------------------------|-4---4---4---4---4---4---4---4---|-4---4---4---4---4---4---4---4---|


G|---------------------------------|-----------------------------------|---------------------------------|
D|---------------------------------|-----------------------------------|---------------------------------|
A|---------------------------------|-----------------------------------|-6---6---6---6---6---6---6---6---|
E|-4---4---4---4---4---4---4---4---|-4---4---4---4--4--4---4---4---4---|---------------------------------|
B|---------------------------------|-----------------------------------|---------------------------------|


G|---------------------------------|---------------------------------|-----------------------------------|
D|---------------------------------|---------------------------------|-----------------------------------|
A|-6---6---6---6---6---6---6---6---|---------------------------------|-----------------------------------|
E|---------------------------------|-4---4---4---4---4---4---4---4---|-4---4---4---4--4--4---4---4---4---|
B|---------------------------------|---------------------------------|-----------------------------------|


G|---------------------------------|---------------------------------|---------------------------------|
D|---------------------------------|---------------------------------|---------------------------------|
A|---------------------------------|---------------------------------|---------------------------------|
E|---------------------------------|---------------------------------|-4---4---4---4---4---4---4---4---|
B|-4---4---4---4---4---4---4---4---|-4---4---4---4---4---4---4---4---|---------------------------------|


G|-----------------------------------|---------------------|---------------------|
D|-----------------------------------|---------------------|---------------------|
A|-----------------------------------|---------------------|---------------------|
E|-4---4---4---4--4--4---4---4---4---|---------------------|---------------------|
B|-----------------------------------|-0----0----0----0----|-2----2----2----2----|


G|---------------------|---------------------------|---------------------------------|
D|---------------------|---------------------------|---------------------------------|
A|---------------------|---------------------------|---------------------------------|
E|---------------------|---------------------------|---------------------------------|
B|-4----4----4----4----|-4----4----4---2---2---0---|-0---0---0---0---0---0---0---0---|


G|---------------------------------|---------------------------------|---------------------------------|
D|---------------------------------|---------------------------------|---------------------------------|
A|---------------------------------|---------------------------------|---------------------------------|
E|---------------------------------|---------------------------------|---------------------------------|
B|-2---2---2---2---2---2---2---2---|-4---4---4---4---4---4---4---4---|-4---4---4---4---4---2---2---0---|


G|---------------------------------|---------------------------------|---------------------------------|
D|---------------------------------|---------------------------------|---------------------------------|
A|---------------------------------|---------------------------------|---------------------------------|
E|---------------------------------|---------------------------------|---------------------------------|
B|-0---0---0---0---0---0---0---0---|-2---2---2---2---2---2---2---2---|-4---4---4---4---4---4---4---4---|


G|---------------------------------|---------------------------------|---------------------------------|
D|---------------------------------|---------------------------------|---------------------------------|
A|---------------------------------|---------------------------------|---------------------------------|
E|---------------------------------|---------------------------------|---------------------------------|
B|-4---4---4---4---4---2---2---0---|-0---0---0---0---0---0---0---0---|-2---2---2---2---2---2---2---2---|


G|---------------------------------|---------------------------------|--------|--------|
D|---------------------------------|---------------------------------|--------|--------|
A|---------------------------------|---------------------------------|--------|--------|
E|---------------------------------|---------------------------------|--------|--------|
B|-4---4---4---4---4---4---4---4---|-4---4---4---4---4---2---2---0---|-0------|-0------|


G|--------|--------|--------|--------|--------|--------|---------------------|---------------------|
D|--------|--------|--------|--------|--------|--------|---------------------|---------------------|
A|--------|--------|--------|--------|--------|--------|-2----2----2----2----|-2----2----2----2----|
E|--------|--------|--------|--------|--------|--------|---------------------|---------------------|
B|--------|--------|--------|--------|--------|--------|---------------------|---------------------|


G|---------------------|---------------------|---------------------|---------------------|
D|---------------------|---------------------|---------------------|---------------------|
A|-6----6----6----6----|-6----6----6----6----|-2----2----2----2----|-2----2----2----2----|
E|---------------------|---------------------|---------------------|---------------------|
B|---------------------|---------------------|---------------------|---------------------|


G|---------------------|---------------------|---------------------|---------------------|
D|---------------------|---------------------|---------------------|---------------------|
A|-6----6----6----6----|-6----6----6----6----|-2----2----2----2----|-4----4----4----4----|
E|---------------------|---------------------|---------------------|---------------------|
B|---------------------|---------------------|---------------------|---------------------|


G|---------------------|---------------------|---------------------|---------------------|
D|---------------------|---------------------|---------------------|---------------------|
A|-6----6----6----6----|-4----4----4----4----|-2----2----2----2----|-4----4----4----4----|
E|---------------------|---------------------|---------------------|---------------------|
B|---------------------|---------------------|---------------------|---------------------|


G|---------------------|---------------------|---------------------------------|---------------------------------|
D|---------------------|---------------------|---------------------------------|---------------------------------|
A|-6----6----6----6----|-4----4----4----4----|-2---2---2---2---2---2---2---2---|-4---4---4---4---4---4---4---4---|
E|---------------------|---------------------|---------------------------------|---------------------------------|
B|---------------------|---------------------|---------------------------------|---------------------------------|


G|---------------------------------|---------------------------------|---------------------|
D|---------------------------------|---------------------------------|---------------------|
A|-6---6---6---6---6---6---6---6---|-4---4---4---4---4---4---4---4---|-2----2----2----2----|
E|---------------------------------|---------------------------------|---------------------|
B|---------------------------------|---------------------------------|---------------------|


G|---------------------|---------------------------------|---------------------------------|
D|---------------------|---------------------------------|---------------------------------|
A|-4----4----4----4----|-6---6---6---6---6---6---6---6---|-4---4---4---4---4---4---4---4---|
E|---------------------|---------------------------------|---------------------------------|
B|---------------------|---------------------------------|---------------------------------|


G|---------------------------------|---------------------------------|---------------------------------|
D|---------------------------------|---------------------------------|---------------------------------|
A|---------------------------------|---------------------------------|---------------------------------|
E|---------------------------------|---------------------------------|---------------------------------|
B|-0---0---0---0---0---0---0---0---|-2---2---2---2---2---2---2---2---|-4---4---4---4---4---4---4---4---|


G|---------------------------------|---------------------------------|---------------------------------|
D|---------------------------------|---------------------------------|---------------------------------|
A|---------------------------------|---------------------------------|---------------------------------|
E|---------------------------------|---------------------------------|---------------------------------|
B|-4---4---4---4---4---2---2---0---|-0---0---0---0---0---0---0---0---|-2---2---2---2---2---2---2---2---|


G|---------------------------------|---------------------------------|---------------------------------|
D|---------------------------------|---------------------------------|---------------------------------|
A|---------------------------------|---------------------------------|---------------------------------|
E|---------------------------------|---------------------------------|---------------------------------|
B|-4---4---4---4---4---4---4---4---|-4---4---4---4---4---2---2---0---|-0---0---0---0---0---0---0---0---|


G|---------------------------------|---------------------------------|---------------------------------|
D|---------------------------------|---------------------------------|---------------------------------|
A|---------------------------------|---------------------------------|---------------------------------|
E|---------------------------------|---------------------------------|---------------------------------|
B|-2---2---2---2---2---2---2---2---|-4---4---4---4---4---4---4---4---|-4---4---4---4---4---2---2---0---|


G|---------------------------------|---------------------------------|---------------------------------|
D|---------------------------------|---------------------------------|---------------------------------|
A|---------------------------------|---------------------------------|---------------------------------|
E|---------------------------------|---------------------------------|---------------------------------|
B|-0---0---0---0---0---0---0---0---|-2---2---2---2---2---2---2---2---|-4---4---4---4---4---4---4---4---|


G|---------------------------------|---------------------------------|---------------------------------|
D|---------------------------------|---------------------------------|---------------------------------|
A|---------------------------------|---------------------------------|---------------------------------|
E|---------------------------------|---------------------------------|---------------------------------|
B|-4---4---4---4---4---2---2---0---|-0---0---0---0---0---0---0---0---|-2---2---2---2---2---2---2---2---|


G|---------------------------------|---------------------------------|---------------------------------|
D|---------------------------------|---------------------------------|---------------------------------|
A|---------------------------------|---------------------------------|---------------------------------|
E|---------------------------------|---------------------------------|---------------------------------|
B|-4---4---4---4---4---4---4---4---|-4---4---4---4---4---2---2---0---|-0---0---0---0---0---0---0---0---|


G|---------------------------------|---------------------------------|---------------------------------|
D|---------------------------------|---------------------------------|---------------------------------|
A|---------------------------------|---------------------------------|---------------------------------|
E|---------------------------------|---------------------------------|---------------------------------|
B|-2---2---2---2---2---2---2---2---|-4---4---4---4---4---4---4---4---|-4---4---4---4---4---2---2---0---|


G|---------------------------------|---------------------------------|---------------------------------|
D|---------------------------------|---------------------------------|---------------------------------|
A|---------------------------------|---------------------------------|---------------------------------|
E|---------------------------------|---------------------------------|---------------------------------|
B|-0---0---0---0---0---0---0---0---|-2---2---2---2---2---2---2---2---|-4---4---4---4---4---4---4---4---|


G|---------------------------------|---------------------------------|---------------------------------|
D|---------------------------------|---------------------------------|---------------------------------|
A|---------------------------------|---------------------------------|---------------------------------|
E|---------------------------------|---------------------------------|---------------------------------|
B|-4---4---4---4---4---2---2---0---|-0---0---0---0---0---0---0---0---|-2---2---2---2---2---2---2---2---|


G|---------------------------------|---------------------------------|
D|---------------------------------|---------------------------------|
A|---------------------------------|---------------------------------|
E|---------------------------------|---------------------------------|
B|-4---4---4---4---4---4---4---4---|-4---4---4---4---4---2---2---0---|