Menu:

 

Search:

 

kings of leon - razz:

 



Title: Razz
Artist: 
Album: Aha Shake Heartbreak
Author: Caleb Followill, Nathan Followill, Jared Followill, Matthew Followill


Track 1: Elec. w/overdrive

E|--------|--------|--------|--------|--------------------------0---|------------------------------|
B|--------|--------|--------|--------|--------------------------0---|------------------------------|
G|--------|--------|--------|--------|------------------------------|------------------------------|
D|--------|--------|--------|--------|------------------------------|------------------------------|
A|--------|--------|--------|--------|------------------------------|--------------------------0---|
E|--------|--------|--------|--------|-12-------0---3---0---5-------|------12--0---3---0---5---0---|


E|--------------------------0---|------------------------------|--------|--------|
B|--------------------------0---|------------------------------|--------|--------|
G|------------------------------|------------------------------|--------|--------|
D|------------------------------|------------------------------|--------|--------|
A|------------------------------|--------------------------0---|--------|--------|
E|------12--0---3---0---5-------|------12--0---3---0---5---0---|--------|--------|


E|--------|--------|--------|--------|--------|--------|---------------------|-------------|
B|--------|--------|--------|--------|--------|--------|---------------------|-------------|
G|--------|--------|--------|--------|--------|--------|---------------------|-------------|
D|--------|--------|--------|--------|--------|--------|-4-------------------|-4-----------|
A|--------|--------|--------|--------|--------|--------|-4-------------------|-4-----------|
E|--------|--------|--------|--------|--------|--------|-2--------------0----|-2-----------|


E|---------------------|-------------|--------------------------0---|------------------------------|
B|---------------------|-------------|--------------------------0---|------------------------------|
G|---------------------|-6-----------|------------------------------|------------------------------|
D|-4-------------------|-7-----------|------------------------------|------------------------------|
A|-4-------------------|-7-----------|------------------------------|--------------------------0---|
E|-2--------------0----|-5------0----|-12-------0---3---0---5-------|------12--0---3---0---5---0---|


E|--------------------------0---|------------------------------|--------------------------0---|
B|--------------------------0---|------------------------------|--------------------------0---|
G|------------------------------|------------------------------|------------------------------|
D|------------------------------|------------------------------|------------------------------|
A|------------------------------|--------------------------0---|------------------------------|
E|------12--0---3---0---5-------|------12--0---3---0---5---0---|------12--0---3---0---5-------|


E|------------------------------|--------------------------0---|------------------------------|
B|------------------------------|--------------------------0---|------------------------------|
G|------------------------------|------------------------------|------------------------------|
D|------------------------------|------------------------------|------------------------------|
A|--------------------------0---|------------------------------|--------------------------0---|
E|------12--0---3---0---5---0---|------12--0---3---0---5-------|------12--0---3---0---5---0---|


E|--------------------------0---|------------------------------|--------------------------0---|
B|--------------------------0---|------------------------------|--------------------------0---|
G|------------------------------|------------------------------|------------------------------|
D|------------------------------|------------------------------|------------------------------|
A|------------------------------|--------------------------0---|------------------------------|
E|------12--0---3---0---5-------|------12--0---3---0---5---0---|------12--0---3---0---5-------|


E|------------------------------|---------------------|-------------|---------------------|
B|------------------------------|---------------------|-------------|---------------------|
G|------------------------------|---------------------|-------------|---------------------|
D|------------------------------|-4-------------------|-4-----------|-4-------------------|
A|--------------------------0---|-4-------------------|-4-----------|-4-------------------|
E|------12--0---3---0---5---0---|-2--------------0----|-2-----------|-2--------------0----|


E|--------|---------------------|-------------|---------------------|--------|--------|
B|--------|---------------------|-------------|---------------------|--------|--------|
G|-6------|---------------------|-------------|---------------------|-6------|--------|
D|-7------|-4-------------------|-4-----------|-4-------------------|-7------|--------|
A|-7------|-4-------------------|-4-----------|-4-------------------|-7------|--------|
E|-5------|-2--------------0----|-2-----------|-2--------------0----|-5------|--------|


E|--------|--------|--------|--------------------------2---|------------------------------|
B|--------|--------|--------|--------------------------2---|------------------------------|
G|--------|--------|--------|------------------------------|------------------------------|
D|--------|--------|--------|------------------------------|------------------------------|
A|--------|--------|--------|-9--------0---2---0---4-------|------9---0---2---0---4---0---|
E|--------|--------|--------|------------------------------|--------------------------0---|


E|---------------------------|----------------------0----|-2---2--2--2---2---2---2--2--2---2--2--|
B|---------------------------|----------------------0----|-2---2--2--2---2---2---2--2--2---2--2--|
G|---------------------------|-----6--------2---4--------|---------------------------------------|
D|---------------------------|-7-------7-----------------|---------------------------------------|
A|------9---0---2---0---4----|---------------------------|---------------------------------------|
E|---------------------------|---------------------------|---------------------------------------|


E|-5---5--5--5---7---7---7--7--7---0---|-14--14-14-14--14--14-14-14--14-14-0--0--|
B|-5---5--5--5---7---7---7--7--7---0---|-17--17-17-17--17--17-17-17--17-17-0--0--|
G|-------------------------------------|-----------------------------------------|
D|-------------------------------------|-----------------------------------------|
A|-------------------------------------|-----------------------------------------|
E|-------------------------------------|-----------------------------------------|


E|-5---5--5--5---7---7--7--7---7---7--0--|-2---2--2--2---2---2---2--2--2---2--2--|
B|-8---8--8--8---10--10-10-10--10--10-0--|-2---2--2--2---2---2---2--2--2---2--2--|
G|---------------------------------------|---------------------------------------|
D|---------------------------------------|---------------------------------------|
A|---------------------------------------|---------------------------------------|
E|---------------------------------------|---------------------------------------|


E|-5---5--5--5---7---7---7---7---0---|-14--14-14-14--14--14-14-14--14--0--0--|-5---5--5--5---5--5--7----7--7---7---|
B|-5---5--5--5---7---7---7---7---0---|-17--17-17-17--17--17-17-17--17--0--0--|-8---8--8--8---8--8--10---10-10--10--|
G|-----------------------------------|---------------------------------------|-------------------------------------|
D|-----------------------------------|---------------------------------------|-------------------------------------|
A|-----------------------------------|---------------------------------------|-------------------------------------|
E|-----------------------------------|---------------------------------------|-------------------------------------|


E|--------|--------|--------|---------------------------------------|---------------------|
B|--------|--------|--------|---------------------------------------|---------------------|
G|--------|--------|--------|-6---6---6---6----8---8---8---8---8----|---------------------|
D|--------|--------|--------|-7---7---7---7----9---9---9---9---9----|-4-------------------|
A|--------|--------|--------|-7---7---7---7----9---9---9---9---9----|-4-------------------|
E|--------|--------|--------|-5---5---5---5----7---7---7---7---7----|-2--------------0----|


E|-------------|---------------------|--------|---------------------|-------------|
B|-------------|---------------------|--------|---------------------|-------------|
G|-------------|---------------------|-6------|---------------------|-------------|
D|-4-----------|-4-------------------|-7------|-4-------------------|-4-----------|
A|-4-----------|-4-------------------|-7------|-4-------------------|-4-----------|
E|-2-----------|-2--------------0----|-5------|-2--------------0----|-2-----------|


E|---------------------|-------------|--------------------------2---|------------------------------|
B|---------------------|-------------|--------------------------2---|------------------------------|
G|---------------------|-------------|------------------------------|------------------------------|
D|-4-------------------|-7-----------|------------------------------|------------------------------|
A|-4-------------------|-7-----------|-9--------0---2---0---4-------|------9---0---2---0---4---0---|
E|-2--------------0----|-5-----------|------------------------------|--------------------------0---|


E|---------------------------|----------------------2----|--------|--------|--------|
B|---------------------------|----------------------2----|--------|--------|--------|
G|---------------------------|-----6--------2---4--------|--------|--------|--------|
D|---------------------------|-7-------7-----------------|-4------|-4------|-4------|
A|------9---0---2---0---4----|---------------------------|-4------|-4------|-4------|
E|---------------------------|---------------------------|-2------|-2------|-2------|


E|--------|
B|--------|
G|--------|
D|-4------|
A|-4------|
E|-2------|





Track 2: Bass

G|---------------------------|---------------------------|---------------------------|
D|-----------7-------5---7---|-----------7-------5---7---|-----------7-------5---7---|
A|-7----7--------7-----------|-7----7--------7-----------|-7----7--------7-----------|
E|---------------------------|---------------------------|---------------------------|


G|---------------------------|---------------------------|---------------------------|
D|-----------7-------5---7---|-----------7-------5---7---|-----------7-------5---7---|
A|-7----7--------7-----------|-7----7--------7-----------|-7----7--------7-----------|
E|---------------------------|---------------------------|---------------------------|


G|---------------------------|---------------------------|---------------------------|
D|-----------7-------5---7---|-----------7-------5---7---|-----------7-------5---7---|
A|-7----7--------7-----------|-7----7--------7-----------|-7----7--------7-----------|
E|---------------------------|---------------------------|---------------------------|


G|---------------------------|---------------------------|---------------------------|
D|-----------7-------5---7---|-----------7-------5---7---|-----------7-------5---7---|
A|-7----7--------7-----------|-7----7--------7-----------|-7----7--------7-----------|
E|---------------------------|---------------------------|---------------------------|


G|---------------------------|---------------------------|---------------------------|
D|-----------7-------5---7---|-----------7-------5---7---|-----------7-------5---7---|
A|-7----7--------7-----------|-7----7--------7-----------|-7----7--------7-----------|
E|---------------------------|---------------------------|---------------------------|


G|---------------------------|----------9---9-------9---11--|----------9---9-------9---11--|
D|-----------7-------5---7---|------11----------11----------|------11----------11----------|
A|-7----7--------7-----------|-9----------------------------|-9----------------------------|
E|---------------------------|------------------------------|------------------------------|


G|----------9---9-------9---11--|----------9---9-------14---|---------------------------|
D|------11----------11----------|------11----------11-------|-----------7-------5---7---|
A|-9----------------------------|-9-------------------------|-7----7--------7-----------|
E|------------------------------|---------------------------|---------------------------|


G|---------------------------|---------------------------|---------------------------|
D|-----------7-------5---7---|-----------7-------5---7---|-----------7-------5---7---|
A|-7----7--------7-----------|-7----7--------7-----------|-7----7--------7-----------|
E|---------------------------|---------------------------|---------------------------|


G|---------------------------|---------------------------|---------------------------|
D|-----------7-------5---7---|-----------7-------5---7---|-----------7-------5---7---|
A|-7----7--------7-----------|-7----7--------7-----------|-7----7--------7-----------|
E|---------------------------|---------------------------|---------------------------|


G|---------------------------|---------------------------|---------------------------|
D|-----------7-------5---7---|-----------7-------5---7---|-----------7-------5---7---|
A|-7----7--------7-----------|-7----7--------7-----------|-7----7--------7-----------|
E|---------------------------|---------------------------|---------------------------|


G|---------------------------|---------------------------|----------9---9-------9---11--|
D|-----------7-------5---7---|-----------7-------5---7---|------11----------11----------|
A|-7----7--------7-----------|-7----7--------7-----------|-9----------------------------|
E|---------------------------|---------------------------|------------------------------|


G|----------9---9-------9---11--|----------9---9-------9---11--|----------9---9-------9---11--|
D|------11----------11----------|------11----------11----------|------11----------11----------|
A|-9----------------------------|-9----------------------------|-9----------------------------|
E|------------------------------|------------------------------|------------------------------|


G|----------9---9-------9---11--|----------9---9-------9---11--|----------9---9-------9---11--|
D|------11----------11----------|------11----------11----------|------11----------11----------|
A|-9----------------------------|-9----------------------------|-9----------------------------|
E|------------------------------|------------------------------|------------------------------|


G|----------9---9-------14---|---------------------------------|---------------------------------|
D|------11----------11-------|---------------------------------|---------------------------------|
A|-9-------------------------|-9---9---9---9---9---9---9---9---|---------------------------------|
E|---------------------------|---------------------------------|-5---5---5---5---7---7---7---7---|


G|---------------------------------|---------------------------------|---------------------------------|
D|---------------------------------|---------------------------------|---------------------------------|
A|-9---9---9---9---9---9---9---9---|---------------------------------|-9---9---9---9---9---9---9---9---|
E|---------------------------------|-5---5---5---5---7---7---7---7---|---------------------------------|


G|---------------------------------|---------------------------------|---------------------------------|
D|---------------------------------|---------------------------------|---------------------------------|
A|---------------------------------|-9---9---9---9---9---9---9---9---|---------------------------------|
E|-5---5---5---5---7---7---7---7---|---------------------------------|-5---5---5---5---7---7---7---7---|


G|---------------------------------|---------------------------------|---------------------------------|
D|---------------------------------|---------------------------------|---------------------------------|
A|-9---9---9---9---9---9---9---9---|---------------------------------|-9---9---9---9---9---9---9---9---|
E|---------------------------------|-5---5---5---5---7---7---7---7---|---------------------------------|


G|---------------------------------|---------------------------------|---------------------------------|
D|---------------------------------|---------------------------------|---------------------------------|
A|---------------------------------|-9---9---9---9---9---9---9---9---|---------------------------------|
E|-5---5---5---5---7---7---7---7---|---------------------------------|-5---5---5---5---7---7---7---7---|


G|---------------------------------|---------------------------------|----------9---9-------9---11--|
D|---------------------------------|---------------------------------|------11----------11----------|
A|-9---9---9---9---9---9---9---9---|---------------------------------|-9----------------------------|
E|---------------------------------|-5---5---5---5---7---7---7---7---|------------------------------|


G|----------9---9-------9---11--|----------9---9-------9---11--|----------9---9-------14---|
D|------11----------11----------|------11----------11----------|------11----------11-------|
A|-9----------------------------|-9----------------------------|-9-------------------------|
E|------------------------------|------------------------------|---------------------------|


G|----------9---9-------9---11--|----------9---9-------9---11--|----------9---9-------9---11--|
D|------11----------11----------|------11----------11----------|------11----------11----------|
A|-9----------------------------|-9----------------------------|-9----------------------------|
E|------------------------------|------------------------------|------------------------------|


G|----------9---9-------14---|----------9---9-------9---11--|----------9---9-------9---11--|
D|------11----------11-------|------11----------11----------|------11----------11----------|
A|-9-------------------------|-9----------------------------|-9----------------------------|
E|---------------------------|------------------------------|------------------------------|


G|----------9---9-------9---11--|----------9---9-------14---|----------9---9-------9---11--|
D|------11----------11----------|------11----------11-------|------11----------11----------|
A|-9----------------------------|-9-------------------------|-9----------------------------|
E|------------------------------|---------------------------|------------------------------|


G|----------9---9-------9---11--|----------9---9-------9---11--|----------9---9-------9---11--|
D|------11----------11----------|------11----------11----------|------11----------11----------|
A|-9----------------------------|-9----------------------------|-9----------------------------|
E|------------------------------|------------------------------|------------------------------|


G|--------|--------|--------|--------|
D|--------|--------|--------|--------|
A|-9------|-9------|-9------|-9------|
E|--------|--------|--------|--------|