Menu:

 

Search:

 

kings of leon - king of the rodeo:

 



Title: King of the Rodeo
Artist: 
Album: Aha Shake Heartbreak
Author: Caleb Followill, Nathan Followill, Jared Followill, Matthew Followill


Track 1: Elec. w/overdrive

E|---------------------|---------------------|------------------------|---------------------|
B|---------------------|---------------------|------------------------|---------------------|
G|------6----6----6----|-6----6----6----6----|-6---4---6----6----6----|-6----6----6----6----|
D|---------------------|---------------------|------------------------|---------------------|
A|---------------------|---------------------|------------------------|---------------------|
E|---------------------|---------------------|------------------------|---------------------|


E|------------------------|---------------------|------------------------|------------------------|
B|------------------------|---------------------|------------------------|------------------------|
G|-6---6---6----6----6----|-6----6----6----6----|-6---4---6----6----6----|-6---4---6----6----6----|
D|------------------------|---------------------|------------------------|------------------------|
A|------------------------|---------------------|------------------------|------------------------|
E|------------------------|---------------------|------------------------|------------------------|


E|-------------|-------------|---------------------------|------------------------------|
B|-------------|-------------|---------------------------|------------------------------|
G|-6-----------|-------------|---------------------------|------------------------------|
D|-------------|-------------|---------------------------|------------------------------|
A|-------------|-------------|---------------------------|------------------------------|
E|-------------|-------------|------5--------0---2---0---|-2---5---5--------0---2---0---|


E|-5-----------|-------------|---------------------------|------------------------------|
B|-5-----------|-------------|---------------------------|------------------------------|
G|-------------|-------------|---------------------------|------------------------------|
D|-------------|-------------|---------------------------|------------------------------|
A|-------------|-------------|---------------------------|------------------------------|
E|-------------|-------------|------5--------0---2---0---|-2---5---5--------0---2---0---|


E|-5-----------|-------------|---------------------------|------------------------------|
B|-5-----------|-------------|---------------------------|------------------------------|
G|-------------|-------------|---------------------------|------------------------------|
D|-------------|-------------|---------------------------|------------------------------|
A|-------------|-------------|---------------------------|------------------------------|
E|-------------|-------------|------5--------0---2---0---|-2---5---5--------0---2---0---|


E|-5-----------|-------------|---------------------------|------------------------------|
B|-5-----------|-------------|---------------------------|------------------------------|
G|-------------|-------------|---------------------------|------------------------------|
D|-------------|-------------|---------------------------|------------------------------|
A|-------------|-------------|---------------------------|------------------------------|
E|-------------|-------------|------5--------0---2---0---|-2---5---5--------0---2---0---|


E|------------------------------|---------------------------------|---------------------------------|
B|------------------------------|---------------------------------|---------------------------------|
G|------------------------------|---------------------------------|---------------------------------|
D|------------------------------|---------------------------------|---------14--14--14--14--14--14--|
A|------------------------------|---------------------------------|---------12--12--12--12--12--12--|
E|-2----9---9---9---9---9---9---|-9---9---10--10--10--10--10--10--|-10--10--------------------------|


E|---------------------------------|---------------------------------|---------------------------------|
B|---------------------------------|---------------------------------|---------------------------------|
G|---------------------------------|---------------------------------|---------------------------------|
D|-14--14--14--14--14--14--14--14--|-14--14--------------------------|---------------------------------|
A|-12--12--12--12--12--12--12--12--|-12--12--------------------------|---------------------------------|
E|---------------------------------|---------9---9---9---9---9---9---|-9---9---10--10--10--10--10--10--|


E|---------------------------------|---------------------------------|------------------------|
B|---------------------------------|---------------------------------|------------------------|
G|---------------------------------|---------------------------------|---------6----6----6----|
D|---------14--14--14--14--14--14--|-14--14--14--14--14--14--14--14--|-14--14-----------------|
A|---------12--12--12--12--12--12--|-12--12--12--12--12--12--12--12--|-12--12-----------------|
E|-10--10--------------------------|---------------------------------|------------------------|


E|---------------------|------------------------|---------------------|------------------------------|
B|---------------------|------------------------|---------------------|------------------------------|
G|-6----6----6----6----|-6---4---6----6----6----|-6----6----6----6----|-6----6-----------------------|
D|---------------------|------------------------|---------------------|------------------------------|
A|---------------------|------------------------|---------------------|------------------------------|
E|---------------------|------------------------|---------------------|---------5--------0---2---0---|


E|------------------------------|------------------------------|------------------------------|
B|------------------------------|------------------------------|------------------------------|
G|------------------------------|------------------------------|------------------------------|
D|------------------------------|------------------------------|------------------------------|
A|------------------------------|------------------------------|------------------------------|
E|-2---5---5--------0---2---0---|-2---5---5--------0---2---0---|-2---5---5--------0---2---0---|


E|-5-------------------------|------------------------------|------------------------------|
B|-5-------------------------|------------------------------|------------------------------|
G|---------------------------|------------------------------|------------------------------|
D|---------------------------|------------------------------|------------------------------|
A|---------------------------|------------------------------|------------------------------|
E|------5--------0---2---0---|-2---5---5--------0---2---0---|-2---5---5--------0---2---0---|


E|------------------------------|-5-------------------------|------------------------------|
B|------------------------------|-5-------------------------|------------------------------|
G|------------------------------|---------------------------|------------------------------|
D|------------------------------|---------------------------|------------------------------|
A|------------------------------|---------------------------|------------------------------|
E|-2---5---5--------0---2---0---|------5--------0---2---0---|-2---5---5--------0---2---0---|


E|------------------------------|------------------------------|-5-------------------------|
B|------------------------------|------------------------------|-5-------------------------|
G|------------------------------|------------------------------|---------------------------|
D|------------------------------|------------------------------|---------------------------|
A|------------------------------|------------------------------|---------------------------|
E|-2---5---5--------0---2---0---|-2---5---5--------0---2---0---|------5--------0---2---0---|


E|------------------------------|------------------------------|------------------------------|
B|------------------------------|------------------------------|------------------------------|
G|------------------------------|------------------------------|------------------------------|
D|------------------------------|------------------------------|------------------------------|
A|------------------------------|------------------------------|------------------------------|
E|-2---5---5--------0---2---0---|-2---5---5--------0---2---0---|-2---5---5--------0---2---0---|


E|------------------------------|---------------------------------|---------------------------------|
B|------------------------------|---------------------------------|---------------------------------|
G|------------------------------|---------------------------------|---------------------------------|
D|------------------------------|---------------------------------|---------14--14--14--14--14--14--|
A|------------------------------|---------------------------------|---------12--12--12--12--12--12--|
E|-2----9---9---9---9---9---9---|-9---9---10--10--10--10--10--10--|-10--10--------------------------|


E|---------------------------------|---------------------------------|---------------------------------|
B|---------------------------------|---------------------------------|---------------------------------|
G|---------------------------------|---------------------------------|---------------------------------|
D|-14--14--14--14--14--14--14--14--|-14--14--------------------------|---------------------------------|
A|-12--12--12--12--12--12--12--12--|-12--12--------------------------|---------------------------------|
E|---------------------------------|---------9---9---9---9---9---9---|-9---9---10--10--10--10--10--10--|


E|---------------------------------|---------------------------------|------------------------------|
B|---------------------------------|---------------------------------|---------12--12--12--12--12---|
G|---------------------------------|---------------------------------|-----14--14--14--14--14--14---|
D|---------14--14--14--14--14--14--|-14--14--14--14--14--14--14--14--|-14--14-----------------------|
A|---------12--12--12--12--12--12--|-12--12--12--12--12--12--12--12--|-12--12-----------------------|
E|-10--10--------------------------|---------------------------------|------------------------------|


E|---------------------------|---------------------------|---------------------------|
B|-12--12--12--12--12---12---|-12---14--14--14--14--14---|-12--12--12--12--12--------|
G|-14--14--14--14--14---14---|-14---16--16--16--16--16---|-14--14--14--14--14---9----|
D|---------------------------|---------------------------|----------------------11---|
A|---------------------------|---------------------------|---------------------------|
E|---------------------------|---------------------------|---------------------------|


E|----------------------------------|-------------------------------------|-------------------------------------|
B|----------------------------------|-------------------------------------|-------------------------------------|
G|-9----2---2--2--2--2--2---2---2---|-2---2---4---4--4--4--4--4---4---4---|-4---4---6---6--6--6--6--6---6---6---|
D|-11---0---0--0--0--0--0---0---0---|-0---0---0---0--0--0--0--0---0---0---|-0---0---7---7--7--7--7--7---7---7---|
A|----------------------------------|-------------------------------------|-------------------------------------|
E|----------------------------------|-------------------------------------|-------------------------------------|


E|-----------------------------------------------|---------------------------------|
B|-----------------------------------------------|---------------------------------|
G|-6---9--9--9--9--9--9--9--9--9--9--9--9--9--9--|-9---9---------------------------|
D|-7---11-11-11-11-11-11-11-11-11-11-11-11-11-11-|-11--11--------------------------|
A|-----------------------------------------------|---------------------------------|
E|-----------------------------------------------|---------9---9---9---9---9---9---|


E|---------------------------------|---------------------------------|---------------------------------|
B|---------------------------------|---------------------------------|---------------------------------|
G|---------------------------------|---------------------------------|---------------------------------|
D|---------------------------------|---------14--14--14--14--14--14--|-14--14--14--14--14--14--14--14--|
A|---------------------------------|---------12--12--12--12--12--12--|-12--12--12--12--12--12--12--12--|
E|-9---9---10--10--10--10--10--10--|-10--10--------------------------|---------------------------------|


E|---------------------------------|---------------------------------|---------------------------------|
B|---------------------------------|---------------------------------|---------------------------------|
G|---------------------------------|---------------------------------|---------------------------------|
D|-14--14--------------------------|---------------------------------|---------14--14--14--14--14--14--|
A|-12--12--------------------------|---------------------------------|---------12--12--12--12--12--12--|
E|---------9---9---9---9---9---9---|-9---9---10--10--10--10--10--10--|-10--10--------------------------|


E|---------------------------------|---------------------------------|---------------------------------|
B|---------------------------------|---------------------------------|---------------------------------|
G|---------------------------------|---------------------------------|---------------------------------|
D|-14--14--14--14--14--14--14--14--|-14--14--------------------------|---------------------------------|
A|-12--12--12--12--12--12--12--12--|-12--12--------------------------|---------------------------------|
E|---------------------------------|---------9---9---9---9---9---9---|-9---9---10--10--10--10--10--10--|


E|---------------------------------|---------------------------------|---------------------------------|
B|---------------------------------|---------------------------------|---------------------------------|
G|---------------------------------|---------------------------------|---------------------------------|
D|---------14--14--14--14--14--14--|-14--14--14--14--14--14--14--14--|-14--14--------------------------|
A|---------12--12--12--12--12--12--|-12--12--12--12--12--12--12--12--|-12--12--------------------------|
E|-10--10--------------------------|---------------------------------|---------9---9---9---9---9---9---|


E|---------------------------------|---------------------------------|---------------------------------|
B|---------------------------------|---------------------------------|---------------------------------|
G|---------------------------------|---------------------------------|---------------------------------|
D|---------------------------------|---------14--14--14--14--14--14--|-14--14--14--14--14--14--14--14--|
A|---------------------------------|---------12--12--12--12--12--12--|-12--12--12--12--12--12--12--12--|
E|-9---9---10--10--10--10--10--10--|-10--10--------------------------|---------------------------------|


E|----------------|-------------|-------------|-------------|-------------|
B|----------------|-------------|-------------|-------------|-------------|
G|----------------|-------------|-------------|-------------|-------------|
D|-14--14--14-----|------14-----|------14-----|------14-----|------14-----|
A|-12--12--12-----|------12-----|------12-----|------12-----|------12-----|
E|----------------|-------------|-------------|-------------|-------------|





Track 2: Bass

G|------------------------------|---------------------------------|---------------------------------|
D|--------------11----------11--|-----------------11----------11--|---------------------------------|
A|-16---9---9-------9---9-------|-9---9---9---9-------9---9-------|-9---9---0---0---0---0---0---0---|
E|------------------------------|---------------------------------|---------------------------------|


G|---------------------------------|---------------------------------|---------------------------------|
D|---------------------------------|-----------------11----------11--|-----------------11----------11--|
A|-0---0---0---0---0---0---0---0---|-0---0---9---9-------9---9-------|-9---9---9---9-------9---9-------|
E|---------------------------------|---------------------------------|---------------------------------|


G|---------------------------------|---------------------------------|---------------------------------|
D|---------------------------------|---------------------------------|-----------------11----------11--|
A|-9---9---0---0---0---0---0---0---|-0---0---0---0---0---0---0---0---|-0---0---9---9-------9---9-------|
E|---------------------------------|---------------------------------|---------------------------------|


G|---------------------------------|---------------------------------|---------------------------------|
D|-----------------11----------11--|---------------------------------|---------------------------------|
A|-9---9---9---9-------9---9-------|-9---9---0---0---0---0---0---0---|-0---0---0---0---0---0---0---0---|
E|---------------------------------|---------------------------------|---------------------------------|


G|---------------------------------|---------------------------------|---------------------------------|
D|-----------------11----------11--|-----------------11----------11--|---------------------------------|
A|-0---0---9---9-------9---9-------|-9---9---9---9-------9---9-------|-9---9---0---0---0---0---0---0---|
E|---------------------------------|---------------------------------|---------------------------------|


G|---------------------------------|---------------------------------|---------------------------------|
D|---------------------------------|-----------------11----------11--|-----------------11----------11--|
A|-0---0---0---0---0---0---0---0---|-0---0---9---9-------9---9-------|-9---9---9---9-------9---9-------|
E|---------------------------------|---------------------------------|---------------------------------|


G|---------------------------------|---------------------------------|---------------------------------|
D|---------------------------------|---------------------------------|-----------------11----------11--|
A|-9---9---0---0---0---0---0---0---|-0---0---0---0---0---0---0---0---|-0---0---9---9-------9---9-------|
E|---------------------------------|---------------------------------|---------------------------------|


G|---------------------------------|---------------------------------|---------------------------------|
D|-----------------11----------11--|---------------------------------|---------------------------------|
A|-9---9---9---9-------9---9-------|-9---9---0---0---0---0---0---0---|-0---0---0---0---0---0---0---0---|
E|---------------------------------|---------------------------------|---------------------------------|


G|---------------------------------|---------------------------------|---------------------------------|
D|---------------------------------|---------------------------------|-----------------7---------------|
A|-0---0---4---4---4---4---4---4---|-4---4---5---5---5---5---5---5---|-5---5---------------------------|
E|---------------------------------|---------------------------------|---------5---5-------5---5---5---|


G|---------------------------------|---------------------------------|---------------------------------|
D|-7---------------7---------------|-7-------------------------------|---------------------------------|
A|---------------------------------|---------4---4---4---4---4---4---|-4---4---5---5---5---5---5---5---|
E|-----5---5---5-------5---5---5---|-----5---------------------------|---------------------------------|


G|---------------------------------|---------------------------------|---------------------------------|
D|-----------------7---------------|-7---------------7---------------|-7---------------11----------11--|
A|-5---5---------------------------|---------------------------------|---------9---9-------9---9-------|
E|---------5---5-------5---5---5---|-----5---5---5-------5---5---5---|-----5---------------------------|


G|---------------------------------|---------------------------------|---------------------------------|
D|-----------------11----------11--|---------------------------------|---------------------------------|
A|-9---9---9---9-------9---9-------|-9---9---0---0---0---0---0---0---|-0---0---0---0---0---0---0---0---|
E|---------------------------------|---------------------------------|---------------------------------|


G|---------------------------------|---------------------------------|---------------------------------|
D|-----------------11----------11--|-----------------11----------11--|---------------------------------|
A|-0---0---9---9-------9---9-------|-9---9---9---9-------9---9-------|-9---9---0---0---0---0---0---0---|
E|---------------------------------|---------------------------------|---------------------------------|


G|---------------------------------|---------------------------------|---------------------------------|
D|---------------------------------|-----------------11----------11--|-----------------11----------11--|
A|-0---0---0---0---0---0---0---0---|-0---0---9---9-------9---9-------|-9---9---9---9-------9---9-------|
E|---------------------------------|---------------------------------|---------------------------------|


G|---------------------------------|---------------------------------|---------------------------------|
D|---------------------------------|---------------------------------|-----------------11----------11--|
A|-9---9---0---0---0---0---0---0---|-0---0---0---0---0---0---0---0---|-0---0---9---9-------9---9-------|
E|---------------------------------|---------------------------------|---------------------------------|


G|---------------------------------|---------------------------------|---------------------------------|
D|-----------------11----------11--|---------------------------------|---------------------------------|
A|-9---9---9---9-------9---9-------|-9---9---0---0---0---0---0---0---|-0---0---0---0---0---0---0---0---|
E|---------------------------------|---------------------------------|---------------------------------|


G|---------------------------------|---------------------------------|---------------------------------|
D|-----------------11----------11--|-----------------11----------11--|---------------------------------|
A|-0---0---9---9-------9---9-------|-9---9---9---9-------9---9-------|-9---9---0---0---0---0---0---0---|
E|---------------------------------|---------------------------------|---------------------------------|


G|---------------------------------|---------------------------------|---------------------------------|
D|---------------------------------|---------------------------------|---------------------------------|
A|-0---0---0---0---0---0---0---0---|-0---0---4---4---4---4---4---4---|-4---4---5---5---5---5---5---5---|
E|---------------------------------|---------------------------------|---------------------------------|


G|---------------------------------|---------------------------------|---------------------------------|
D|-----------------7---------------|-7---------------7---------------|-7-------------------------------|
A|-5---5---------------------------|---------------------------------|---------4---4---4---4---4---4---|
E|---------5---5-------5---5---5---|-----5---5---5-------5---5---5---|-----5---------------------------|


G|---------------------------------|---------------------------------|---------------------------------|
D|---------------------------------|-----------------7---------------|-7---------------7---------------|
A|-4---4---5---5---5---5---5---5---|-5---5---------------------------|---------------------------------|
E|---------------------------------|---------5---5-------5---5---5---|-----5---5---5-------5---5---5---|


G|---------------------------------|---------------------------------|---------------------------------|
D|-7---------------11----------11--|-----------------11----------11--|---------------------------------|
A|---------9---9-------9---9-------|-9---9---9---9-------9---9-------|-9---9---0---0---0---0---0---0---|
E|-----5---------------------------|---------------------------------|---------------------------------|


G|---------------------------------|---------------------------------|---------------------------------|
D|---------------------------------|-----------------11----------11--|-----------------11----------11--|
A|-0---0---0---0---0---0---0---0---|-0---0---9---9-------9---9-------|-9---9---9---9-------9---9-------|
E|---------------------------------|---------------------------------|---------------------------------|


G|---------------------------------|---------------------------------|---------------------------------|
D|---------------------------------|---------------------------------|---------------------------------|
A|-9---9---0---0---0---0---0---0---|-0---0---0---0---0---0---0---0---|-0---0---4---4---4---4---4---4---|
E|---------------------------------|---------------------------------|---------------------------------|


G|---------------------------------|---------------------------------|---------------------------------|
D|---------------------------------|-----------------7---------------|-7---------------7---------------|
A|-4---4---5---5---5---5---5---5---|-5---5---------------------------|---------------------------------|
E|---------------------------------|---------5---5-------5---5---5---|-----5---5---5-------5---5---5---|


G|---------------------------------|---------------------------------|---------------------------------|
D|-7-------------------------------|---------------------------------|-----------------7---------------|
A|---------4---4---4---4---4---4---|-4---4---5---5---5---5---5---5---|-5---5---------------------------|
E|-----5---------------------------|---------------------------------|---------5---5-------5---5---5---|


G|---------------------------------|---------------------------------|---------------------------------|
D|-7---------------7---------------|-7-------------------------------|---------------------------------|
A|---------------------------------|---------4---4---4---4---4---4---|-4---4---5---5---5---5---5---5---|
E|-----5---5---5-------5---5---5---|-----5---------------------------|---------------------------------|


G|---------------------------------|---------------------------------|---------------------------------|
D|-----------------7---------------|-7---------------7---------------|-7-------------------------------|
A|-5---5---------------------------|---------------------------------|---------4---4---4---4---4---4---|
E|---------5---5-------5---5---5---|-----5---5---5-------5---5---5---|-----5---------------------------|


G|---------------------------------|---------------------------------|---------------------------------|
D|---------------------------------|-----------------7---------------|-7---------------7---------------|
A|-4---4---5---5---5---5---5---5---|-5---5---------------------------|---------------------------------|
E|---------------------------------|---------5---5-------5---5---5---|-----5---5---5-------5---5---5---|


G|----------------|-------------|-------------|-------------|-------------|
D|-7--------------|-------------|-------------|-------------|-------------|
A|----------------|-------------|-------------|-------------|-------------|
E|-----5---5------|------5------|------5------|------5------|------5------|