Menu:

 

Search:

 

kings of leon - day old blues:

 



Title: Day Old Blues
Artist: 
Album: Aha Shake Heartbreak
Author: Caleb Followill, Nathan Followill, Jared Followill, Matthew Followill


Track 1: Steel Acoustic

E|-----------0--0--0----0----0--|-0-------0------|-----------0--0--0---------0--|-0---0---0------|
B|-0----0----0--0--0----0----0--|-0-------0------|-0----0----0--0--0----0----0--|-0---0---0------|
G|-4----4----4--4--2----2----2--|-2-------1------|-4----4----4--4--2----2----2--|-2---1---1------|
D|-6----6----6--6--4----4----4--|-4-------2------|-6----6----6--6--4----4----4--|-4---2---2------|
A|-6----6----6--6--4----4----4--|-4---2---2------|-6----6----6--6--4----4----4--|-4---2---2------|
E|------------------------------|-----0---0------|------------------------------|-----0---0------|


E|-----------0--0--0----0----0--|-0-------0------|-----------0--0--0---------0--|-0---0---0------|
B|-0----0----0--0--0----0----0--|-0-------0------|-0----0----0--0--0----0----0--|-0---0---0------|
G|-2----2----2--2--4----4----4--|-4-------1------|-4----4----4--4--2----2----2--|-2---1---1------|
D|-4----4----4--4--6----6----6--|-6-------2------|-6----6----6--6--4----4----4--|-4---2---2------|
A|-4----4----4--4--6----6----6--|-6-------2------|-6----6----6--6--4----4----4--|-4---2---2------|
E|------------------------------|-----0---0------|------------------------------|-----0---0------|


E|-----------0--0--0----0----0--|-0-------0------|-----------0--0--0---------0--|-0---0---0------|
B|-0----0----0--0--0----0----0--|-0-------0------|-0----0----0--0--0----0----0--|-0---0---0------|
G|-4----4----4--4--2----2----2--|-2-------1------|-4----4----4--4--2----2----2--|-2---1---1------|
D|-6----6----6--6--4----4----4--|-4---2---2------|-6----6----6--6--4----4----4--|-4---2---2------|
A|-6----6----6--6--4----4----4--|-4---2---2------|-6----6----6--6--4----4----4--|-4---2---2------|
E|------------------------------|-----0---0------|------------------------------|-----0---0------|


E|-----------0--0--0----0----0--|-0--------------|-----------0--0--0------------|-0------|
B|-0----0----0--0--0----0----0--|-0--------------|-0----0----0--0--0----0----0--|-0------|
G|-2----2----2--2--4----4----4--|-4-------1------|-4----4----4--4--2----2----2--|-1------|
D|-4----4----4--4--6----6----6--|-6-------2------|-6----6----6--6--4----4----4--|-2------|
A|-4----4----4--4--6----6----6--|-6-------2------|-6----6----6--6--4----4----4--|-2------|
E|------------------------------|-----0---0------|------------------------------|-0------|


E|-----------0--0--0----0----0--|-0-------0------|----------------------0-------|-0-------0------|
B|-0----0----0--0--0----0----0--|-0-------0------|-0----0----0--0--0----0----0--|-0-------0------|
G|-4----4----4--4--2----2----2--|-2-------1------|-4----4----4--4--2----2----2--|-2-------1------|
D|-6----6----6--6--4----4----4--|-4-------2------|-6----6----6--6--4----4----4--|-4-------2------|
A|-6----6----6--6--4----4----4--|-4---2---2------|-6----6----6--6--4----4----4--|-4---2---2------|
E|------------------------------|-----0---0------|------------------------------|-----0---0------|


E|-----------0--0--0---------0--|-0---0---0------|-----------0--0--0----0----0--|---------0------|
B|-0----0----0--0--0----0----0--|-0---0---0------|------0----0--0--0----0----0--|---------0------|
G|-4----4----4--4--2----2----2--|-2---1---1------|-2----2----2--2--4----4----4--|-4-------1------|
D|-6----6----6--6--4----4----4--|-4---2---2------|-4----4----4--4--6----6----6--|-6-------2------|
A|-6----6----6--6--4----4----4--|-4---2---2------|-4----4----4--4--6----6----6--|-6-------2------|
E|------------------------------|-----0---0------|------------------------------|-----0---0------|


E|-----------0--0--0---------0--|-0---0---0------|--------|--------|--------|--------|
B|-0----0----0--0--0----0----0--|-0---0---0------|--------|--------|--------|--------|
G|-4----4----4--4--2----2----2--|-2---1---1------|--------|--------|--------|--------|
D|-6----6----6--6--4----4----4--|-4---2---2------|--------|--------|--------|--------|
A|-6----6----6--6--4----4----4--|-4---2---2------|--------|--------|--------|--------|
E|------------------------------|-----0---0------|--------|--------|--------|--------|


E|--------|--------|--------|--------|-----------0--0--0----0----0--|-0-------0------|
B|--------|--------|--------|--------|-0----0----0--0--0----0----0--|-0-------0------|
G|--------|--------|--------|--------|-4----4----4--4--2----2----2--|-2-------1------|
D|--------|--------|--------|--------|-6----6----6--6--4----4----4--|-4-------2------|
A|--------|--------|--------|--------|-6----6----6--6--4----4----4--|-4---2---2------|
E|--------|--------|--------|--------|------------------------------|-----0---0------|


E|-----------0--0--0----0-------|-0-------0------|-----------0--0--0---------0--|-----0---0------|
B|-0----0----0--0--0----0----0--|-0-------0------|-0----0----0--0--0----0----0--|-----0---0------|
G|-4----4----4--4--2----2----2--|-2-------1------|-4----4----4--4--2----2----2--|-2---1---1------|
D|-6----6----6--6--4----4----4--|-4-------2------|-6----6----6--6--4----4----4--|-4---2---2------|
A|-6----6----6--6--4----4----4--|-4---2---2------|-6----6----6--6--4----4----4--|-4---2---2------|
E|------------------------------|-----0---0------|------------------------------|-----0---0------|


E|-----------0----------0----0--|----------------|-----------0--0--0---------0--|----------------|
B|-0----0----0----------0----0--|----------------|-0----0----0--0--0----0----0--|----------------|
G|-2----2----2--2--4----4----4--|-4-------1------|-4----4----4--4--2----2----2--|-2---1---1------|
D|-4----4----4--4--6----6----6--|-6-------2------|-6----6----6--6--4----4----4--|-4---2---2------|
A|-4----4----4--4--6----6----6--|-6-------2------|-6----6----6--6--4----4----4--|-4---2---2------|
E|------------------------------|-----0---0------|------------------------------|-----0---0------|


E|--------|--------|--------|--------|--------|--------|--------|--------|--------|
B|--------|--------|--------|--------|--------|--------|--------|--------|--------|
G|--------|--------|--------|--------|--------|--------|--------|--------|--------|
D|--------|--------|--------|--------|--------|--------|--------|--------|--------|
A|--------|--------|--------|--------|--------|--------|--------|--------|--------|
E|--------|--------|--------|--------|--------|--------|--------|--------|--------|


E|--------|--------|--------|-----------0--0--0----0----0--|-0-------0------|--------|
B|--------|--------|--------|-0----0----0--0--0----0----0--|-0---0---0------|--------|
G|--------|--------|--------|-4----4----4--4--2----2----2--|-2---1---1------|--------|
D|--------|--------|--------|-6----6----6--6--4----4----4--|-4---2---2------|--------|
A|--------|--------|--------|-6----6----6--6--4----4----4--|-4---2---2------|--------|
E|--------|--------|--------|------------------------------|-----0---0------|--------|


E|--------|--------|--------|--------|--------|--------|--------|--------|--------|
B|--------|--------|--------|--------|--------|--------|--------|--------|--------|
G|--------|--------|--------|--------|--------|--------|--------|--------|--------|
D|--------|--------|--------|--------|--------|--------|--------|--------|--------|
A|--------|--------|--------|--------|--------|--------|--------|--------|--------|
E|--------|--------|--------|--------|--------|--------|--------|--------|--------|


E|--------|--------|
B|--------|--------|
G|--------|--------|
D|--------|--------|
A|--------|--------|
E|--------|--------|





Track 2: Elec. clean

E|--------|--------|--------|--------|--------|--------|--------|--------|--------|
B|--------|--------|--------|--------|--------|--------|--------|--------|--------|
G|--------|--------|--------|--------|--------|--------|--------|--------|--------|
D|--------|--------|--------|--------|--------|--------|--------|--------|--------|
A|--------|--------|--------|--------|--------|--------|--------|--------|--------|
E|--------|--------|--------|--------|--------|--------|--------|--------|--------|


E|--------|--------|--------|--------|--------|--------|--------|--------|--------|
B|--------|--------|--------|--------|--------|--------|--------|--------|--------|
G|--------|--------|--------|--------|--------|--------|--------|--------|--------|
D|--------|--------|--------|--------|--------|--------|--------|--------|--------|
A|--------|--------|--------|--------|--------|--------|--------|--------|--------|
E|--------|--------|--------|--------|--------|--------|--------|--------|--------|


E|--------|--------|--------|--------|--------|--------|--------|--------|------------------------------|
B|--------|--------|--------|--------|--------|--------|--------|--------|-12---12---12-12-10---10---10-|
G|--------|--------|--------|--------|--------|--------|--------|--------|-13---13---13-13-11---11---11-|
D|--------|--------|--------|--------|--------|--------|--------|--------|------------------------------|
A|--------|--------|--------|--------|--------|--------|--------|--------|------------------------------|
E|--------|--------|--------|--------|--------|--------|--------|--------|------------------------------|


E|----------------|------------------------------|----------------|------------------------------|
B|-10--9---9------|-12---12---12-12-10---10---10-|-10--9---9------|-12---12---12-12-10---10---10-|
G|-11--9---9------|-13---13---13-13-11---11---11-|-11--9---9------|-13---13---13-13-11---11---11-|
D|----------------|------------------------------|----------------|------------------------------|
A|----------------|------------------------------|----------------|------------------------------|
E|----------------|------------------------------|----------------|------------------------------|


E|--------------------|-12---12---9----9----9--|-9---7---7------|--------|--------|
B|-10--9---9----------|-12---12---10---10---10-|-10--9---9------|--------|--------|
G|-11--9---9----------|-13---13---11---11---11-|-11--9---9------|--------|--------|
D|--------------------|------------------------|----------------|--------|--------|
A|--------------------|------------------------|----------------|--------|--------|
E|--------------------|------------------------|----------------|--------|--------|


E|--------|--------|--------|--------|--------|--------|--------|--------|------------------------------|
B|--------|--------|--------|--------|--------|--------|--------|--------|-12---12---12-12-10---10---10-|
G|--------|--------|--------|--------|--------|--------|--------|--------|-13---13---13-13-11---11---11-|
D|--------|--------|--------|--------|--------|--------|--------|--------|------------------------------|
A|--------|--------|--------|--------|--------|--------|--------|--------|------------------------------|
E|--------|--------|--------|--------|--------|--------|--------|--------|------------------------------|


E|----------------|------------------------------|----------------|------------------------------|
B|-10--9---9------|-12---12---12-12-10---10---10-|-10--9---9------|-12---12---12-12------10---10-|
G|-11--9---9------|-13---13---13-13-11---11---11-|-11--9---9------|-13---13---13-13------11---11-|
D|----------------|------------------------------|----------------|------------------------------|
A|----------------|------------------------------|----------------|------------------------------|
E|----------------|------------------------------|----------------|------------------------------|


E|--------------------|-12---12---12-12---9----9--|-9---7---7----------|-0----0----0----0----|
B|-10--9---9----------|-12---12---12-12---10---10-|-10--9---9----------|-2----2----2----2----|
G|-11--9---9----------|-13---13---13-13---11---11-|-11--9---9----------|-2----2----2----2----|
D|--------------------|---------------------------|--------------------|-2----2----2----2----|
A|--------------------|---------------------------|--------------------|-0----0----0----0----|
E|--------------------|---------------------------|--------------------|---------------------|


E|-0----0----0----0----|-0---0---0---0---0---0---0---0---|-0---0---0---0---0---0---0---0---|
B|-4----4----4----4----|-2---2---2---2---2---2---2---2---|-4---4---4---4---4---4---4---4---|
G|-4----4----4----4----|-2---2---2---2---2---2---2---2---|-4---4---4---4---4---4---4---4---|
D|-4----4----4----4----|-2---2---2---2---2---2---2---2---|-4---4---4---4---4---4---4---4---|
A|-0----0----0----0----|-0---0---0---0---0---0---0---0---|-0---0---0---0---0---0---0---0---|
E|---------------------|---------------------------------|---------------------------------|


E|--------|--------|---------------------------|----------------|---------------------------|
B|--------|--------|-12---12---12-12---10---10-|-10--9---9------|-12---12---12-12---10---10-|
G|--------|--------|-13---13---13-13---11---11-|-11--9---9------|-13---13---13-13---11---11-|
D|--------|--------|---------------------------|----------------|---------------------------|
A|--------|--------|---------------------------|----------------|---------------------------|
E|--------|--------|---------------------------|----------------|---------------------------|


E|----------------|---------------------------|----------------|------------------------------|
B|-10--9---9------|-12---12---12-12---10---10-|-10--9---9------|-10-12---12---12-12---10---10-|
G|-11--9---9------|-13---13---13-13---11---11-|-11--9---9------|-11-13---13---13-13---11---11-|
D|----------------|---------------------------|----------------|------------------------------|
A|----------------|---------------------------|----------------|------------------------------|
E|----------------|---------------------------|----------------|------------------------------|


E|----------------|-12---12---12-12---9----9--|-9---7---7------|-12---12---12-12---9----9--|
B|-10--9---9------|-12---12---12-12---10---10-|-10--9---9------|-12---12---12-12---10---10-|
G|-11--9---9------|-13---13---13-13---11---11-|-11--9---9------|-13---13---13-13---11---11-|
D|----------------|---------------------------|----------------|---------------------------|
A|----------------|---------------------------|----------------|---------------------------|
E|----------------|---------------------------|----------------|---------------------------|


E|-9---7---7------|
B|-10--9---9------|
G|-11--9---9------|
D|----------------|
A|----------------|
E|----------------|





Track 3: Elec. clean

E|--------|--------|--------|--------|--------|--------|--------|--------|--------|
B|--------|--------|--------|--------|--------|--------|--------|--------|--------|
G|--------|--------|--------|--------|--------|--------|--------|--------|--------|
D|--------|--------|--------|--------|--------|--------|--------|--------|--------|
A|--------|--------|--------|--------|--------|--------|--------|--------|--------|
E|--------|--------|--------|--------|--------|--------|--------|--------|--------|


E|--------|--------|--------|--------|--------|--------|--------|--------|--------|
B|--------|--------|--------|--------|--------|--------|--------|--------|--------|
G|--------|--------|--------|--------|--------|--------|--------|--------|--------|
D|--------|--------|--------|--------|--------|--------|--------|--------|--------|
A|--------|--------|--------|--------|--------|--------|--------|--------|--------|
E|--------|--------|--------|--------|--------|--------|--------|--------|--------|


E|--------|--------|--------|--------|--------|--------|--------|--------|-----------0--0--0----0----0--|
B|--------|--------|--------|--------|--------|--------|--------|--------|-0----0----0--0--0----0----0--|
G|--------|--------|--------|--------|--------|--------|--------|--------|-4----4----4--4--2----2----2--|
D|--------|--------|--------|--------|--------|--------|--------|--------|-6----6----6--6--4----4----4--|
A|--------|--------|--------|--------|--------|--------|--------|--------|-6----6----6--6--4----4----4--|
E|--------|--------|--------|--------|--------|--------|--------|--------|------------------------------|


E|-0-------0------|-----------0--0--0----0----0--|-0-------0------|-----------0--0--0----0----0--|
B|-0-------0------|-0----0----0--0--0----0----0--|-0-------0------|-0----0----0--0--0----0----0--|
G|-2-------1------|-4----4----4--4--2----2----2--|-2-------1------|-4----4----4--4--2----2----2--|
D|-4-------2------|-6----6----6--6--4----4----4--|-4-------2------|-6----6----6--6--4----4----4--|
A|-4---2---2------|-6----6----6--6--4----4----4--|-4---2---2------|-6----6----6--6--4----4----4--|
E|-----0---0------|------------------------------|-----0---0------|------------------------------|


E|-0-------0------|-----------0--0--0---------0--|-0---0---0------|--------|--------|
B|-0-------0------|-0----0----0--0--0----0----0--|-0---0---0------|--------|--------|
G|-2-------1------|-4----4----4--4--2----2----2--|-2---1---1------|--------|--------|
D|-4-------2------|-6----6----6--6--4----4----4--|-4---2---2------|--------|--------|
A|-4---2---2------|-6----6----6--6--4----4----4--|-4---2---2------|--------|--------|
E|-----0---0------|------------------------------|-----0---0------|--------|--------|


E|--------|--------|--------|--------|--------|--------|--------|--------|-----------0--0--0----0----0--|
B|--------|--------|--------|--------|--------|--------|--------|--------|-0----0----0--0--0----0----0--|
G|--------|--------|--------|--------|--------|--------|--------|--------|-4----4----4--4--2----2----2--|
D|--------|--------|--------|--------|--------|--------|--------|--------|-6----6----6--6--4----4----4--|
A|--------|--------|--------|--------|--------|--------|--------|--------|-6----6----6--6--4----4----4--|
E|--------|--------|--------|--------|--------|--------|--------|--------|------------------------------|


E|-0-------0------|-----------0--0--0----0----0--|-0-------0------|-----------0--0--0----0----0--|
B|-0-------0------|-0----0----0--0--0----0----0--|-0-------0------|-0----0----0--0--0----0----0--|
G|-2-------1------|-4----4----4--4--2----2----2--|-2-------1------|-4----4----4--4--2----2----2--|
D|-4-------2------|-6----6----6--6--4----4----4--|-4-------2------|-6----6----6--6--4----4----4--|
A|-4---2---2------|-6----6----6--6--4----4----4--|-4---2---2------|-6----6----6--6--4----4----4--|
E|-----0---0------|------------------------------|-----0---0------|------------------------------|


E|-0-------0------|-----------0--0--0----0----0--|-0-------0------|-0----0-------0----0----|
B|-0-------0------|-0----0----0--0--0----0----0--|-0-------0------|-2----2-------2----2----|
G|-2-------1------|-4----4----4--4--2----2----2--|-2-------1------|-2----2---2---2----2----|
D|-4-------2------|-6----6----6--6--4----4----4--|-4-------2------|-2----2---2---2----2----|
A|-4---2---2------|-6----6----6--6--4----4----4--|-4---2---2------|-0----0---0---0----0----|
E|-----0---0------|------------------------------|-----0---0------|------------------------|


E|-0----0---0---0---0---0---0--0--|-0---0---0---0---0---0---0---0---|-0---0---0---0---0---0---0----|
B|-4----4---4---4---4---4---4--4--|-2---2---2---2---2---2---2---2---|-4---4---4---4---4---4---4----|
G|-4----4---4---4---4---4---4--4--|-2---2---2---2---2---2---2---2---|-4---4---4---4---4---4---4----|
D|-4----4---4---4---4---4---4--4--|-2---2---2---2---2---2---2---2---|-4---4---4---4---4---4---4----|
A|-0----0---0---0---0---0---------|-0---0---0---0---0---0---0---0---|-0---0---0---0---0---0---0----|
E|--------------------------------|---------------------------------|------------------------------|


E|--------|--------|-----------0--0--0----0----0--|-0-------0------|-----------0--0--0----0----0--|
B|--------|--------|-0----0----0--0--0----0----0--|-0-------0------|-0----0----0--0--0----0----0--|
G|--------|--------|-4----4----4--4--2----2----2--|-2-------1------|-4----4----4--4--2----2----2--|
D|--------|--------|-6----6----6--6--4----4----4--|-4-------2------|-6----6----6--6--4----4----4--|
A|--------|--------|-6----6----6--6--4----4----4--|-4---2---2------|-6----6----6--6--4----4----4--|
E|--------|--------|------------------------------|-----0---0------|------------------------------|


E|-0-------0------|-----------0--0--0----0----0--|-0-------0------|-----------0--0----0----0--|
B|-0-------0------|-0----0----0--0--0----0----0--|-0-------0------|-0----0----0--0----0----0--|
G|-2-------1------|-4----4----4--4--2----2----2--|-2-------1------|-4----4----4--4----2----2--|
D|-4-------2------|-6----6----6--6--4----4----4--|-4-------2------|-6----6----6--6----4----4--|
A|-4---2---2------|-6----6----6--6--4----4----4--|-4---2---2------|-6----6----6--6----4----4--|
E|-----0---0------|------------------------------|-----0---0------|---------------------------|


E|-0-------0------|-----------0--0--0----0----0--|-0-------0------|-----------0--0----0----0--|
B|-0-------0------|-0----0----0--0--0----0----0--|-0-------0------|-0----0----0--0----0----0--|
G|-2-------1------|-4----4----4--4--2----2----2--|-2-------1------|-4----4----4--4----2----2--|
D|-4-------2------|-6----6----6--6--4----4----4--|-4-------2------|-6----6----6--6----4----4--|
A|-4---2---2------|-6----6----6--6--4----4----4--|-4---2---2------|-6----6----6--6----4----4--|
E|-----0---0------|------------------------------|-----0---0------|---------------------------|


E|-0---0---0------|
B|-0---0---0------|
G|-2---1---1------|
D|-4---2---2------|
A|-4---2---2------|
E|-----0---0------|





Track 4: Bass

G|--------|--------|--------|--------|--------|--------|--------|--------|--------|
D|--------|--------|--------|--------|--------|--------|--------|--------|--------|
A|--------|--------|--------|--------|--------|--------|--------|--------|--------|
E|--------|--------|--------|--------|--------|--------|--------|--------|--------|


G|--------|--------|--------|--------|--------|--------|--------|--------|--------|
D|--------|--------|--------|--------|--------|--------|--------|--------|--------|
A|--------|--------|--------|--------|--------|--------|--------|--------|--------|
E|--------|--------|--------|--------|--------|--------|--------|--------|--------|


G|--------|--------|--------|--------|--------|--------|--------|--------|-------------------------------------------------|
D|--------|--------|--------|--------|--------|--------|--------|--------|-------------------------------------------------|
A|--------|--------|--------|--------|--------|--------|--------|--------|-5--7--7--7--5--7--7--7--5--7--7--7--5--7--7--7--|
E|--------|--------|--------|--------|--------|--------|--------|--------|-------------------------------------------------|


G|-------------------------------------------------|-------------------------------------------------|
D|-------------------------------------------------|-------------------------------------------------|
A|-5--7--7--7--5--7--7--7--5--7--7--7--5--7--7--7--|-5--7--7--7--5--7--7--7--5--7--7--7--5--7--7--7--|
E|-------------------------------------------------|-------------------------------------------------|


G|-------------------------------------------------|-------------------------------------------------|
D|-------------------------------------------------|-------------------------------------------------|
A|-5--7--7--7--5--7--7--7--5--7--7--7--5--7--7--7--|-5--7--7--7--5--7--7--7--5--7--7--7--5--7--7--7--|
E|-------------------------------------------------|-------------------------------------------------|


G|-------------------------------------------------|-------------------------------------------------|
D|-------------------------------------------------|-------------------------------------------------|
A|-5--7--7--7--5--7--7--7--5--7--7--7--5--7--7--7--|-5--7--7--7--5--7--7--7--5--7--7--7--5--7--7--7--|
E|-------------------------------------------------|-------------------------------------------------|


G|----------------|--------|--------|--------|--------|--------|--------|--------|
D|----------------|--------|--------|--------|--------|--------|--------|--------|
A|-7--------------|--------|--------|--------|--------|--------|--------|--------|
E|----------------|--------|--------|--------|--------|--------|--------|--------|


G|--------|--------|--------|-------------------------------------------------|-------------------------------------------------|
D|--------|--------|--------|-------------------------------------------------|-------------------------------------------------|
A|--------|--------|--------|-5--7--7--7--5--7--7--7--5--7--7--7--5--7--7--7--|-5--7--7--7--5--7--7--7--5--7--7--7--5--7--7--7--|
E|--------|--------|--------|-------------------------------------------------|-------------------------------------------------|


G|-------------------------------------------------|-------------------------------------------------|
D|-------------------------------------------------|-------------------------------------------------|
A|-5--7--7--7--5--7--7--7--5--7--7--7--5--7--7--7--|-5--7--7--7--5--7--7--7--5--7--7--7--5--7--7--7--|
E|-------------------------------------------------|-------------------------------------------------|


G|-------------------------------------------------|-------------------------------------------------|
D|-------------------------------------------------|-------------------------------------------------|
A|-5--7--7--7--5--7--7--7--5--7--7--7--5--7--7--7--|-5--7--7--7--5--7--7--7--5--7--7--7--5--7--7--7--|
E|-------------------------------------------------|-------------------------------------------------|


G|-------------------------------------------------|-------------------------------------------------|
D|-------------------------------------------------|-------------------------------------------------|
A|-5--7--7--7--5--7--7--7--5--7--7--7--5--7--7--7--|-5--7--7--7--5--7--7--7--5--7--7--7--5--7--7--7--|
E|-------------------------------------------------|-------------------------------------------------|


G|-------------------------------------------------|-------------------------------------------------|
D|-------------------------------------------------|-------------------------------------------------|
A|-5--7--7--7--5--7--7--7--5--7--7--7--5--7--7--7--|-5--7--7--7--5--7--7--7--5--7--7--7--5--7--7--7--|
E|-------------------------------------------------|-------------------------------------------------|


G|-7--9--9--9--7--9--9--9--7--9--9--9--7--9--9--9--|-7--9--9--9--7--9--9--9--7--9--9--9--7--9--9---|
D|-------------------------------------------------|-----------------------------------------------|
A|-------------------------------------------------|-----------------------------------------------|
E|-------------------------------------------------|-----------------------------------------------|


G|-13-----|-13--------------------|-------------------------------------------------|
D|--------|-----------9---14------|-------------------------------------------------|
A|--------|-------11--------------|-5--7--7--7--5--7--7--7--5--7--7--7--5--7--7--7--|
E|--------|-------------------0---|-------------------------------------------------|


G|-------------------------------------------------|-------------------------------------------------|
D|-------------------------------------------------|-------------------------------------------------|
A|-5--7--7--7--5--7--7--7--5--7--7--7--5--7--7--7--|-5--7--7--7--5--7--7--7--5--7--7--7--5--7--7--7--|
E|-------------------------------------------------|-------------------------------------------------|


G|-------------------------------------------------|-------------------------------------------------|
D|-------------------------------------------------|-------------------------------------------------|
A|-5--7--7--7--5--7--7--7--5--7--7--7--5--7--7--7--|-5--7--7--7--5--7--7--7--5--7--7--7--5--7--7--7--|
E|-------------------------------------------------|-------------------------------------------------|


G|-------------------------------------------------|-------------------------------------------------|
D|-------------------------------------------------|-------------------------------------------------|
A|-5--7--7--7--5--7--7--7--5--7--7--7--5--7--7--7--|-5--7--7--7--5--7--7--7--5--7--7--7--5--7--7--7--|
E|-------------------------------------------------|-------------------------------------------------|


G|-------------------------------------------------|-------------------------------------------------|
D|-------------------------------------------------|-------------------------------------------------|
A|-5--7--7--7--5--7--7--7--5--7--7--7--5--7--7--7--|-5--7--7--7--5--7--7--7--5--7--7--7--5--7--7--7--|
E|-------------------------------------------------|-------------------------------------------------|


G|-------------------------------------------------|-------------------------------------------------|
D|-------------------------------------------------|-------------------------------------------------|
A|-5--7--7--7--5--7--7--7--5--7--7--7--5--7--7--7--|-5--7--7--7--5--7--7--7--5--7--7--7--5--7--7--7--|
E|-------------------------------------------------|-------------------------------------------------|


G|------------------|
D|------------------|
A|-5-----7---7------|
E|------------------|