Menu:

 

Search:

 

kim larsen - baggaardskatten the cat from the backyard:

 



Title: Baggaardskatten(The Cat From The Backyard)
Artist: 
Album: 
Author: 


Track 1: Guitar

E|--------|-----------2---------|-----------2---------|---------------------|---------------------|
B|--------|----------------3----|----------------3----|-----------4---------|-----------4---------|
G|--------|------2--------------|------2--------------|----------------4----|----------------4----|
D|--------|-0-------------------|-0-------------------|------4--------------|------4--------------|
A|--------|---------------------|---------------------|-2-------------------|-2-------------------|
E|--------|---------------------|---------------------|---------------------|---------------------|


E|---------------------|---------------------|---------------------|---------------------|
B|-----------4---------|-----------4---------|-----------0---------|-----------0---------|
G|----------------4----|----------------4----|----------------0----|----------------0----|
D|------4--------------|------4--------------|------0--------------|------0--------------|
A|-2-------------------|-2-------------------|---------------------|---------------------|
E|---------------------|---------------------|-3-------------------|-3-------------------|


E|---------------------|---------------------|---------------------|---------------------|
B|-----------2---------|-----------2---------|-----------2---------|-----------2---------|
G|----------------2----|----------------2----|----------------2----|----------------2----|
D|------2--------------|------2--------------|------2--------------|------2--------------|
A|-0-------------------|-0-------------------|-0-------------------|-0-------------------|
E|---------------------|---------------------|---------------------|---------------------|


E|---------------------|---------------------|-----------2---------|-----------2---------|
B|-----------2---------|-----------2---------|----------------3----|----------------3----|
G|----------------2----|----------------2----|------2--------------|------2--------------|
D|------2--------------|------2--------------|-0-------------------|-0-------------------|
A|-0-------------------|-0-------------------|---------------------|---------------------|
E|---------------------|---------------------|---------------------|---------------------|


E|-----------2---------|-----------2---------|---------------------|---------------------|
B|----------------3----|----------------3----|-----------4---------|-----------4---------|
G|------2--------------|------2--------------|----------------4----|----------------4----|
D|-0-------------------|-0-------------------|------4--------------|------4--------------|
A|---------------------|---------------------|-2-------------------|-2-------------------|
E|---------------------|---------------------|---------------------|---------------------|


E|---------------------|---------------------|---------------------|---------------------|
B|-----------4---------|-----------4---------|-----------0---------|-----------0---------|
G|----------------4----|----------------4----|----------------0----|----------------0----|
D|------4--------------|------4--------------|------0--------------|------0--------------|
A|-2-------------------|-2-------------------|---------------------|---------------------|
E|---------------------|---------------------|-3-------------------|-3-------------------|


E|---------------------|---------------------|---------------------|---------------------|
B|-----------6---------|-----------6---------|-----------6---------|-----------6---------|
G|----------------6----|----------------6----|----------------6----|----------------6----|
D|------6--------------|------6--------------|------6--------------|------6--------------|
A|-4-------------------|-4-------------------|-4-------------------|-4-------------------|
E|---------------------|---------------------|---------------------|---------------------|


E|---------------------|---------------------|---------------------|---------------------|
B|-----------2---------|-----------2---------|-----------2---------|-----------2---------|
G|----------------2----|----------------2----|----------------0----|----------------2----|
D|------2--------------|------2--------------|------2--------------|------4--------------|
A|-0-------------------|-0-------------------|-0-------------------|-0-------------------|
E|---------------------|---------------------|---------------------|---------------------|


E|---------------------|---------------------|---------------------|---------------------|
B|-----------0---------|-----------0---------|-----------3---------|-----------3---------|
G|----------------0----|----------------0----|----------------4----|----------------4----|
D|------0--------------|------0--------------|------4--------------|------4--------------|
A|---------------------|---------------------|-2-------------------|-2-------------------|
E|-3-------------------|-3-------------------|---------------------|---------------------|


E|---------------------|---------------------|---------------------|---------------------|
B|-----------2---------|-----------2---------|---------------------|-----------2---------|
G|----------------2----|----------------2----|-----------0---------|----------------2----|
D|------2--------------|------4--------------|------2---------4----|------4--------------|
A|-0-------------------|-0-------------------|-0-------------------|-0-------------------|
E|---------------------|---------------------|---------------------|---------------------|


E|---------------------|---------------------|---------------------|---------------------|
B|-----------0---------|-----------0---------|-----------3---------|-----------3---------|
G|----------------0----|----------------0----|----------------4----|----------------4----|
D|------0--------------|------0--------------|------4--------------|------4--------------|
A|---------------------|---------------------|-2-------------------|-2-------------------|
E|-3-------------------|-3-------------------|---------------------|---------------------|


E|---------------------|---------------------|-----------------|--------|-----------2---------|
B|-----------2---------|-----------2---------|-----------2-----|-2------|----------------3----|
G|----------------2----|----------------2----|-----------0-----|-0------|------2--------------|
D|------2--------------|------4--------------|------2----2-----|-2------|-0-------------------|
A|-0-------------------|-0-------------------|-0---------0-----|-0------|---------------------|
E|---------------------|---------------------|-----------------|--------|---------------------|


E|-----------2---------|---------------------|---------------------|---------------------|
B|----------------3----|-----------4---------|-----------4---------|-----------4---------|
G|------2--------------|----------------4----|----------------4----|----------------4----|
D|-0-------------------|------4--------------|------4--------------|------4--------------|
A|---------------------|-2-------------------|-2-------------------|-2-------------------|
E|---------------------|---------------------|---------------------|---------------------|


E|---------------------|---------------------|---------------------|---------------------|
B|-----------4---------|-----------0---------|-----------0---------|-----------2---------|
G|----------------4----|----------------0----|----------------0----|----------------2----|
D|------4--------------|------0--------------|------0--------------|------2--------------|
A|-2-------------------|---------------------|---------------------|-0-------------------|
E|---------------------|-3-------------------|-3-------------------|---------------------|


E|---------------------|---------------------|---------------------|---------------------|
B|-----------2---------|-----------2---------|-----------2---------|-----------2---------|
G|----------------2----|----------------2----|----------------2----|----------------2----|
D|------2--------------|------2--------------|------2--------------|------2--------------|
A|-0-------------------|-0-------------------|-0-------------------|-0-------------------|
E|---------------------|---------------------|---------------------|---------------------|


E|---------------------|-----------2---------|-----------2---------|-----------2---------|
B|-----------2---------|----------------3----|----------------3----|----------------3----|
G|----------------2----|------2--------------|------2--------------|------2--------------|
D|------2--------------|-0-------------------|-0-------------------|-0-------------------|
A|-0-------------------|---------------------|---------------------|---------------------|
E|---------------------|---------------------|---------------------|---------------------|


E|-----------2---------|---------------------|---------------------|---------------------|
B|----------------3----|-----------4---------|-----------4---------|-----------4---------|
G|------2--------------|----------------4----|----------------4----|----------------4----|
D|-0-------------------|------4--------------|------4--------------|------4--------------|
A|---------------------|-2-------------------|-2-------------------|-2-------------------|
E|---------------------|---------------------|---------------------|---------------------|


E|---------------------|---------------------|---------------------|---------------------|
B|-----------4---------|---------------------|---------------------|---------------------|
G|----------------4----|-----------0---------|-----------0---------|-----------3---------|
D|------4--------------|----------------2----|----------------2----|----------------4----|
A|-2-------------------|------2--------------|------2--------------|------4--------------|
E|---------------------|-0-------------------|-0-------------------|-2-------------------|


E|---------------------|---------------------|---------------------|---------------------|
B|---------------------|---------------------|---------------------|-----------3---------|
G|-----------3---------|-----------3---------|-----------3---------|----------------4----|
D|----------------4----|----------------4----|----------------4----|------4--------------|
A|------4--------------|------4--------------|------4--------------|-2-------------------|
E|-2-------------------|-2-------------------|-2-------------------|---------------------|


E|---------------------|-----------2---------|-----------2---------|---------------------|
B|-----------3---------|----------------3----|----------------3----|-----------0---------|
G|----------------4----|------2--------------|------2--------------|----------------0----|
D|------4--------------|-0-------------------|-0-------------------|------0--------------|
A|-2-------------------|---------------------|---------------------|---------------------|
E|---------------------|---------------------|---------------------|-3-------------------|


E|---------------------|---------------------|---------------------|---------------------|
B|-----------0---------|-----------3---------|-----------3---------|-----------0---------|
G|----------------0----|----------------4----|----------------4----|----------------0----|
D|------0--------------|------4--------------|------4--------------|------0--------------|
A|---------------------|-2-------------------|-2-------------------|---------------------|
E|-3-------------------|---------------------|---------------------|-3-------------------|


E|---------------------|---------------------|---------------------|-----------2---------|
B|-----------0---------|-----------3---------|-----------2---------|----------------3----|
G|----------------0----|----------------4----|----------------2----|------2--------------|
D|------0--------------|------4--------------|------2--------------|-0-------------------|
A|---------------------|-2-------------------|-0-------------------|---------------------|
E|-3-------------------|---------------------|---------------------|---------------------|


E|-----------2---------|---------------------|---------------------|---------------------|
B|----------------3----|-----------4---------|-----------4---------|---------------------|
G|------2--------------|----------------4----|----------------4----|-----------0---------|
D|-0-------------------|------4--------------|------4--------------|----------------0----|
A|---------------------|-2-------------------|-2-------------------|------2--------------|
E|---------------------|---------------------|---------------------|-0-------------------|


E|---------------------|---------------------|---------------------|---------------------|
B|---------------------|---------------------|---------------------|-----------6---------|
G|-----------0---------|-----------0---------|-----------0---------|----------------6----|
D|----------------0----|----------------0----|----------------0----|------6--------------|
A|------2--------------|------2--------------|------2--------------|-4-------------------|
E|-0-------------------|-0-------------------|-0-------------------|---------------------|


E|---------------------|---------------------|---------------------|---------------------|
B|-----------6---------|-----------6---------|-----------6---------|-----------2---------|
G|----------------6----|----------------6----|----------------6----|----------------2----|
D|------6--------------|------6--------------|------6--------------|------2--------------|
A|-4-------------------|-4-------------------|-4-------------------|-0-------------------|
E|---------------------|---------------------|---------------------|---------------------|


E|---------------------|---------------------|---------------------|---------------------|
B|-----------2---------|-----------2---------|-----------2---------|-----------0---------|
G|----------------2----|----------------0----|----------------2----|----------------0----|
D|------2--------------|------2--------------|------4--------------|------0--------------|
A|-0-------------------|-0-------------------|-0-------------------|---------------------|
E|---------------------|---------------------|---------------------|-3-------------------|


E|---------------------|---------------------|---------------------|---------------------|
B|-----------0---------|-----------3---------|-----------3---------|-----------2---------|
G|----------------0----|----------------4----|----------------4----|----------------2----|
D|------0--------------|------4--------------|------4--------------|------2--------------|
A|---------------------|-2-------------------|-2-------------------|-0-------------------|
E|-3-------------------|---------------------|---------------------|---------------------|


E|---------------------|---------------------|---------------------|---------------------|
B|-----------2---------|---------------------|-----------2---------|-----------0---------|
G|----------------2----|-----------0---------|----------------2----|----------------0----|
D|------4--------------|------2---------4----|------4--------------|------0--------------|
A|-0-------------------|-0-------------------|-0-------------------|---------------------|
E|---------------------|---------------------|---------------------|-3-------------------|


E|---------------------|---------------------|---------------------|---------------------|
B|-----------0---------|-----------3---------|-----------3---------|-----------2---------|
G|----------------0----|----------------4----|----------------4----|----------------2----|
D|------0--------------|------4--------------|------4--------------|------2--------------|
A|---------------------|-2-------------------|-2-------------------|-0-------------------|
E|-3-------------------|---------------------|---------------------|---------------------|


E|---------------------|---------------------|---------------------|---------------------|
B|-----------2---------|---------------------|-----------2---------|-----------0---------|
G|----------------2----|-----------0---------|---------------------|----------------0----|
D|------4--------------|------2---------4----|------2---------4----|------0--------------|
A|-0-------------------|-0-------------------|-0-------------------|---------------------|
E|---------------------|---------------------|---------------------|-3-------------------|


E|---------------------|---------------------|---------------------|---------------------|
B|-----------0---------|-----------3---------|-----------3---------|-----------3---------|
G|----------------0----|----------------4----|----------------4----|------0--------------|
D|------0--------------|------4--------------|------4--------------|----------------2----|
A|---------------------|-2-------------------|-2-------------------|-3-------------------|
E|-3-------------------|---------------------|---------------------|---------------------|


E|---------------------|---------------------|---------------------|-2------|-2------|
B|-----------3---------|-----------0---------|-----------0---------|-3------|-3------|
G|------0--------------|----------------0----|----------------0----|-2------|-2------|
D|----------------2----|------0--------------|------0--------------|-0------|-0------|
A|-3-------------------|---------------------|---------------------|--------|--------|
E|---------------------|-3-------------------|-3-------------------|--------|--------|





Track 2: Vocals

E|-----------------|---------------------|-----------------|---------------------|
B|-----------------|---------------------|-----------------|---------------------|
G|-----------------|-14---14---16---14---|-----------------|-14---14---16---14---|
D|-----------------|---------------------|-----------------|---------------------|
A|------------12---|---------------------|------------12---|---------------------|
E|-----------------|---------------------|-----------------|---------------------|


E|-----------------|--------|---------------------|-----------------|--------|-----------------|
B|-----------------|--------|---------------------|-----------------|--------|-----------------|
G|-14--------------|--------|-11---11---12---14---|-----------------|--------|-------11--------|
D|-----------------|--------|---------------------|-19---12---12----|--------|-14---------14---|
A|-----------------|--------|---------------------|-----------------|--------|-----------------|
E|-----------------|--------|---------------------|-----------------|--------|-----------------|


E|---------------------|---------------------|-----------------|-----------------|
B|---------------------|---------------------|-----------------|-----------------|
G|---------------------|-----------11--------|-----------------|-----------------|
D|-14---14---14--------|------14--------14---|-14--------------|------------14---|
A|----------------12---|-12------------------|-----------------|-----------------|
E|---------------------|---------------------|-----------------|-----------------|


E|-----------------|-----------------|--------|-----------------|-----------------|
B|-----------------|-----------------|--------|-------12--------|-----------------|
G|------------11---|-----------------|--------|-14---------14---|-14---14---------|
D|-14--------------|-----------------|--------|-----------------|-----------------|
A|-----------------|-21---12---12----|--------|-----------------|------------12---|
E|-----------------|-----------------|--------|-----------------|-----------------|


E|---------------------|-------------|--------|---------------------|-----------------|
B|---------------------|-------------|--------|---------------------|-----------------|
G|-14---14---16---14---|-14----------|--------|-11---11---12---14---|-----------------|
D|---------------------|-------------|--------|---------------------|-19---12---12----|
A|---------------------|-------------|--------|---------------------|-----------------|
E|---------------------|-------------|--------|---------------------|-----------------|


E|--------|-------------|-----------------|--------|--------------------|-------------|
B|--------|-------------|-----------------|-14-----|-14----12--14--12---|-------------|
G|--------|-------------|-----------------|--------|--------------------|-14----------|
D|--------|-15----------|-------11--------|--------|--------------------|-------------|
A|--------|-------------|-----------------|--------|--------------------|-------------|
E|--------|-------------|-----------------|--------|--------------------|-------------|


E|--------|--------|-----------------|---------------------|--------|---------------------|
B|--------|--------|------------14---|-14---15---15---15---|--------|-14---15---15--------|
G|--------|--------|-----------------|---------------------|--------|---------------------|
D|--------|--------|-----------------|---------------------|--------|---------------------|
A|--------|--------|-----------------|---------------------|--------|---------------------|
E|--------|--------|-----------------|---------------------|--------|---------------------|


E|---------------------|-------------|--------|--------|-----------------|---------------------|
B|---------------------|-------------|--------|--------|------------14---|-14---15---15--------|
G|------11---11---12---|-------------|--------|--------|-----------------|---------------------|
D|---------------------|-14----------|--------|--------|-----------------|---------------------|
A|---------------------|-------------|--------|--------|-----------------|---------------------|
E|---------------------|-------------|--------|--------|-----------------|---------------------|


E|-----------------|---------------------|---------------------|-------------|--------|
B|-----------------|-15------------------|---------------------|-------------|--------|
G|-----------------|-----------11---11---|-11---12---11--------|-------------|--------|
D|-----------------|------12-------------|----------------14---|-14----------|--------|
A|------------14---|---------------------|---------------------|-------------|--------|
E|-----------------|---------------------|---------------------|-------------|--------|


E|--------|-----------------|---------------------|-----------------|---------------------|
B|--------|-----------------|---------------------|-----------------|---------------------|
G|--------|-----------------|-14---14---16---14---|-----------------|-14---14---16---14---|
D|--------|-----------------|---------------------|-----------------|---------------------|
A|--------|-------12---12---|---------------------|------------12---|---------------------|
E|--------|-----------------|---------------------|-----------------|---------------------|


E|-----------------|--------|---------------------|-----------------|-----------------|
B|-----------------|--------|---------------------|-----------------|-----------------|
G|-14--------------|--------|-11---11---12---14---|-----------------|-----------------|
D|-----------------|--------|---------------------|-19---12---12----|-----------------|
A|-----------------|--------|---------------------|-----------------|------------12---|
E|-----------------|--------|---------------------|-----------------|-----------------|


E|---------------------|---------------------|---------------------|-----------------|
B|---------------------|---------------------|---------------------|-----------------|
G|-----------11--------|---------------------|-----------11--------|-----------------|
D|-14---14--------14---|-14---14---14--------|------14--------14---|-14--------------|
A|---------------------|----------------12---|---------------------|-----------------|
E|---------------------|---------------------|---------------------|-----------------|


E|--------|---------------------|-----------------|---------------------|---------------------|
B|--------|---------------------|-----------------|---------------------|-----------12--------|
G|--------|----------------11---|-----------------|---------------------|-14---14--------14---|
D|--------|-14---14---14--------|-----------------|---------------------|---------------------|
A|--------|---------------------|-21---12---12----|------12---12---12---|---------------------|
E|--------|---------------------|-----------------|---------------------|---------------------|


E|---------------------|---------------------|-------------|--------|---------------------|
B|---------------------|---------------------|-------------|--------|---------------------|
G|-14---14-------------|-14---14---16---14---|-14----------|--------|-11---11---12---14---|
D|---------------------|---------------------|-------------|--------|---------------------|
A|----------------12---|---------------------|-------------|--------|---------------------|
E|---------------------|---------------------|-------------|--------|---------------------|


E|-----------------|-----------------|-----------------|--------|--------|--------|
B|-----------------|-------14---15---|-14--------------|--------|--------|--------|
G|-14---16---12----|-----------------|-----------------|--------|--------|--------|
D|-----------------|-----------------|-----------------|--------|--------|--------|
A|-----------------|-----------------|-----------------|--------|--------|--------|
E|-----------------|-----------------|-----------------|--------|--------|--------|


E|--------|--------|--------|--------|-12---14-------------|--------|--------|--------|
B|--------|--------|--------|--------|-----------15--------|--------|--------|--------|
G|--------|--------|--------|--------|---------------------|--------|--------|--------|
D|--------|--------|--------|--------|---------------------|--------|--------|--------|
A|--------|--------|--------|--------|---------------------|--------|--------|--------|
E|--------|--------|--------|--------|---------------------|--------|--------|--------|


E|-12---14-------------|--------|--------|--------|--------|--------|--------|--------|
B|-----------15--------|--------|--------|--------|--------|--------|--------|--------|
G|---------------------|--------|--------|--------|--------|--------|--------|--------|
D|---------------------|--------|--------|--------|--------|--------|--------|--------|
A|---------------------|--------|--------|--------|--------|--------|--------|--------|
E|---------------------|--------|--------|--------|--------|--------|--------|--------|


E|--------|--------|--------|--------|--------|--------|--------|--------|--------|
B|--------|--------|--------|--------|--------|--------|--------|--------|--------|
G|--------|--------|--------|--------|--------|--------|--------|--------|--------|
D|--------|--------|--------|--------|--------|--------|--------|--------|--------|
A|--------|--------|--------|--------|--------|--------|--------|--------|--------|
E|--------|--------|--------|--------|--------|--------|--------|--------|--------|


E|--------|--------|-----------------|---------------------|--------|---------------------|
B|--------|--------|------------14---|-14---15---15---15---|--------|-14---15---15--------|
G|--------|--------|-----------------|---------------------|--------|---------------------|
D|--------|--------|-----------------|---------------------|--------|---------------------|
A|--------|--------|-----------------|---------------------|--------|---------------------|
E|--------|--------|-----------------|---------------------|--------|---------------------|


E|---------------------|-------------|--------|--------|-----------------|---------------------|
B|---------------------|-------------|--------|--------|------------14---|-14---15---15--------|
G|------11---11---12---|-------------|--------|--------|-----------------|---------------------|
D|---------------------|-14----------|--------|--------|-----------------|---------------------|
A|---------------------|-------------|--------|--------|-----------------|---------------------|
E|---------------------|-------------|--------|--------|-----------------|---------------------|


E|-----------------|---------------------|---------------------|-------------|--------|
B|-----------------|-15------------------|---------------------|-------------|--------|
G|-----------------|-----------11---11---|-11---12---11--------|-------------|--------|
D|-----------------|------12-------------|----------------14---|-14----------|--------|
A|------------14---|---------------------|---------------------|-------------|--------|
E|-----------------|---------------------|---------------------|-------------|--------|


E|--------|-----------------|---------------------|------------12---|-14------------------|
B|--------|-------14---14---|-14---15---15--------|-----------------|------15---15--------|
G|--------|-----------------|---------------------|-----------------|---------------------|
D|--------|-----------------|---------------------|-----------------|---------------------|
A|--------|-----------------|---------------------|-----------------|---------------------|
E|--------|-----------------|---------------------|-----------------|---------------------|


E|-----------------|-----------------|--------|--------|--------|--------|--------|
B|-----------------|-----------------|--------|--------|--------|--------|--------|
G|-----------------|-12--------------|--------|--------|--------|--------|--------|
D|-----------------|-----------------|--------|--------|--------|--------|--------|
A|------------14---|-----------------|--------|--------|--------|--------|--------|
E|-----------------|-----------------|--------|--------|--------|--------|--------|





Track 3: Keyboard

E|--------|--------|--------|--------|--------|--------|--------|--------|--------|
B|--------|--------|--------|--------|--------|--------|--------|--------|--------|
G|--------|--------|--------|--------|--------|--------|--------|--------|--------|
D|--------|--------|--------|--------|--------|--------|--------|--------|--------|
A|--------|--------|--------|--------|--------|--------|--------|--------|--------|
E|--------|--------|--------|--------|--------|--------|--------|--------|--------|


E|--------|--------|--------|--------|--------|--------|--------|--------|--------|
B|--------|--------|--------|--------|--------|--------|--------|--------|--------|
G|--------|--------|--------|--------|--------|--------|--------|--------|--------|
D|--------|--------|--------|--------|--------|--------|--------|--------|--------|
A|--------|--------|--------|--------|--------|--------|--------|--------|--------|
E|--------|--------|--------|--------|--------|--------|--------|--------|--------|


E|--------|--------|--------|--------|--------|--------|--------|--------|--------|
B|--------|--------|--------|--------|--------|--------|--------|--------|--------|
G|--------|--------|--------|--------|--------|--------|--------|--------|--------|
D|--------|--------|--------|--------|--------|--------|--------|--------|--------|
A|--------|--------|--------|--------|--------|--------|--------|--------|--------|
E|--------|--------|--------|--------|--------|--------|--------|--------|--------|


E|--------|--------|--------|--------|--------|--------|--------|--------|--------|
B|--------|--------|--------|--------|--------|--------|--------|--------|--------|
G|--------|--------|--------|--------|--------|--------|--------|--------|--------|
D|--------|--------|--------|--------|--------|--------|--------|--------|--------|
A|--------|--------|--------|--------|--------|--------|--------|--------|--------|
E|--------|--------|--------|--------|--------|--------|--------|--------|--------|


E|--------|--------|--------|--------|--------|--------|--------|--------|--------|
B|--------|--------|--------|--------|--------|--------|--------|--------|--------|
G|--------|--------|--------|--------|--------|--------|--------|--------|--------|
D|--------|--------|--------|--------|--------|--------|--------|--------|--------|
A|--------|--------|--------|--------|--------|--------|--------|--------|--------|
E|--------|--------|--------|--------|--------|--------|--------|--------|--------|


E|--------|--------|--------|--------|--------|--------|--------|--------|--------|
B|--------|--------|--------|--------|--------|--------|--------|--------|--------|
G|--------|--------|--------|--------|--------|--------|--------|--------|--------|
D|--------|--------|--------|--------|--------|--------|--------|--------|--------|
A|--------|--------|--------|--------|--------|--------|--------|--------|--------|
E|--------|--------|--------|--------|--------|--------|--------|--------|--------|


E|--------|--------|--------|--------|--------|--------|--------|--------|--------|
B|--------|--------|--------|--------|--------|--------|--------|--------|--------|
G|--------|--------|--------|--------|--------|--------|--------|--------|--------|
D|--------|--------|--------|--------|--------|--------|--------|--------|--------|
A|--------|--------|--------|--------|--------|--------|--------|--------|--------|
E|--------|--------|--------|--------|--------|--------|--------|--------|--------|


E|--------|--------|--------|--------|--------|--------|--------|--------|--------|
B|--------|--------|--------|--------|--------|--------|--------|--------|--------|
G|--------|--------|--------|--------|--------|--------|--------|--------|--------|
D|--------|--------|--------|--------|--------|--------|--------|--------|--------|
A|--------|--------|--------|--------|--------|--------|--------|--------|--------|
E|--------|--------|--------|--------|--------|--------|--------|--------|--------|


E|--------|--------|-------------|-14-----|-14----12----|--------|--------|-------------|
B|--------|-14-----|-14----------|--------|-------------|-15-----|-15-----|-15----------|
G|--------|--------|-------11----|--------|-------------|--------|--------|-------------|
D|--------|--------|-------------|--------|-------------|--------|--------|-------------|
A|--------|--------|-------------|--------|-------------|--------|--------|-------------|
E|--------|--------|-------------|--------|-------------|--------|--------|-------------|


E|--------|--------|-------------|-------------|--------|--------|-------------|-------------|
B|--------|--------|-------------|-------------|--------|--------|-------------|-------------|
G|--------|--------|-------------|------11-----|-11-----|--------|-------------|-11----12----|
D|--------|--------|-------12----|-12----------|--------|--------|-------12----|-------------|
A|--------|--------|-------------|-------------|--------|--------|-------------|-------------|
E|--------|--------|-------------|-------------|--------|--------|-------------|-------------|


E|--------|--------|--------|--------|-------------|--------|--------|--------|-------------|
B|--------|--------|--------|--------|-12----------|--------|--------|--------|-------15----|
G|--------|-14-----|-14-----|-14-----|-------14----|-12-----|-12-----|-12-----|-12----------|
D|-14-----|--------|--------|--------|-------------|--------|--------|--------|-------------|
A|--------|--------|--------|--------|-------------|--------|--------|--------|-------------|
E|--------|--------|--------|--------|-------------|--------|--------|--------|-------------|


E|--------|--------|--------|-------------|--------|--------|--------|-------------|
B|-14-----|-14-----|-14-----|-12----------|--------|--------|--------|-------------|
G|--------|--------|--------|-------15----|-14-----|-14-----|-14-----|-14----------|
D|--------|--------|--------|-------------|--------|--------|--------|-------------|
A|--------|--------|--------|-------------|--------|--------|--------|-------------|
E|--------|--------|--------|-------------|--------|--------|--------|-------------|


E|--------|--------|--------|--------|--------|--------|--------|--------|--------|
B|--------|--------|--------|--------|--------|--------|--------|--------|--------|
G|--------|--------|--------|--------|--------|--------|--------|--------|--------|
D|--------|--------|--------|--------|--------|--------|--------|--------|--------|
A|--------|--------|--------|--------|--------|--------|--------|--------|--------|
E|--------|--------|--------|--------|--------|--------|--------|--------|--------|


E|--------|--------|--------|--------|--------|--------|--------|--------|--------|
B|--------|--------|--------|--------|--------|--------|--------|--------|--------|
G|--------|--------|--------|--------|--------|--------|--------|--------|--------|
D|--------|--------|--------|--------|--------|--------|--------|--------|--------|
A|--------|--------|--------|--------|--------|--------|--------|--------|--------|
E|--------|--------|--------|--------|--------|--------|--------|--------|--------|


E|--------|-----------------|-12-----|-12-----|--------|-------15----|-14-----|-14-----|
B|--------|------------15---|--------|--------|-15-----|-15----15----|-15-----|-15-----|
G|--------|-----------------|--------|--------|--------|-16----------|--------|--------|
D|--------|-----------------|--------|--------|--------|-------------|--------|--------|
A|--------|-----------------|--------|--------|--------|-------------|--------|--------|
E|--------|-----------------|--------|--------|--------|-------------|--------|--------|





Track 4: Bass

G|--------|-------------|-------------|-------------|-------------|-------------|-------------|
D|--------|-------------|-------------|-------------|-------------|-------------|-------------|
A|--------|-5------5----|-5------5----|-2------2----|-2------2----|-2------2----|-2------2----|
E|--------|-------------|-------------|-------------|-------------|-------------|-------------|


G|-------------|-------------|-------------|-------------|-------------|-------------|
D|-------------|-------------|-------------|-------------|-------------|-------------|
A|-------------|-------------|-------------|-------------|-------------|-------------|
E|-3------3----|-3------3----|-5------5----|-5------5----|-5------5----|-5------5----|


G|-------------|-------------|-------------|-------------|-------------|-------------|
D|-------------|-------------|-------------|-------------|-------------|-------------|
A|-------------|-------------|-5------5----|-5------5----|-5------5----|-5------5----|
E|-5------5----|-5------5----|-------------|-------------|-------------|-------------|


G|-------------|-------------|-------------|-------------|-------------|-------------|
D|-------------|-------------|-------------|-------------|-------------|-------------|
A|-2------2----|-2------2----|-2------2----|-2------2----|-------------|-------------|
E|-------------|-------------|-------------|-------------|-3------3----|-3------3----|


G|-------------|-------------|-------------|-------------|-------------|-------------|
D|-------------|-------------|-------------|-------------|-------------|-------------|
A|-4------4----|-4------4----|-4------4----|-4------4----|-------------|-------------|
E|-------------|-------------|-------------|-------------|-5------5----|-5------5----|


G|-------------|-------------|-------------|-------------|-------------|-------------|
D|-------------|-------------|-------------|-------------|-------------|-------------|
A|-------------|-------------|-------------|-------------|-2------2----|-2------2----|
E|-5------5----|-5------5----|-3------3----|-3------3----|-------------|-------------|


G|-------------|-------------|-------------|-------------|-------------|-------------|
D|-------------|-------------|-------------|-------------|-------------|-------------|
A|-------------|-------------|-------------|-------------|-------------|-------------|
E|-5------5----|-5------5----|-5------5----|-5------5----|-3------3----|-3------3----|


G|-------------|-------------|-------------|-------------|-------------|--------|-------------|
D|-------------|-------------|-------------|-------------|-------------|--------|-------------|
A|-2------2----|-2------2----|-------------|-------------|-------------|--------|-5------5----|
E|-------------|-------------|-5------5----|-5------5----|-5-----5-----|-5------|-------------|


G|-------------|-------------|-------------|-------------|-------------|-------------|
D|-------------|-------------|-------------|-------------|-------------|-------------|
A|-5------5----|-2------2----|-2------2----|-2------2----|-2------2----|-------------|
E|-------------|-------------|-------------|-------------|-------------|-3------3----|


G|-------------|-------------|-------------|-------------|-------------|-------------|
D|-------------|-------------|-------------|-------------|-------------|-------------|
A|-------------|-------------|-------------|-------------|-------------|-------------|
E|-3------3----|-5------5----|-5------5----|-5------5----|-5------5----|-5------5----|


G|-------------|-------------|-------------|-------------|-------------|-------------|
D|-------------|-------------|-------------|-------------|-------------|-------------|
A|-------------|-5------5----|-5------5----|-5------5----|-5------5----|-2------2----|
E|-5------5----|-------------|-------------|-------------|-------------|-------------|


G|-------------|-------------|-------------|-------------|-------------|-------------|
D|-------------|-------------|-------------|-------------|-------------|-------------|
A|-2------2----|-2------2----|-2------2----|-------------|-------------|-------------|
E|-------------|-------------|-------------|-0------0----|-0------0----|-2------2----|


G|-------------|--------|-------------|----------------|---------------------|-----------------|
D|-------------|--------|-------------|------------2---|-4-------------------|-----------------|
A|-------------|--------|-------1-----|-2------5-------|------0----2----3----|-3---------5-----|
E|-2------2----|-2------|-2-----------|----------------|---------------------|------5----------|


G|--------|-------------|-------------|-------------|-------------|-------------|-------------|
D|--------|-------------|-------------|-------------|-------------|-------------|-------------|
A|-5------|-------------|-------------|-2------2----|-2------2----|-------------|-------------|
E|--------|-3------3----|-3------3----|-------------|-------------|-3------3----|-3------3----|


G|-------------|-------------|-------------|-------------|-------------|-------------|
D|-------------|-------------|-------------|-------------|-------------|-------------|
A|-2------2----|-------------|-5------5----|-5------5----|-2------2----|-2------2----|
E|-------------|-5------5----|-------------|-------------|-------------|-------------|


G|-------------|-------------|-------------|-------------|-------------|-------------|
D|-------------|-------------|-------------|-------------|-------------|-------------|
A|-------------|-------------|-------------|-------------|-4------4----|-4------4----|
E|-0------0----|-0------0----|-0------0----|-0------0----|-------------|-------------|


G|-------------|-------------|-------------|-------------|-------------|-------------|
D|-------------|-------------|-------------|-------------|-------------|-------------|
A|-4------4----|-4------4----|-------------|-------------|-------------|-------------|
E|-------------|-------------|-5------5----|-5------5----|-5------5----|-5------5----|


G|-------------|-------------|-------------|-------------|-------------|-------------|
D|-------------|-------------|-------------|-------------|-------------|-------------|
A|-------------|-------------|-2------2----|-2------2----|-------------|-------------|
E|-3------3----|-3------3----|-------------|-------------|-5------5----|-5------5----|


G|-------------|-------------|-------------|-------------|-------------|-------------|
D|-------------|-------------|-------------|-------------|-------------|-------------|
A|-------------|-------------|-------------|-------------|-2------2----|-2------2----|
E|-5------5----|-5------5----|-3------3----|-3------3----|-------------|-------------|


G|-------------|-------------|-------------|-------------|-------------|-------------|
D|-------------|-------------|-------------|-------------|-------------|-------------|
A|-------------|-------------|-------------|-------------|-------------|-------------|
E|-5------5----|-5------5----|-5------5----|-5------5----|-3------3----|-3------3----|


G|-------------|-------------|-------------|-------------|--------|--------|--------|
D|-------------|-------------|-------------|-------------|--------|--------|--------|
A|-2------2----|-2------2----|-3------3----|-3------3----|--------|--------|-5------|
E|-------------|-------------|-------------|-------------|-3------|-3------|--------|


G|--------|
D|--------|
A|-5------|
E|--------|