Menu:

 

Search:

 

killswitch engage - self revolution:

 



Title: Self Revolution
Artist: 
Album: Alive or Just Breathing?
Author: Killswitch Engage


Track 1: Guitar 1

D|-------------------------------------------|--------------------------------|-----------------------------------------|
A|-------------------------------------------|--------------------------------|-----------------------------------------|
F|-------------------------------------------|--------------------------------|-----------------------------------------|
C|-------------------------------------------|--------------------------------|-----------------------------------------|
G|-5--8------------5--8----------------------|--------------------------------|-5--8------------5--8--------------------|
C|-------0--0--0---------0--0--0---0---0--0--|-0---0--0--8---0---5---0---7----|-------0--0--0---------0--0--0---0---8---|


D|-----------------------------------|-------------------------------------------|
A|-----------------------------------|-------------------------------------------|
F|-----------------------------------|-------------------------------------------|
C|-----------------7---8--7----------|-------------------------------------------|
G|---------8-----------------8-------|-5--8------------5--8----------------------|
C|-8---10------10----------------10--|-------0--0--0---------0--0--0---0---0--0--|


D|--------------------------------|-----------------------------------------|--------|
A|--------------------------------|-----------------------------------------|--------|
F|--------------------------------|-----------------------------------------|--------|
C|--------------------------------|-------------------------------------0---|--------|
G|--------------------------------|-5--8------------5--8----------------0---|--------|
C|-0---0--0--8---0---5---0---7----|-------0--0--0---------0--0--0---0---0---|--------|


D|-------------------------------------------|--------------------------------|-----------------------------------------|
A|-------------------------------------------|--------------------------------|-----------------------------------------|
F|-------------------------------------------|--------------------------------|-----------------------------------------|
C|-------------------------------------------|--------------------------------|-----------------------------------------|
G|-5--8------------5--8----------------------|--------------------------------|-5--8------------5--8--------------------|
C|-------0--0--0---------0--0--0---0---0--0--|-0---0--0--8---0---5---0---7----|-------0--0--0---------0--0--0---0---8---|


D|-----------------------------------|-------------------------------------------|
A|-----------------------------------|-------------------------------------------|
F|-----------------------------------|-------------------------------------------|
C|-----------------7---8--7----------|-------------------------------------------|
G|---------8-----------------8-------|-5--8------------5--8----------------------|
C|-8---10------10----------------10--|-------0--0--0---------0--0--0---0---0--0--|


D|--------------------------------|-----------------------------------------|-----------------------------------|
A|--------------------------------|-----------------------------------------|-----------------------------------|
F|--------------------------------|-----------------------------------------|-----------------------------------|
C|--------------------------------|-----------------------------------------|-----------------7---8--7----------|
G|--------------------------------|-5--8------------5--8--------------------|---------8-----------------8-------|
C|-0---0--0--8---0---5---0---7----|-------0--0--0---------0--0--0---0---8---|-8---10------10----------------10--|


D|-------------------------------------------|--------------------------------|-----------------------------------------|
A|-------------------------------------------|--------------------------------|-----------------------------------------|
F|-------------------------------------------|--------------------------------|-----------------------------------------|
C|-------------------------------------------|--------------------------------|-----------------------------------------|
G|-5--8------------5--8----------------------|--------------------------------|-5--8------------5--8--------------------|
C|-------0--0--0---------0--0--0---0---0--0--|-0---0--0--8---0---5---0---7----|-------0--0--0---------0--0--0---0---8---|


D|-----------------------------------|-------------------------------------------|
A|-----------------------------------|-------------------------------------------|
F|-----------------------------------|-------------------------------------------|
C|-----------------7---8--7----------|-------------------------------------------|
G|---------8-----------------8-------|-5--8------------5--8----------------------|
C|-8---10------10----------------10--|-------0--0--0---------0--0--0---0---0--0--|


D|--------------------------------|-----------------------------------------|-----------------------------------|
A|--------------------------------|-----------------------------------------|-----------------------------------|
F|--------------------------------|-----------------------------------------|-----------------------------------|
C|--------------------------------|-----------------------------------------|-----------------7---8--7----------|
G|--------------------------------|-5--8------------5--8--------------------|---------8-----------------8-------|
C|-0---0--0--8---0---5---0---7----|-------0--0--0---------0--0--0---0---8---|-8---10------10----------------10--|


D|--------------------|--------|--------|--------|--------|--------|--------|--------|
A|--------------------|--------|--------|--------|--------|--------|--------|--------|
F|-7----7-------------|--------|--------|--------|--------|--------|--------|--------|
C|-7----7-------------|--------|--------|--------|--------|--------|--------|--------|
G|-5----5-------------|--------|--------|--------|--------|--------|--------|-12-----|
C|-5----5-------------|--------|--------|--------|--------|--------|--------|-12-----|


D|---------------------------------|---------------------------------|------------------------------|
A|---------------------------------|---------------------------------|------------------------------|
F|-5---7---7---7---7---7---7---7---|-7---7---7---7---9---10--10--10--|-10---7---7---7---5---5---7---|
C|---------------------------------|---------------------------------|------------------------------|
G|-3---5---5---5---5---5---5---5---|-5---5---5---5---7---8---8---8---|-8----5---5---5---3---3---5---|
C|---------------------------------|---------------------------------|------------------------------|


D|---------------------------------|---------------------------------|---------------------------------|
A|---------------------------------|---------------------------------|---------------------------------|
F|-7---7---7---7---7---7---7---7---|-5---7---7---7---7---7---7---7---|-7---7---7---7---9---10--10--10--|
C|---------------------------------|---------------------------------|---------------------------------|
G|-5---5---5---5---5---5---5---5---|-3---5---5---5---5---5---5---5---|-5---5---5---5---7---8---8---8---|
C|---------------------------------|---------------------------------|---------------------------------|


D|------------------------------|---------------------------|---------------------------------|
A|------------------------------|---------------------------|---------------------------------|
F|-10---7---7---7---5---5---7---|-7---7---7---7---7---------|---------------------------------|
C|------------------------------|---------------------------|-----------------------------5---|
G|-8----5---5---5---3---3---5---|-5---5---5---5---5---------|-0---3---2---0---2---3---0-------|
C|------------------------------|---------------------------|-0---3---2---0---2---3---0-------|


D|---------------------------------|---------------------------------|------------------------------|
A|---------------------------------|---------------------------------|------------------------------|
F|-----------------------------2---|---------------------------------|---------------------10--10---|
C|---------------------------------|-----------------------------7---|-----5-------2----------------|
G|-0---3---2---0---2---3---0-------|-0---3---2---0---2---3---0-------|------------------------------|
C|-0---3---2---0---2---3---0-------|-0---3---2---0---2---3---0-------|-0-------0-------0------------|


D|---------------------------------|---------------------------------|---------------------------------|
A|---------------------------------|---------------------------------|---------------------------------|
F|---------------------------------|-----------------------------2---|---------------------------------|
C|-----------------------------5---|---------------------------------|-----------------------------3---|
G|-0---3---2---0---2---3---0-------|-0---3---2---0---2---3---0-------|-0---3---2---0---2---3---0---1---|
C|-0---3---2---0---2---3---0-------|-0---3---2---0---2---3---0-------|-0---3---2---0---2---3---0-------|


D|------------------------------|---------------------------------|---------------------------------|
A|------------------------------|---------------------------------|---------------------------------|
F|------------------------------|---------------------------------|-----------------------------2---|
C|-----3------------------------|-----------------------------5---|---------------------------------|
G|-----0-------3-------3---3----|-0---3---2---0---2---3---0-------|-0---3---2---0---2---3---0-------|
C|-0-------0---3---0---2---2----|-0---3---2---0---2---3---0-------|-0---3---2---0---2---3---0-------|


D|---------------------------------|------------------------------|---------------------------------|
A|---------------------------------|------------------------------|---------------------------------|
F|---------------------------------|---------------------10--10---|---------------------------------|
C|-----------------------------7---|-----5-------2----------------|-----------------------------5---|
G|-0---3---2---0---2---3---0-------|------------------------------|-0---3---2---0---2---3---0-------|
C|-0---3---2---0---2---3---0-------|-0-------0-------0------------|-0---3---2---0---2---3---0-------|


D|---------------------------------|---------------------------------|------------------------------|
A|---------------------------------|---------------------------------|------------------------------|
F|-----------------------------2---|---------------------------------|------------------------------|
C|---------------------------------|-----------------------------3---|-----3------------------------|
G|-0---3---2---0---2---3---0-------|-0---3---2---0---2---3---0---1---|-----0-------3-------3---3----|
C|-0---3---2---0---2---3---0-------|-0---3---2---0---2---3---0-------|-0-------0---3---0---2---2----|


D|---------------------------------|---------------------------------|---------------------------------|
A|---------------------------------|---------------------------------|---------------------------------|
F|---------------------------------|---------------------------------|---------------------------------|
C|-5---7-------5---7---------------|---------------------------------|-5---7-------5---7---------------|
G|-3---5-------3---5---------------|---------------------------------|-3---5-------3---5---------------|
C|---------0-----------0---0---0---|-0---8---0---0---5---0---7---0---|---------0-----------0---0---8---|


D|-----------------------------------|---------------------------------|---------------------------------|
A|-----------------------------------|---------------------------------|---------------------------------|
F|-----------------------------------|---------------------------------|---------------------------------|
C|-----------------7---8--7----------|-5---7-------5---7---------------|---------------------------------|
G|---------8-----------------8-------|-3---5-------3---5---------------|---------------------------------|
C|-8---10------10----------------10--|---------0-----------0---0---0---|-0---8---0---0---5---0---7---0---|


D|---------------------------------|-----------------------------------|---------------------------------|
A|---------------------------------|-----------------------------------|---------------------------------|
F|---------------------------------|-----------------------------------|---------------------------------|
C|-5---7-------5---7---------------|-----------------7---8--7----------|-----------------------------5---|
G|-3---5-------3---5---------------|---------8-----------------8-------|-0---3---2---0---2---3---0-------|
C|---------0-----------0---0---8---|-8---10------10----------------10--|-0---3---2---0---2---3---0-------|


D|---------------------------------|---------------------------------|------------------------------|
A|---------------------------------|---------------------------------|------------------------------|
F|-----------------------------2---|-----------------------------2---|---------------------10--10---|
C|---------------------------------|---------------------------------|-----5-------2----------------|
G|-0---3---2---0---2---3---0-------|-0---3---2---0---2---3---0-------|------------------------------|
C|-0---3---2---0---2---3---0-------|-0---3---2---0---2---3---0-------|-0-------0-------0------------|


D|---------------------------------|---------------------------------|---------------------------------|
A|---------------------------------|---------------------------------|---------------------------------|
F|---------------------------------|-----------------------------2---|---------------------------------|
C|-----------------------------5---|---------------------------------|-----------------------------3---|
G|-0---3---2---0---2---3---0-------|-0---3---2---0---2---3---0-------|-0---3---2---0---2---3---0---1---|
C|-0---3---2---0---2---3---0-------|-0---3---2---0---2---3---0-------|-0---3---2---0---2---3---0-------|


D|------------------------------|---------------------------------|---------------------------------|
A|------------------------------|---------------------------------|---------------------------------|
F|------------------------------|---------------------------------|-----------------------------2---|
C|-----3------------------------|-----------------------------5---|---------------------------------|
G|-----0-------3-------3---3----|-0---3---2---0---2---3---0-------|-0---3---2---0---2---3---0-------|
C|-0-------0---3---0---2---2----|-0---3---2---0---2---3---0-------|-0---3---2---0---2---3---0-------|


D|---------------------------------|------------------------------|---------------------------------|
A|---------------------------------|------------------------------|---------------------------------|
F|-----------------------------2---|---------------------10--10---|---------------------------------|
C|---------------------------------|-----5-------2----------------|-----------------------------5---|
G|-0---3---2---0---2---3---0-------|------------------------------|-0---3---2---0---2---3---0-------|
C|-0---3---2---0---2---3---0-------|-0-------0-------0------------|-0---3---2---0---2---3---0-------|


D|---------------------------------|---------------------------------|-----------------------------------|
A|---------------------------------|---------------------------------|-----------------------------------|
F|-----------------------------2---|---------------------------------|-----------------------------------|
C|---------------------------------|---------------------------------|-----------------7---8--7----------|
G|-0---3---2---0---2---3---0-------|-0---3---2---0---2---3---0-------|---------8-----------------8-------|
C|-0---3---2---0---2---3---0-------|-0---3---2---0---2---3---0---8---|-8---10------10----------------10--|


D|--------|-------------|--------|--------|--------|--------|--------|--------|--------|
A|--------|-------------|--------|--------|--------|--------|--------|--------|--------|
F|--------|-------------|-3------|-3------|--------|--------|--------|--------|--------|
C|-5------|-5-----3-----|-3------|-3------|-3------|-3------|-0------|-0------|-5------|
G|-5------|-5-----0-----|-1------|-1------|-3------|-3------|-0------|-0------|-5------|
C|-5------|-5-----------|--------|--------|-3------|-3------|-0------|-0------|-5------|


D|-------------|--------|--------|--------|--------|--------|-------------|-----------------------------------------|
A|-------------|--------|--------|--------|--------|--------|-------------|-----------------------------------------|
F|-------------|-3------|-3------|--------|--------|--------|-------------|-----------------------------------------|
C|-5-----3-----|-3------|-3------|-3------|-3------|-0------|-0-----------|-----------------------------------------|
G|-5-----0-----|-1------|-1------|-3------|-3------|-0------|-0------12---|-----------------------------------------|
C|-5-----------|--------|--------|-3------|-3------|-0------|-0------12---|-0--0--0---0--0--0---0--0--0---0--0--0---|


D|-----------------------------------------|-----------------------------------------|
A|-----------------------------------------|-----------------------------------------|
F|-----------------------------------------|-----------------------------------------|
C|-----------------------------------------|-----------------------------------------|
G|-----------------------------------------|-----------------------------------------|
C|-0--0--0---0--0--0---0--0--0---0--0--0---|-0--0--0---0--0--0---0--0--0---0--0--0---|


D|-----------------------------------------|-----------------------------------------|
A|-----------------------------------------|-----------------------------------------|
F|-----------------------------------------|-----------------------------------------|
C|-----------------------------------------|-----------------------------------------|
G|-----------------------------------------|-----------------------------------------|
C|-0--0--0---0--0--0---0--0--0---0--0--0---|-0--0--0---0--0--0---0--0--0---0--0--0---|


D|-----------------------------------|-----------------------------------------|-----------------------------------------|
A|-----------------------------------|-----------------------------------------|-----------------------------------------|
F|-----------------------------------|-----------------------------------------|-----------------------------------------|
C|-----------------------------------|-----------------------------------------|-----------------------------------------|
G|---------------3-----------1-------|-----------------------------------------|-----------------------------------------|
C|-0--0--0---0-------5---0-------3---|-0--0--0---0--0--0---0--0--0---0--0--0---|-0--0--0---0--0--0---0--0--0---0--0--0---|


D|-----------------------------------|-----------------------------------------|-----------------------------------------|
A|-----------------------------------|-----------------------------------------|-----------------------------------------|
F|-----------------------------------|-----------------------------------------|-----------------------------------------|
C|-----------------------------------|-----------------------------------------|-----------------------------------------|
G|---------------3-----------1-------|-----------------------------------------|-----------------------------------------|
C|-0--0--0---0-------5---0-------3---|-0--0--0---0--0--0---0--0--0---0--0--0---|-0--0--0---0--0--0---0--0--0---0--0--0---|


D|-----------------------------------|-----------------------------------------|-----------------------------------------|
A|-----------------------------------|-----------------------------------------|-----------------------------------------|
F|-----------------------------------|-----------------------------------------|-----------------------------------------|
C|-----------------------------------|-----------------------------------------|-----------------------------------------|
G|---------------3-----------1-------|-----------------------------------------|-----------------------------------------|
C|-0--0--0---0-------5---0-------3---|-0--0--0---0--0--0---0--0--0---0--0--0---|-0--0--0---0--0--0---0--0--0---0--0--0---|


D|-----------------------------------|-----------------------------------------|---------------------------------|
A|-----------------------------------|-----------------------------------------|---------------------------------|
F|-----------------------------------|-----------------------------------------|---------------------------------|
C|-----------------------------------|-----------------------------------------|---------------------------------|
G|---------------3-----------1-------|-----------------------------------------|-----3-----------1-----------0---|
C|-0--0--0---0-------5---0-------3---|-0--0--0---0--0--0---0--0--0---0--0--0---|-0-------5---0-------3---0-------|


D|-----------------------------------------|---------------------------------|-----------------------------------------|
A|-----------------------------------------|---------------------------------|-----------------------------------------|
F|-----------------------------------------|---------------------------------|-----------------------------------------|
C|-----------------------------------------|---------------------------------|-----------------------------------------|
G|-----------------------------------------|-----3-----------1-----------0---|-----------------------------------------|
C|-3--3--3---3--3--3---3--3--3---3--3--3---|-0-------5---0-------3---0-------|-0--0--0---0--0--0---0--0--0---0--0--0---|


D|---------------------------------|-----------------------------------------|---------------------------------|
A|---------------------------------|-----------------------------------------|---------------------------------|
F|---------------------------------|-----------------------------------------|---------------------------------|
C|---------------------------------|-----------------------------------------|---------------------------------|
G|-----3-----------1-----------0---|-----------------------------------------|-----3-----------1-----------0---|
C|-0-------5---0-------3---0-------|-3--3--3---3--3--3---3--3--3---3--3--3---|-0-------5---0-------3---0-------|


D|--------|-------------|--------|--------|--------|--------|--------|--------|--------|
A|--------|-------------|--------|--------|--------|--------|--------|--------|--------|
F|--------|-------------|-3------|-3------|--------|--------|--------|--------|--------|
C|-5------|-5-----3-----|-3------|-3------|-3------|-3------|-0------|-0------|-5------|
G|-5------|-5-----0-----|-1------|-1------|-3------|-3------|-0------|-0------|-5------|
C|-5------|-5-----------|--------|--------|-3------|-3------|-0------|-0------|-5------|


D|-------------|--------|--------|--------|--------|--------|-------------|---------------------------------|
A|-------------|--------|--------|--------|--------|--------|-------------|---------------------------------|
F|-------------|-3------|-3------|--------|--------|--------|-------------|---------------------------------|
C|-5-----3-----|-3------|-3------|-3------|-3------|-0------|-0-----------|-5---7-------5---7---------------|
G|-5-----0-----|-1------|-1------|-3------|-3------|-0------|-0------12---|-3---5-------3---5---------------|
C|-5-----------|--------|--------|-3------|-3------|-0------|-0------12---|---------0-----------0---0---0---|


D|---------------------------------|---------------------------------|-----------------------------------|
A|---------------------------------|---------------------------------|-----------------------------------|
F|---------------------------------|---------------------------------|-----------------------------------|
C|---------------------------------|-5---7-------5---7---------------|-----------------7---8--7----------|
G|---------------------------------|-3---5-------3---5---------------|---------8-----------------8-------|
C|-0---8---0---0---5---0---7---0---|---------0-----------0---0---8---|-8---10------10----------------10--|


D|---------------------------------|---------------------------------|---------------------------------|
A|---------------------------------|---------------------------------|---------------------------------|
F|---------------------------------|---------------------------------|---------------------------------|
C|-5---7-------5---7---------------|---------------------------------|-5---7-------5---7---------------|
G|-3---5-------3---5---------------|---------------------------------|-3---5-------3---5---------------|
C|---------0-----------0---0---0---|-0---8---0---0---5---0---7---0---|---------0-----------0---0---8---|


D|-----------------------------------|-------------------------------------------|
A|-----------------------------------|-------------------------------------------|
F|-----------------------------------|-------------------------------------------|
C|-----------------7---8--7----------|-------------------------------------------|
G|---------8-----------------8-------|-5--8------------5--8----------------------|
C|-8---10------10----------------10--|-------0--0--0---------0--0--0---0---0--0--|


D|--------------------------------|-----------------------------------------|-----------------------------------|
A|--------------------------------|-----------------------------------------|-----------------------------------|
F|--------------------------------|-----------------------------------------|-----------------------------------|
C|--------------------------------|-----------------------------------------|-----------------7---8--7----------|
G|--------------------------------|-5--8------------5--8--------------------|---------8-----------------8-------|
C|-0---0--0--8---0---5---0---7----|-------0--0--0---------0--0--0---0---8---|-8---10------10----------------10--|


D|-------------------------------------------|--------------------------------|-----------------------------------------|
A|-------------------------------------------|--------------------------------|-----------------------------------------|
F|-------------------------------------------|--------------------------------|-----------------------------------------|
C|-------------------------------------------|--------------------------------|-----------------------------------------|
G|-5--8------------5--8----------------------|--------------------------------|-5--8------------5--8--------------------|
C|-------0--0--0---------0--0--0---0---0--0--|-0---0--0--8---0---5---0---7----|-------0--0--0---------0--0--0---0---8---|


D|-----------------------------------|--------------------|
A|-----------------------------------|-3---3---3----------|
F|-----------------------------------|-2---2---2----------|
C|-----------------7---8--7----------|-0---0---0----------|
G|---------8-----------------8-------|--------------------|
C|-8---10------10----------------10--|--------------------|





Track 2: Guitar 2

D|--------------------|--------|------------------------|------------------------------|
A|--------------------|--------|------------------------|------------------------------|
F|--------------------|--------|--------------------10--|-10--10--10--10--10--12--12---|
C|-0--------0---------|--------|-0--------0---------8---|-8---8---8---8---8---10--10---|
G|-0--------0---------|--------|-0--------0---------8---|-8---8---8---8---8---10--10---|
C|-0--------0---------|--------|-0--------0---------8---|-8---8---8---8---8---10--10---|


D|--------------------|--------|------------------------|--------|--------|--------|
A|--------------------|--------|------------------------|--------|--------|--------|
F|--------------------|--------|------------------------|--------|--------|--------|
C|-0--------0---------|--------|-0--------0---------0---|--------|--------|--------|
G|-0--------0---------|--------|-0--------0---------0---|--------|--------|--------|
C|-0--------0---------|--------|-0--------0---------0---|--------|--------|--------|


D|-----------------------------------------|------------------------------|--------|
A|-----------------------------------------|------------------------------|--------|
F|-------------------------------------3---|-3---3---3---3---3---5---5----|--------|
C|-------------------------------------3---|-3---3---3---3---3---5---5----|--------|
G|-5--8------------5--8----------------1---|-1---1---1---1---1---3---3----|--------|
C|-------0--0--0---------0--0--0---0-------|------------------------------|--------|


D|--------|-----------------------------------------|------------------------------|
A|--------|-----------------------------------------|------------------------------|
F|--------|-------------------------------------3---|-3---3---3---3---3---5---5----|
C|--------|-------------------------------------3---|-3---3---3---3---3---5---5----|
G|--------|-5--8------------5--8----------------1---|-1---1---1---1---1---3---3----|
C|--------|-------0--0--0---------0--0--0---0-------|------------------------------|


D|--------|--------|-----------------------------------------|------------------------------|
A|--------|--------|-----------------------------------------|------------------------------|
F|--------|--------|-------------------------------------3---|-3---3---3---3---3---5---5----|
C|--------|--------|-------------------------------------3---|-3---3---3---3---3---5---5----|
G|--------|--------|-5--8------------5--8----------------1---|-1---1---1---1---1---3---3----|
C|--------|--------|-------0--0--0---------0--0--0---0-------|------------------------------|


D|--------|--------|-----------------------------------------|------------------------------|
A|--------|--------|-----------------------------------------|------------------------------|
F|--------|--------|-------------------------------------3---|-3---3---3---3---3---5---5----|
C|--------|--------|-------------------------------------3---|-3---3---3---3---3---5---5----|
G|--------|--------|-5--8------------5--8----------------1---|-1---1---1---1---1---3---3----|
C|--------|--------|-------0--0--0---------0--0--0---0-------|------------------------------|


D|--------------------|--------|--------|--------|--------|--------|--------|--------|
A|--------------------|--------|--------|--------|--------|--------|--------|--------|
F|-7----7-------------|--------|--------|--------|--------|--------|--------|--------|
C|-7----7-------------|--------|--------|--------|--------|--------|--------|--------|
G|-5----5-------------|--------|--------|--------|--------|--------|--------|--------|
C|-5----5-------------|--------|--------|--------|--------|--------|--------|--------|


D|---------------------------------|---------------------------------|------------------------------|
A|---------------------------------|---------------------------------|------------------------------|
F|-9---10--10--10--10--10--10--10--|-10--10--10--10--12--14--14--14--|-14---10--10--10--9---9---10--|
C|---------------------------------|---------------------------------|------------------------------|
G|-7---8---8---8---8---8---8---8---|-8---8---8---8---10--12--12--12--|-12---8---8---8---7---7---8---|
C|---------------------------------|---------------------------------|------------------------------|


D|---------------------------------|---------------------------------|---------------------------------|
A|---------------------------------|---------------------------------|---------------------------------|
F|-10--10--10--10--10--10--10--10--|-9---10--10--10--10--10--10--10--|-10--10--10--10--12--14--14--14--|
C|---------------------------------|---------------------------------|---------------------------------|
G|-8---8---8---8---8---8---8---8---|-7---8---8---8---8---8---8---8---|-8---8---8---8---10--12--12--12--|
C|---------------------------------|---------------------------------|---------------------------------|


D|------------------------------|---------------------------|---------------------------------|
A|------------------------------|---------------------------|---------------------------------|
F|-14---10--10--10--9---9---10--|-10--10--10--10--10--------|---------------------------------|
C|------------------------------|---------------------------|-----------------------------2---|
G|-12---8---8---8---7---7---8---|-8---8---8---8---8---------|-0---3---2---0---2---3---0-------|
C|------------------------------|---------------------------|-0---3---2---0---2---3---0-------|


D|---------------------------------|---------------------------------|------------------------------|
A|---------------------------------|---------------------------------|------------------------------|
F|---------------------------------|---------------------------------|---------------------7---7----|
C|-----------------------------3---|-----------------------------3---|-----2------------------------|
G|-0---3---2---0---2---3---0-------|-0---3---2---0---2---3---0-------|-------------3----------------|
C|-0---3---2---0---2---3---0-------|-0---3---2---0---2---3---0-------|-0-------0-------0------------|


D|---------------------------------|---------------------------------|---------------------------------|
A|---------------------------------|---------------------------------|---------------------------------|
F|---------------------------------|---------------------------------|---------------------------------|
C|-----------------------------5---|-----------------------------3---|-----------------------------3---|
G|-0---3---2---0---2---3---0-------|-0---3---2---0---2---3---0-------|-0---3---2---0---2---3---0---1---|
C|-0---3---2---0---2---3---0-------|-0---3---2---0---2---3---0-------|-0---3---2---0---2---3---0-------|


D|------------------------------|---------------------------------|---------------------------------|
A|------------------------------|---------------------------------|---------------------------------|
F|------------------------------|---------------------------------|---------------------------------|
C|-----3------------------------|-----------------------------2---|-----------------------------3---|
G|-----0-------3-------3---3----|-0---3---2---0---2---3---0-------|-0---3---2---0---2---3---0-------|
C|-0-------0---3---0---2---2----|-0---3---2---0---2---3---0-------|-0---3---2---0---2---3---0-------|


D|---------------------------------|------------------------------|---------------------------------|
A|---------------------------------|------------------------------|---------------------------------|
F|---------------------------------|---------------------7---7----|---------------------------------|
C|-----------------------------3---|-----2------------------------|-----------------------------5---|
G|-0---3---2---0---2---3---0-------|-------------3----------------|-0---3---2---0---2---3---0-------|
C|-0---3---2---0---2---3---0-------|-0-------0-------0------------|-0---3---2---0---2---3---0-------|


D|---------------------------------|---------------------------------|------------------------------|
A|---------------------------------|---------------------------------|------------------------------|
F|---------------------------------|---------------------------------|------------------------------|
C|-----------------------------3---|-----------------------------3---|-----3------------------------|
G|-0---3---2---0---2---3---0-------|-0---3---2---0---2---3---0---1---|-----0-------3-------3---3----|
C|-0---3---2---0---2---3---0-------|-0---3---2---0---2---3---0-------|-0-------0---3---0---2---2----|


D|---------------------------------|---------------------------------|---------------------------------|
A|---------------------------------|---------------------------------|---------------------------------|
F|---------------------------------|---------------------------------|-----------------------------3---|
C|-5---7-------5---7---------------|---------------------------------|-5---7-------5---7-----------3---|
G|-3---5-------3---5---------------|---------------------------------|-3---5-------3---5-----------1---|
C|---------0-----------0---0---0---|-0---8---0---0---5---0---7---0---|---------0-----------0---0-------|


D|------------------------------|---------------------------------|---------------------------------|
A|------------------------------|---------------------------------|---------------------------------|
F|-3---3---3---3---3---5---5----|---------------------------------|---------------------------------|
C|-3---3---3---3---3---5---5----|-5---7-------5---7---------------|---------------------------------|
G|-1---1---1---1---1---3---3----|-3---5-------3---5---------------|---------------------------------|
C|------------------------------|---------0-----------0---0---0---|-0---8---0---0---5---0---7---0---|


D|---------------------------------|------------------------------|---------------------------------|
A|---------------------------------|------------------------------|---------------------------------|
F|-----------------------------3---|-3---3---3---3---3---5---5----|---------------------------------|
C|-5---7-------5---7-----------3---|-3---3---3---3---3---5---5----|-----------------------------2---|
G|-3---5-------3---5-----------1---|-1---1---1---1---1---3---3----|-0---3---2---0---2---3---0-------|
C|---------0-----------0---0-------|------------------------------|-0---3---2---0---2---3---0-------|


D|---------------------------------|---------------------------------|------------------------------|
A|---------------------------------|---------------------------------|------------------------------|
F|---------------------------------|---------------------------------|---------------------7---7----|
C|-----------------------------7---|-----------------------------3---|-----2------------------------|
G|-0---3---2---0---2---3---0-------|-0---3---2---0---2---3---0-------|-------------3----------------|
C|-0---3---2---0---2---3---0-------|-0---3---2---0---2---3---0-------|-0-------0-------0------------|


D|---------------------------------|---------------------------------|---------------------------------|
A|---------------------------------|---------------------------------|---------------------------------|
F|---------------------------------|---------------------------------|---------------------------------|
C|-----------------------------2---|-----------------------------3---|-----------------------------3---|
G|-0---3---2---0---2---3---0-------|-0---3---2---0---2---3---0-------|-0---3---2---0---2---3---0---1---|
C|-0---3---2---0---2---3---0-------|-0---3---2---0---2---3---0-------|-0---3---2---0---2---3---0-------|


D|------------------------------|---------------------------------|---------------------------------|
A|------------------------------|---------------------------------|---------------------------------|
F|------------------------------|---------------------------------|---------------------------------|
C|-----3------------------------|-----------------------------2---|-----------------------------7---|
G|-----0-------3-------3---3----|-0---3---2---0---2---3---0-------|-0---3---2---0---2---3---0-------|
C|-0-------0---3---0---2---2----|-0---3---2---0---2---3---0-------|-0---3---2---0---2---3---0-------|


D|---------------------------------|------------------------------|---------------------------------|
A|---------------------------------|------------------------------|---------------------------------|
F|---------------------------------|---------------------7---7----|---------------------------------|
C|-----------------------------3---|-----2------------------------|-----------------------------2---|
G|-0---3---2---0---2---3---0-------|-------------3----------------|-0---3---2---0---2---3---0-------|
C|-0---3---2---0---2---3---0-------|-0-------0-------0------------|-0---3---2---0---2---3---0-------|


D|---------------------------------|---------------------------------|--------|---------------------------------|
A|---------------------------------|---------------------------------|--------|-5---6---6---6---6---5---5---6---|
F|---------------------------------|---------------------------------|--------|---------------------------------|
C|-----------------------------3---|-----------------------------3---|--------|---------------------------------|
G|-0---3---2---0---2---3---0-------|-0---3---2---0---2---3---0---1---|--------|---------------------------------|
C|-0---3---2---0---2---3---0-------|-0---3---2---0---2---3---0-------|--------|---------------------------------|


D|---------------------------------|---------------------------------|---------------------------------|
A|-6---6---6---6---8---6---6---5---|-5---6---6---6---6---5---5---6---|-6---6---6---6---8---6---6---5---|
F|---------------------------------|---------------------------------|---------------------------------|
C|---------------------------------|---------------------------------|---------------------------------|
G|---------------------------------|---------------------------------|---------------------------------|
C|---------------------------------|---------------------------------|---------------------------------|


D|---------------------------------|---------------------------------|---------------------------------|
A|-5---6---6---6---6---5---5---6---|-6---6---6---6---8---6---6---5---|-5---6---6---6---6---5---5---6---|
F|---------------------------------|---------------------------------|---------------------------------|
C|---------------------------------|---------------------------------|---------------------------------|
G|---------------------------------|---------------------------------|---------------------------------|
C|---------------------------------|---------------------------------|---------------------------------|


D|---------------------------------|---------------------------------|---------------------------------|
A|-6---6---6---6---8---6---6---5---|-5---6---6---6---6---5---5---6---|-6---6---6---6---8---6---6---5---|
F|---------------------------------|---------------------------------|---------------------------------|
C|---------------------------------|---------------------------------|---------------------------------|
G|---------------------------------|---------------------------------|---------------------------------|
C|---------------------------------|---------------------------------|---------------------------------|


D|---------------------------------|---------------------------------|---------------------------------|
A|-5---6---6---6---6---5---5---6---|-6---6---6---6---8---6---6---5---|-5---6---6---6---6---5---5---6---|
F|---------------------------------|---------------------------------|---------------------------------|
C|---------------------------------|---------------------------------|---------------------------------|
G|---------------------------------|---------------------------------|---------------------------------|
C|---------------------------------|---------------------------------|---------------------------------|


D|---------------------------------|---------------------------------|------------------------------|
A|-6---6---6---6---8---6---6---5---|-5---6---6---6---6---5---5---6---|-6---6---6---6---8---6--------|
F|---------------------------------|---------------------------------|------------------------------|
C|---------------------------------|---------------------------------|------------------------------|
G|---------------------------------|---------------------------------|-------------------------12---|
C|---------------------------------|---------------------------------|-------------------------12---|


D|--------|--------|--------|--------|--------|--------|--------|--------|--------|
A|--------|--------|--------|--------|--------|--------|--------|--------|--------|
F|--------|--------|--------|--------|--------|--------|--------|--------|--------|
C|--------|--------|--------|--------|--------|--------|--------|--------|--------|
G|--------|--------|--------|--------|--------|--------|--------|--------|--------|
C|--------|--------|--------|--------|--------|--------|--------|--------|--------|


D|--------|--------|--------|--------|--------|--------|--------|--------|--------|
A|--------|--------|--------|--------|--------|--------|--------|--------|--------|
F|--------|--------|--------|--------|--------|--------|--------|--------|--------|
C|--------|--------|--------|--------|--------|--------|--------|--------|--------|
G|--------|--------|--------|--------|--------|--------|--------|--------|--------|
C|--------|--------|--------|--------|--------|--------|--------|--------|--------|


D|--------|--------|--------|--------|--------|---------------------------------|---------------------------------|
A|--------|--------|--------|--------|--------|-5---6---6---6---6---5---5---6---|-6---6---6---6---8---6---6---5---|
F|--------|--------|--------|--------|--------|---------------------------------|---------------------------------|
C|--------|--------|--------|--------|--------|---------------------------------|---------------------------------|
G|--------|--------|--------|--------|--------|---------------------------------|---------------------------------|
C|--------|--------|--------|--------|--------|---------------------------------|---------------------------------|


D|---------------------------------|---------------------------------|---------------------------------|
A|-5---6---6---6---6---5---5---6---|-6---6---6---6---8---6---6---5---|-5---6---6---6---6---5---5---6---|
F|---------------------------------|---------------------------------|---------------------------------|
C|---------------------------------|---------------------------------|---------------------------------|
G|---------------------------------|---------------------------------|---------------------------------|
C|---------------------------------|---------------------------------|---------------------------------|


D|---------------------------------|---------------------------------|---------------------------------|
A|-6---6---6---6---8---6---6---5---|-5---6---6---6---6---5---5---6---|-6---6---6---6---8---6---6---5---|
F|---------------------------------|---------------------------------|---------------------------------|
C|---------------------------------|---------------------------------|---------------------------------|
G|---------------------------------|---------------------------------|---------------------------------|
C|---------------------------------|---------------------------------|---------------------------------|


D|---------------------------------|---------------------------------|---------------------------------|
A|-5---6---6---6---6---5---5---6---|-6---6---6---6---8---6---6---5---|-5---6---6---6---6---5---5---6---|
F|---------------------------------|---------------------------------|---------------------------------|
C|---------------------------------|---------------------------------|---------------------------------|
G|---------------------------------|---------------------------------|---------------------------------|
C|---------------------------------|---------------------------------|---------------------------------|


D|---------------------------------|---------------------------------|---------------------------------|
A|-6---6---6---6---8---6---6---5---|-5---6---6---6---6---5---5---6---|-6---6---6---6---8---6---6---5---|
F|---------------------------------|---------------------------------|---------------------------------|
C|---------------------------------|---------------------------------|---------------------------------|
G|---------------------------------|---------------------------------|---------------------------------|
C|---------------------------------|---------------------------------|---------------------------------|


D|---------------------------------|------------------------------|---------------------------------|
A|-5---6---6---6---6---5---5---6---|-6---6---6---6---8---6--------|---------------------------------|
F|---------------------------------|------------------------------|---------------------------------|
C|---------------------------------|------------------------------|-5---7-------5---7---------------|
G|---------------------------------|-------------------------12---|-3---5-------3---5---------------|
C|---------------------------------|-------------------------12---|---------0-----------0---0---0---|


D|---------------------------------|---------------------------------|------------------------------|
A|---------------------------------|---------------------------------|------------------------------|
F|---------------------------------|-----------------------------3---|-3---3---3---3---3---5---5----|
C|---------------------------------|-5---7-------5---7-----------3---|-3---3---3---3---3---5---5----|
G|---------------------------------|-3---5-------3---5-----------1---|-1---1---1---1---1---3---3----|
C|-0---8---0---0---5---0---7---0---|---------0-----------0---0-------|------------------------------|


D|---------------------------------|---------------------------------|---------------------------------|
A|---------------------------------|---------------------------------|---------------------------------|
F|---------------------------------|---------------------------------|-----------------------------3---|
C|-5---7-------5---7---------------|---------------------------------|-5---7-------5---7-----------3---|
G|-3---5-------3---5---------------|---------------------------------|-3---5-------3---5-----------1---|
C|---------0-----------0---0---0---|-0---8---0---0---5---0---7---0---|---------0-----------0---0-------|


D|------------------------------|-------------------------------------------|--------------------------------|
A|------------------------------|-------------------------------------------|--------------------------------|
F|-3---3---3---3---3---5---5----|-------------------------------------------|--------------------------------|
C|-3---3---3---3---3---5---5----|-------------------------------------------|--------------------------------|
G|-1---1---1---1---1---3---3----|-5--8------------5--8----------------------|--------------------------------|
C|------------------------------|-------0--0--0---------0--0--0---0---0--0--|-0---0--0--8---0---5---0---7----|


D|-----------------------------------------|------------------------------|-------------------------------------------|
A|-----------------------------------------|------------------------------|-------------------------------------------|
F|-------------------------------------3---|-3---3---3---3---3---5---5----|-------------------------------------------|
C|-------------------------------------3---|-3---3---3---3---3---5---5----|-------------------------------------------|
G|-5--8------------5--8----------------1---|-1---1---1---1---1---3---3----|-5--8------------5--8----------------------|
C|-------0--0--0---------0--0--0---0-------|------------------------------|-------0--0--0---------0--0--0---0---0--0--|


D|--------------------------------|-----------------------------------------|------------------------------|
A|--------------------------------|-----------------------------------------|------------------------------|
F|--------------------------------|-------------------------------------3---|-3---3---3---3---3---5---5----|
C|--------------------------------|-------------------------------------3---|-3---3---3---3---3---5---5----|
G|--------------------------------|-5--8------------5--8----------------1---|-1---1---1---1---1---3---3----|
C|-0---0--0--8---0---5---0---7----|-------0--0--0---------0--0--0---0-------|------------------------------|


D|--------------------|
A|-3---3---3----------|
F|-2---2---2----------|
C|-0---0---0----------|
G|--------------------|
C|--------------------|





Track 3: Background Guitar

D|--------|--------|--------|--------|--------|--------|--------|--------|--------|
A|--------|--------|--------|--------|--------|--------|--------|--------|--------|
F|--------|--------|--------|--------|--------|--------|--------|--------|--------|
C|--------|--------|--------|--------|--------|--------|--------|--------|--------|
G|--------|--------|--------|--------|--------|--------|--------|--------|--------|
C|--------|--------|--------|--------|--------|--------|--------|--------|--------|


D|--------|--------|--------|--------|--------|--------|--------|--------|--------|
A|--------|--------|--------|--------|--------|--------|--------|--------|--------|
F|--------|--------|--------|--------|--------|--------|--------|--------|--------|
C|--------|--------|--------|--------|--------|--------|--------|--------|--------|
G|--------|--------|--------|--------|--------|--------|--------|--------|--------|
C|--------|--------|--------|--------|--------|--------|--------|--------|--------|


D|--------|--------|--------|--------|--------|--------|--------|--------|--------|
A|--------|--------|--------|--------|--------|--------|--------|--------|--------|
F|--------|--------|--------|--------|--------|--------|--------|--------|--------|
C|--------|--------|--------|--------|--------|--------|--------|--------|--------|
G|--------|--------|--------|--------|--------|--------|--------|--------|--------|
C|--------|--------|--------|--------|--------|--------|--------|--------|--------|


D|--------|--------|--------|--------|--------|--------|--------|--------|--------|
A|--------|--------|--------|--------|--------|--------|--------|--------|--------|
F|--------|--------|--------|--------|--------|--------|--------|--------|--------|
C|--------|--------|--------|--------|--------|--------|--------|--------|--------|
G|--------|--------|--------|--------|--------|--------|--------|--------|--------|
C|--------|--------|--------|--------|--------|--------|--------|--------|--------|


D|--------|--------|--------|--------|--------|--------|--------|--------|--------|
A|--------|--------|--------|--------|--------|--------|--------|--------|--------|
F|--------|--------|--------|--------|--------|--------|--------|--------|--------|
C|--------|--------|--------|--------|--------|--------|--------|--------|--------|
G|--------|--------|--------|--------|--------|--------|--------|--------|--------|
C|--------|--------|--------|--------|--------|--------|--------|--------|--------|


D|--------|--------|--------|--------|--------|--------|--------|--------|--------|
A|--------|--------|--------|--------|--------|--------|--------|--------|--------|
F|--------|--------|--------|--------|--------|--------|--------|--------|--------|
C|--------|--------|--------|--------|--------|--------|--------|--------|--------|
G|--------|--------|--------|--------|--------|--------|--------|--------|--------|
C|--------|--------|--------|--------|--------|--------|--------|--------|--------|


D|--------|--------|--------|--------|--------|--------|--------|--------|--------|
A|--------|--------|--------|--------|--------|--------|--------|--------|--------|
F|--------|--------|--------|--------|--------|--------|--------|--------|--------|
C|--------|--------|--------|--------|--------|--------|--------|--------|--------|
G|--------|--------|--------|--------|--------|--------|--------|--------|--------|
C|--------|--------|--------|--------|--------|--------|--------|--------|--------|


D|--------|--------|--------|--------|--------|--------|--------|--------|--------|
A|--------|--------|--------|--------|--------|--------|--------|--------|--------|
F|--------|--------|--------|--------|--------|--------|--------|--------|--------|
C|--------|--------|--------|--------|--------|--------|--------|--------|--------|
G|--------|--------|--------|--------|--------|--------|--------|--------|--------|
C|--------|--------|--------|--------|--------|--------|--------|--------|--------|


D|--------|--------|--------|--------|--------|--------|--------|--------|--------|
A|--------|--------|--------|--------|--------|--------|--------|--------|--------|
F|--------|--------|--------|--------|--------|--------|--------|--------|--------|
C|--------|--------|--------|--------|--------|--------|--------|--------|--------|
G|--------|--------|--------|--------|--------|--------|--------|--------|--------|
C|--------|--------|--------|--------|--------|--------|--------|--------|--------|


D|--------|--------|--------|--------|--------|--------|--------|-8---8---8---6---6---6---5---5---|
A|--------|--------|--------|--------|--------|--------|--------|-10--10--10--8---8---8---6---6---|
F|--------|--------|--------|--------|--------|--------|--------|---------------------------------|
C|--------|--------|--------|--------|--------|--------|--------|---------------------------------|
G|--------|--------|--------|--------|--------|--------|--------|---------------------------------|
C|--------|--------|--------|--------|--------|--------|--------|---------------------------------|


D|-5---5---5---5---5---6---5---3---|-8---8---8---6---6---6---5---5---|-5---5---5---5---5---6---5---3---|
A|-6---6---6---6---6---8---6---5---|-10--10--10--8---8---8---6---6---|-6---6---6---6---6---8---6---5---|
F|---------------------------------|---------------------------------|---------------------------------|
C|---------------------------------|---------------------------------|---------------------------------|
G|---------------------------------|---------------------------------|---------------------------------|
C|---------------------------------|---------------------------------|---------------------------------|


D|-8---8---8---6---6---6---5---5---|-5---5---5---5---5---6---5---3---|-5---6---5---3---5-------5---6---|
A|-10--10--10--8---8---8---6---6---|-6---6---6---6---6---8---6---5---|-6---8---6---5---6---6---6---8---|
F|---------------------------------|---------------------------------|---------------------7-----------|
C|---------------------------------|---------------------------------|---------------------------------|
G|---------------------------------|---------------------------------|---------------------------------|
C|---------------------------------|---------------------------------|---------------------------------|


D|-5---3---5-------5------------|--------|--------|--------|--------|--------|--------|
A|-6---5---6---6---6---6--------|--------|--------|--------|--------|--------|--------|
F|-------------7-------7--------|--------|--------|--------|--------|--------|--------|
C|------------------------------|--------|--------|--------|--------|--------|--------|
G|------------------------------|--------|--------|--------|--------|--------|--------|
C|------------------------------|--------|--------|--------|--------|--------|--------|


D|--------|--------|--------|--------|--------|--------|--------|--------|--------|
A|--------|--------|--------|--------|--------|--------|--------|--------|--------|
F|--------|--------|--------|--------|--------|--------|--------|--------|--------|
C|--------|--------|--------|--------|--------|--------|--------|--------|--------|
G|--------|--------|--------|--------|--------|--------|--------|--------|--------|
C|--------|--------|--------|--------|--------|--------|--------|--------|--------|


D|--------|--------|--------|--------|--------|--------|--------|--------|--------|
A|--------|--------|--------|--------|--------|--------|--------|--------|--------|
F|--------|--------|--------|--------|--------|--------|--------|--------|--------|
C|--------|--------|--------|--------|--------|--------|--------|--------|--------|
G|--------|--------|--------|--------|--------|--------|--------|--------|--------|
C|--------|--------|--------|--------|--------|--------|--------|--------|--------|


D|--------|--------|--------|--------|--------|--------|--------|-8---8---8---6---6---6---5---5---|
A|--------|--------|--------|--------|--------|--------|--------|-10--10--10--8---8---8---6---6---|
F|--------|--------|--------|--------|--------|--------|--------|---------------------------------|
C|--------|--------|--------|--------|--------|--------|--------|---------------------------------|
G|--------|--------|--------|--------|--------|--------|--------|---------------------------------|
C|--------|--------|--------|--------|--------|--------|--------|---------------------------------|


D|-5---5---5---5---5---6---5---3---|-8---8---8---6---6---6---5---5---|-5---5---5---5---5---6---5---3---|
A|-6---6---6---6---6---8---6---5---|-10--10--10--8---8---8---6---6---|-6---6---6---6---6---8---6---5---|
F|---------------------------------|---------------------------------|---------------------------------|
C|---------------------------------|---------------------------------|---------------------------------|
G|---------------------------------|---------------------------------|---------------------------------|
C|---------------------------------|---------------------------------|---------------------------------|


D|-8---8---8---6---6---6---5---5---|-5---5---5---5---5---6---5---3---|-5---6---5---3---5-------5---6---|
A|-10--10--10--8---8---8---6---6---|-6---6---6---6---6---8---6---5---|-6---8---6---5---6---6---6---8---|
F|---------------------------------|---------------------------------|---------------------7-----------|
C|---------------------------------|---------------------------------|---------------------------------|
G|---------------------------------|---------------------------------|---------------------------------|
C|---------------------------------|---------------------------------|---------------------------------|


D|-5---3---5-------5------------|--------|--------|--------|--------|--------|--------|
A|-6---5---6---6---6---6--------|--------|--------|--------|--------|--------|--------|
F|-------------7-------7--------|--------|--------|--------|--------|--------|--------|
C|------------------------------|--------|--------|--------|--------|--------|--------|
G|------------------------------|--------|--------|--------|--------|--------|--------|
C|------------------------------|--------|--------|--------|--------|--------|--------|


D|--------|--------|--------|--------|--------|--------|--------|--------|--------|
A|--------|--------|--------|--------|--------|--------|--------|--------|--------|
F|--------|--------|--------|--------|--------|--------|--------|--------|--------|
C|--------|--------|--------|--------|--------|--------|--------|--------|--------|
G|--------|--------|--------|--------|--------|--------|--------|--------|--------|
C|--------|--------|--------|--------|--------|--------|--------|--------|--------|


D|--------|--------|
A|--------|--------|
F|--------|--------|
C|--------|--------|
G|--------|--------|
C|--------|--------|





Track 4: Bass

D#|--------------------|--------|------------------------|------------------------------|
A#|--------------------|--------|------------------------|------------------------------|
 F|--------------------|--------|--------------------3---|-3---3---3---3---3---5---5----|
 C|-0--------0---------|--------|-0--------0-------------|------------------------------|


D#|--------------------|--------|------------------------|--------|-------------------------------------------|
A#|--------------------|--------|------------------------|--------|----5---------------5----------------------|
 F|--------------------|--------|------------------------|--------|-7---------------7-------------------------|
 C|-0--------0---------|--------|-0--------0---------0---|--------|-------0--0--0---------0--0--0---0---0--0--|


D#|--------------------------------|-----------------------------------------|------------------------------|
A#|--------------------------------|----5---------------5--------------------|------------------------------|
 F|--------------------------------|-7---------------7-------------------3---|-3---3---3---3---3---5---5----|
 C|-0---0--0--8---0---5---0---7----|-------0--0--0---------0--0--0---0-------|------------------------------|


D#|-------------------------------------------|--------------------------------|-----------------------------------------|
A#|----5---------------5----------------------|--------------------------------|----5---------------5--------------------|
 F|-7---------------7-------------------------|--------------------------------|-7---------------7-------------------3---|
 C|-------0--0--0---------0--0--0---0---0--0--|-0---0--0--8---0---5---0---7----|-------0--0--0---------0--0--0---0-------|


D#|------------------------------|-------------------------------------------|--------------------------------|
A#|------------------------------|----5---------------5----------------------|--------------------------------|
 F|-3---3---3---3---3---5---5----|-7---------------7-------------------------|--------------------------------|
 C|------------------------------|-------0--0--0---------0--0--0---0---0--0--|-0---0--0--8---0---5---0---7----|


D#|-----------------------------------------|------------------------------|-------------------------------------------|
A#|----5---------------5--------------------|------------------------------|----5---------------5----------------------|
 F|-7---------------7-------------------3---|-3---3---3---3---3---5---5----|-7---------------7-------------------------|
 C|-------0--0--0---------0--0--0---0-------|------------------------------|-------0--0--0---------0--0--0---0---0--0--|


D#|--------------------------------|-----------------------------------------|------------------------------|
A#|--------------------------------|----5---------------5--------------------|------------------------------|
 F|--------------------------------|-7---------------7-------------------3---|-3---3---3---3---3---5---5----|
 C|-0---0--0--8---0---5---0---7----|-------0--0--0---------0--0--0---0-------|------------------------------|


D#|---------------------------------|---------------------------------|---------------------------------|
A#|---------------------------------|---------------------------------|-2---2---2---2---2---2---2---2---|
 F|---------------------------------|---------------------------------|---------------------------------|
 C|-5---5---5---7---8---8---7---8---|-8---8---10--8---3---3---5---3---|---------------------------------|


D#|-4-----------4---4----4-------|---------------------------------|---------------------------------|
A#|-----2---2--------------------|---------------------------------|---------------------------------|
 F|------------------------------|---------------------------------|---------------------------------|
 C|--------------------------0---|-5---5---5---7---8---8---7---8---|-8---8---10--8---3---3---5---3---|


D#|------------------------------|-4-----------4---4----4-------|---------------------------------|
A#|-2---2---0---2---2---0---2----|-----2---2--------------------|---------------------------------|
 F|------------------------------|------------------------------|---------------------------------|
 C|------------------------------|--------------------------0---|-5---5---5---7---8---8---7---8---|


D#|---------------------------------|---------------------------------|-4-----------4---4----4-------|
A#|---------------------------------|-2---2---2---2---2---2---2---2---|-----2---2--------------------|
 F|---------------------------------|---------------------------------|------------------------------|
 C|-8---8---10--8---3---3---5---3---|---------------------------------|--------------------------0---|


D#|---------------------------------|---------------------------------|------------------------------|
A#|---------------------------------|---------------------------------|-2---2---0---2---2---0---2----|
 F|---------------------------------|---------------------------------|------------------------------|
 C|-5---5---5---7---8---8---7---8---|-8---8---10--8---3---3---5---3---|------------------------------|


D#|-4----------------------------|---------------------------------|---------------------------------|
A#|-----2---2---2---2------------|-----------------------------4---|-----------------------------5---|
 F|------------------------------|---------------------------------|---------------------------------|
 C|------------------------------|-0---3---2---0---2---3---0-------|-0---3---2---0---2---3---0-------|


D#|---------------------------------|------------------------------|---------------------------------|
A#|-----------------------------5---|-----4------------------------|-----------------------------4---|
 F|---------------------------------|-------------5-------7---7----|---------------------------------|
 C|-0---3---2---0---2---3---0-------|-0-------0-------0------------|-0---3---2---0---2---3---0-------|


D#|---------------------------------|---------------------------------|------------------------------|
A#|-----------------------------5---|---------------------------------|------------------------------|
 F|---------------------------------|-----------------------------3---|-----2------------------------|
 C|-0---3---2---0---2---3---0-------|-0---3---2---0---2---3---0-------|-0-------0---3---0---2---2----|


D#|---------------------------------|---------------------------------|---------------------------------|
A#|-----------------------------4---|-----------------------------5---|-----------------------------5---|
 F|---------------------------------|---------------------------------|---------------------------------|
 C|-0---3---2---0---2---3---0-------|-0---3---2---0---2---3---0-------|-0---3---2---0---2---3---0-------|


D#|------------------------------|---------------------------------|---------------------------------|
A#|-----4------------------------|-----------------------------4---|-----------------------------5---|
 F|-------------5-------7---7----|---------------------------------|---------------------------------|
 C|-0-------0-------0------------|-0---3---2---0---2---3---0-------|-0---3---2---0---2---3---0-------|


D#|---------------------------------|------------------------------|---------------------------------|
A#|---------------------------------|------------------------------|---------------------------------|
 F|-----------------------------3---|-----2------------------------|-5---7-------5---7---------------|
 C|-0---3---2---0---2---3---0-------|-0-------0---3---0---2---2----|---------0-----------0---0---0---|


D#|---------------------------------|---------------------------------|------------------------------|
A#|---------------------------------|---------------------------------|------------------------------|
 F|---------------------------------|-5---7-------5---7-----------3---|-3---3---3---3---3---5---5----|
 C|-0---8---0---0---5---0---7---0---|---------0-----------0---0-------|------------------------------|


D#|---------------------------------|---------------------------------|---------------------------------|
A#|---------------------------------|---------------------------------|---------------------------------|
 F|-5---7-------5---7---------------|---------------------------------|-5---7-------5---7-----------3---|
 C|---------0-----------0---0---0---|-0---8---0---0---5---0---7---0---|---------0-----------0---0-------|


D#|------------------------------|---------------------------------|---------------------------------|
A#|------------------------------|-----------------------------4---|-----------------------------5---|
 F|-3---3---3---3---3---5---5----|---------------------------------|---------------------------------|
 C|------------------------------|-0---3---2---0---2---3---0-------|-0---3---2---0---2---3---0-------|


D#|---------------------------------|------------------------------|---------------------------------|
A#|-----------------------------5---|-----4------------------------|-----------------------------4---|
 F|---------------------------------|-------------5-------7---7----|---------------------------------|
 C|-0---3---2---0---2---3---0-------|-0-------0-------0------------|-0---3---2---0---2---3---0-------|


D#|---------------------------------|---------------------------------|------------------------------|
A#|-----------------------------5---|---------------------------------|------------------------------|
 F|---------------------------------|-----------------------------3---|-----2------------------------|
 C|-0---3---2---0---2---3---0-------|-0---3---2---0---2---3---0-------|-0-------0---3---0---2---2----|


D#|---------------------------------|---------------------------------|---------------------------------|
A#|-----------------------------4---|-----------------------------5---|-----------------------------5---|
 F|---------------------------------|---------------------------------|---------------------------------|
 C|-0---3---2---0---2---3---0-------|-0---3---2---0---2---3---0-------|-0---3---2---0---2---3---0-------|


D#|------------------------------|---------------------------------|---------------------------------|
A#|-----4------------------------|-----------------------------4---|-----------------------------5---|
 F|-------------5-------7---7----|---------------------------------|---------------------------------|
 C|-0-------0-------0------------|-0---3---2---0---2---3---0-------|-0---3---2---0---2---3---0-------|


D#|---------------------------------|-------------|--------|-------------|--------|
A#|---------------------------------|--------2----|--------|-------------|--------|
 F|-----------------------------3---|-------------|-0------|-0-----2-----|-3------|
 C|-0---3---2---0---2---3---0-------|-------------|--------|-------------|--------|


D#|--------|--------|--------|--------|--------|--------|-------------|--------|--------|
A#|--------|--------|--------|--------|--------|--------|-------------|--------|--------|
 F|-3------|--------|--------|--------|--------|-0------|-0-----2-----|-3------|-3------|
 C|--------|-3------|-3------|-0------|-0------|--------|-------------|--------|--------|


D#|--------|--------|--------|-------------|-----------------------------------------|
A#|--------|--------|--------|-------------|-----------------------------------------|
 F|--------|--------|--------|--------7----|-----------------------------------------|
 C|-3------|-3------|-0------|-0-----------|-0--0--0---0--0--0---0--0--0---0--0--0---|


D#|-----------------------------------------|------------------|-----------------------------------------|
A#|-----------------------------------------|------------------|-----------------------------------------|
 F|-----------------------------------------|------------------|-----------------------------------------|
 C|-0--0--0---0--0--0---0--0--0---0--0--0---|-0--0--0----------|-0--0--0---0--0--0---0--0--0---0--0--0---|


D#|-----------------------------------------|-----------------------------------|-----------------------------------------|
A#|-----------------------------------------|-----------------------------------|-----------------------------------------|
 F|-----------------------------------------|---------------5-----------3-------|-----------------------------------------|
 C|-0--0--0---0--0--0---0--0--0---0--0--0---|-0--0--0---0-------5---0-------3---|-0--0--0---0--0--0---0--0--0---0--0--0---|


D#|-----------------------------------------|-----------------------------------|-----------------------------------------|
A#|-----------------------------------------|-----------------------------------|-----------------------------------------|
 F|-----------------------------------------|---------------5-----------3-------|-----------------------------------------|
 C|-0--0--0---0--0--0---0--0--0---0--0--0---|-0--0--0---0-------5---0-------3---|-0--0--0---0--0--0---0--0--0---0--0--0---|


D#|-----------------------------------------|-----------------------------------|-----------------------------------------|
A#|-----------------------------------------|-----------------------------------|-----------------------------------------|
 F|-----------------------------------------|---------------5-----------3-------|-----------------------------------------|
 C|-0--0--0---0--0--0---0--0--0---0--0--0---|-0--0--0---0-------5---0-------3---|-0--0--0---0--0--0---0--0--0---0--0--0---|


D#|-----------------------------------------|-----------------------------------|-----------------------------------------|
A#|-----------------------------------------|-----------------------------------|-----------------------------------------|
 F|-----------------------------------------|---------------5-----------3-------|-----------------------------------------|
 C|-0--0--0---0--0--0---0--0--0---0--0--0---|-0--0--0---0-------5---0-------3---|-0--0--0---0--0--0---0--0--0---0--0--0---|


D#|---------------------------------|-----------------------------------------|---------------------------------|
A#|---------------------------------|-----------------------------------------|---------------------------------|
 F|-----5-----------3-----------2---|-----------------------------------------|-----5-----------3-----------2---|
 C|-0-------5---0-------3---0-------|-3--3--3---3--3--3---3--3--3---3--3--3---|-0-------5---0-------3---0-------|


D#|-----------------------------------------|---------------------------------|-----------------------------------------|
A#|-----------------------------------------|---------------------------------|-----------------------------------------|
 F|-----------------------------------------|-----5-----------3-----------2---|-----------------------------------------|
 C|-0--0--0---0--0--0---0--0--0---0--0--0---|-0-------5---0-------3---0-------|-3--3--3---3--3--3---3--3--3---3--3--3---|


D#|---------------------------------|--------|-------------|--------|--------|--------|
A#|---------------------------------|--------|-------------|--------|--------|--------|
 F|-----5-----------3-----------2---|-0------|-0-----2-----|-3------|-3------|--------|
 C|-0-------5---0-------3---0-------|--------|-------------|--------|--------|-3------|


D#|--------|--------|--------|--------|-------------|--------|--------|--------|--------|
A#|--------|--------|--------|--------|-------------|--------|--------|--------|--------|
 F|--------|--------|--------|-0------|-0-----2-----|-3------|-3------|--------|--------|
 C|-3------|-0------|-0------|--------|-------------|--------|--------|-3------|-3------|


D#|--------|-------------|---------------------------------|---------------------------------|
A#|--------|-------------|---------------------------------|---------------------------------|
 F|--------|--------7----|-5---7-------5---7---------------|---------------------------------|
 C|-0------|-0-----------|---------0-----------0---0---0---|-0---8---0---0---5---0---7---0---|


D#|---------------------------------|------------------------------|---------------------------------|
A#|---------------------------------|------------------------------|---------------------------------|
 F|-5---7-------5---7-----------3---|-3---3---3---3---3---5---5----|-5---7-------5---7---------------|
 C|---------0-----------0---0-------|------------------------------|---------0-----------0---0---0---|


D#|---------------------------------|---------------------------------|------------------------------|
A#|---------------------------------|---------------------------------|------------------------------|
 F|---------------------------------|-5---7-------5---7-----------3---|-3---3---3---3---3---5---5----|
 C|-0---8---0---0---5---0---7---0---|---------0-----------0---0-------|------------------------------|


D#|-------------------------------------------|--------------------------------|-----------------------------------------|
A#|----5---------------5----------------------|--------------------------------|----5---------------5--------------------|
 F|-7---------------7-------------------------|--------------------------------|-7---------------7-------------------3---|
 C|-------0--0--0---------0--0--0---0---0--0--|-0---0--0--8---0---5---0---7----|-------0--0--0---------0--0--0---0-------|


D#|------------------------------|-------------------------------------------|--------------------------------|
A#|------------------------------|----5---------------5----------------------|--------------------------------|
 F|-3---3---3---3---3---5---5----|-7---------------7-------------------------|-----------3-------0-------2----|
 C|------------------------------|-------0--0--0---------0--0--0---0---0--0--|-0---0--0------0-------0--------|


D#|-----------------------------------------|------------------------------|--------------------|
A#|----5---------------5--------------------|------------------------------|--------------------|
 F|-7---------------7-------------------3---|-3---3---3---3---3---5---5----|-7---7---7----------|
 C|-------0--0--0---------0--0--0---0-------|------------------------------|--------------------|