Menu:

 

Search:

 

k cagri ozcan - the parachutist:

 



Title: The Parachutist
Artist: 
Album: 
Author: Kemal Çağrı Özcan


Track 1: di

E|---------------------------------|---------------------------------|---------------------------------|
B|---------------------------------|---------------------------------|---------------------------------|
G|---------------------------------|---------------------------------|---------------------------------|
D|-5---5---5---5---4---4---4---4---|-2---2---2---2---4---4---4---4---|-5---5---5---5---4---4---4---4---|
A|-3---3---3---3---3---3---3---3---|-3---3---3---3---3---3---3---3---|-2---2---2---2---2---2---2---2---|
E|---------------------------------|---------------------------------|---------------------------------|


E|---------------------------------|---------------------------------|---------------------------------|
B|---------------------------------|---------------------------------|---------------------------------|
G|---------------------------------|---------------------------------|---------------------------------|
D|-2---2---2---2---4---4---4---4---|-5---5---5---5---4---4---4---4---|-2---2---2---2---4---4---4---4---|
A|-2---2---2---2---2---2---2---2---|-3---3---3---3---3---3---3---3---|-3---3---3---3---3---3---3---3---|
E|---------------------------------|---------------------------------|---------------------------------|


E|---------------------------------|---------------------------------|---------------------------------|
B|---------------------------------|---------------------------------|---------------------------------|
G|---------------------------------|---------------------------------|---------------------------------|
D|-5---5---5---5---4---4---4---4---|-7---7---7---7---5---5---5---4---|-5---5---5---5---5---5---5---5---|
A|-5---5---5---5---5---5---5---5---|-7---7---7---7---7---7---7---7---|-3---3---3---3---3---3---3---3---|
E|-0---0---0---0---0---0---0---0---|-0---0---0---0-------------------|---------------------------------|


E|---------------------------------|---------------------------------|---------------------------|
B|---------------------------------|---------------------------------|---------------------------|
G|---------------------------------|---------------------------------|---------------------------|
D|-5---5---5---5---5---5---5---5---|-9---9---9---9---9---9---9---9---|-7----7---7---5----7---7---|
A|-3---3---3---3---3---3---3---3---|-7---7---7---7---7---7---7---7---|-5----5---5---5----5---5---|
E|---------------------------------|---------------------------------|---------------------------|


E|---------------------------------|---------------------------------|---------------------------------|
B|---------------------------------|---------------------------------|---------------------------------|
G|---------------------------------|---------------------------------|---------------------------------|
D|-5---5---5---5---5---5---5---5---|-5---5---5---5---5---5---5---5---|-9---9---9---9---9---9---9---9---|
A|-3---3---3---3---3---3---3---3---|-3---3---3---3---3---3---3---3---|-7---7---7---7---7---7---7---7---|
E|---------------------------------|---------------------------------|---------------------------------|


E|---------------------------------|---------------------------------|---------------------------------|
B|---------------------------------|---------------------------------|---------------------------------|
G|---------------------------------|---------------------------------|---------------------------------|
D|-7---7---7---7---7---7---7---7---|-5---5---5---5---5---5---5---5---|-2---2---2---2---2---2---2---2---|
A|-5---5---5---5---5---5---5---5---|-3---3---3---3---3---3---3---3---|-3---3---3---3---3---3---3---3---|
E|---------------------------------|---------------------------------|---------------------------------|


E|---------------------------------|---------------------------------|---------------------------------|
B|---------------------------------|---------------------------------|---------------------------------|
G|---------------------------------|---------------------------------|---------------------------------|
D|-9---9---9---10--10--9---9---9---|-7---7---7---5---5---7---7---7---|-5---5---5---5---5---5---5---5---|
A|-7---7---7---7---7---7---7---7---|-5---5---5---5---5---5---5---5---|-3---3---3---3---3---3---3---3---|
E|---------------------------------|---------------------------------|---------------------------------|


E|---------------------------------|-------------------------------------------------|
B|---------------------------------|-------------------------------------------------|
G|---------------------------------|-------------------------------------------------|
D|-2---2---2---2---2---2---2---2---|-2-----2-----2-----2-----2-----2-----2-----2-----|
A|-3---3---3---3---3---3---3---3---|-0--0--0--0--0--0--0--0--0--0--0--0--0--0--0--0--|
E|---------------------------------|-------------------------------------------------|


E|-------------------------------------------------|---------------------------------|
B|-------------------------------------------------|---------------------------------|
G|-------------------------------------------------|---------------------------------|
D|-4-----4-----4-----4-----4-----4-----4-----4-----|-5---5---5---5---5---5---5---5---|
A|-2--2--2--2--2--2--2--2--2--2--2--2--2--2--2--2--|-3---3---3---3---3---3---3---3---|
E|-------------------------------------------------|---------------------------------|


E|---------------------------------|---------------------------------|---------------------------------|
B|---------------------------------|---------------------------------|---------------------------------|
G|---------------------------------|---------------------------------|---------------------------------|
D|-2---2---2---2---2---2---2---2---|-9---9---9---10--10--9---9---9---|-7---7---7---5---5---7---7---7---|
A|-3---3---3---3---3---3---3---3---|-7---7---7---7---7---7---7---7---|-5---5---5---5---5---5---5---5---|
E|---------------------------------|---------------------------------|---------------------------------|


E|---------------------------------|---------------------------------|-------------------------------------------------|
B|---------------------------------|---------------------------------|-------------------------------------------------|
G|---------------------------------|---------------------------------|-------------------------------------------------|
D|-5---5---5---5---5---5---5---5---|-2---2---2---2---2---2---2---2---|-2-----2-----2-----2-----2-----2-----2-----2-----|
A|-3---3---3---3---3---3---3---3---|-3---3---3---3---3---3---3---3---|-0--0--0--0--0--0--0--0--0--0--0--0--0--0--0--0--|
E|---------------------------------|---------------------------------|-------------------------------------------------|


E|-------------------------------------------------|------------------------------|
B|-------------------------------------------------|------------------------------|
G|-------------------------------------------------|------------------------------|
D|-4-----4-----4-----4-----4-----4-----4-----4-----|-2----2---2-------------------|
A|-2--2--2--2--2--2--2--2--2--2--2--2--2--2--2--2--|-0----0---0-------0---2---3---|
E|-------------------------------------------------|------------------------------|


E|------------------------------|---------------------------------|---------------------------------|
B|------------------------------|---------------------------------|---------------------------------|
G|------------------------------|---------------------------------|---------------------------------|
D|-2----2---2-------------------|-5---5---5---4---4---------------|-7---7---7---5---5---7---7---7---|
A|-0----0---0-------0---2---3---|-3---3---3---3---3---0---3---5---|-5---5---5---5---5---5---5---5---|
E|------------------------------|---------------------------------|---------------------------------|


E|------------------------------|------------------------------|---------------------------------|
B|------------------------------|------------------------------|---------------------------------|
G|------------------------------|------------------------------|---------------------------------|
D|-2----2---2-------------------|-2----2---2-------------------|-5---5---5---4---4---------------|
A|-0----0---0-------0---2---3---|-0----0---0-------0---2---3---|-3---3---3---3---3---0---3---5---|
E|------------------------------|------------------------------|---------------------------------|


E|---------------------------------|---------------------------------|---------------------------------|
B|---------------------------------|---------5-----------7-----------|-8-----------10----------19------|
G|---------------------------------|-5---5-------5---7-------7---9---|-----9---11------11--12------16--|
D|-7---7---7---5---5---7---7---7---|---------------------------------|---------------------------------|
A|-5---5---5---5---5---5---5---5---|---------------------------------|---------------------------------|
E|---------------------------------|---------------------------------|---------------------------------|


E|------------------------------|------------------------------|------------------------------|
B|---------12----------10-------|-7-----------7----------------|------------------------------|
G|-12--12------12--11------11---|-----9---7-------7------------|------------------------------|
D|------------------------------|---------------------10--9----|-2----2---2-------------------|
A|------------------------------|------------------------------|-0----0---0-------0---2---3---|
E|------------------------------|------------------------------|------------------------------|


E|------------------------------|---------------------------------|---------------------------------|
B|------------------------------|---------------------------------|---------------------------------|
G|------------------------------|---------------------------------|---------------------------------|
D|-2----2---2-------------------|-5---5---5---4---4---------------|-7---7---7---5---5---7---7---7---|
A|-0----0---0-------0---2---3---|-3---3---3---3---3---0---3---5---|-5---5---5---5---5---5---5---5---|
E|------------------------------|---------------------------------|---------------------------------|


E|------------------------------|------------------------------|---------------------------------|
B|------------------------------|------------------------------|---------------------------------|
G|------------------------------|------------------------------|---------------------------------|
D|-2----2---2-------------------|-2----2---2-------------------|-5---5---5---4---4---------------|
A|-0----0---0-------0---2---3---|-0----0---0-------0---2---3---|-3---3---3---3---3---0---3---5---|
E|------------------------------|------------------------------|---------------------------------|


E|---------------------------------|---------------------------------|---------------------------------|
B|---------------------------------|---------------------------------|---------------------------------|
G|---------------------------------|---------------------------------|---------------------------------|
D|-7---7---7---5---5---7---7---7---|-5---5---5---5---5---5---5---5---|-5---5---5---5---5---5---5---5---|
A|-5---5---5---5---5---5---5---5---|-3---3---3---3---3---3---3---3---|-3---3---3---3---3---3---3---3---|
E|---------------------------------|---------------------------------|---------------------------------|


E|---------------------------------|---------------------------|---------------------------------|
B|---------------------------------|---------------------------|---------------------------------|
G|---------------------------------|---------------------------|---------------------------------|
D|-9---9---9---9---9---9---9---9---|-7----7---7---5----7---7---|-5---5---5---5---5---5---5---5---|
A|-7---7---7---7---7---7---7---7---|-5----5---5---5----5---5---|-3---3---3---3---3---3---3---3---|
E|---------------------------------|---------------------------|---------------------------------|


E|---------------------------------|---------------------------------|---------------------------------|
B|---------------------------------|---------------------------------|---------------------------------|
G|---------------------------------|---------------------------------|---------------------------------|
D|-5---5---5---5---5---5---5---5---|-9---9---9---9---9---9---9---9---|-7---7---7---5---5---7---7---7---|
A|-3---3---3---3---3---3---3---3---|-7---7---7---7---7---7---7---7---|-5---5---5---5---5---5---5---5---|
E|---------------------------------|---------------------------------|---------------------------------|


E|---------------------------------|---------------------------------|---------------------------------|
B|---------------------------------|---------------------------------|---------------------------------|
G|---------------------------------|---------------------------------|---------------------------------|
D|-5---5---5---5---5---5---5---5---|-2---2---2---2---2---2---2---2---|-9---9---9---9---9---9---9---9---|
A|-3---3---3---3---3---3---3---3---|-3---3---3---3---3---3---3---3---|-7---7---7---7---7---7---7---7---|
E|---------------------------------|---------------------------------|---------------------------------|


E|---------------------------------|---------------------------------|---------------------------------|
B|---------------------------------|---------------------------------|---------------------------------|
G|---------------------------------|---------------------------------|---------------------------------|
D|-7---7---7---5---5---7---7---7---|-5---5---5---5---5---5---5---5---|-5---5---5---2---2---5---5---5---|
A|-5---5---5---5---5---5---5---5---|-3---3---3---3---3---3---3---3---|-3---3---3---3---3---3---3---3---|
E|---------------------------------|---------------------------------|---------------------------------|


E|---------------------------------|---------------------------------|---------------------------------|
B|---------------------------------|---------------------------------|---------------------------------|
G|---------------------------------|---------------------------------|---------------------------------|
D|-2---2---2---2---2---2---2---2---|-4---4---4---4---4---4---4---4---|-5---5---5---5---5---5---5---5---|
A|-0---0---0---0---0---0---0---0---|-2---2---2---2---2---2---2---2---|-3---3---3---3---3---3---3---3---|
E|---------------------------------|---------------------------------|---------------------------------|


E|---------------------------------|---------------------------------|---------------------------------|
B|---------------------------------|---------------------------------|---------------------------------|
G|---------------------------------|---------------------------------|---------------------------------|
D|-2---2---2---2---2---2---2---2---|-9---9---9---9---9---9---9---9---|-7---7---7---5---5---7---7---7---|
A|-3---3---3---3---3---3---3---3---|-7---7---7---7---7---7---7---7---|-5---5---5---5---5---5---5---5---|
E|---------------------------------|---------------------------------|---------------------------------|


E|---------------------------------|---------------------------------|-------------------------------------------------|
B|---------------------------------|---------------------------------|-------------------------------------------------|
G|---------------------------------|---------------------------------|-------------------------------------------------|
D|-5---5---5---5---5---5---5---5---|-5---5---5---5---5---5---5---5---|-2-----------2-----------2-----------2-----2-----|
A|-3---3---3---3---3---3---3---3---|-3---3---3---3---3---3---3---3---|-0--0--0--0--0--0--0--0--0--0--0--0--0--0--0--0--|
E|---------------------------------|---------------------------------|-------------------------------------------------|


E|-------------|--------|---------------------------------|---------------------------------|
B|-------------|--------|---------------------------------|---------------------------------|
G|-------------|--------|---------------------------------|---------------------------------|
D|-4-----4-----|--------|-5---5---5---5---4---4---4---4---|-2---2---2---2---4---4---4---4---|
A|-2-----2-----|--------|-3---3---3---3---3---3---3---3---|-3---3---3---3---3---3---3---3---|
E|-------------|--------|---------------------------------|---------------------------------|


E|---------------------------------|---------------------------------|---------------------------------|
B|---------------------------------|---------------------------------|---------------------------------|
G|---------------------------------|---------------------------------|---------------------------------|
D|-5---5---5---5---4---4---4---4---|-2---2---2---2---4---4---4---4---|-5---5---5---5---4---4---4---4---|
A|-2---2---2---2---2---2---2---2---|-2---2---2---2---2---2---2---2---|-3---3---3---3---3---3---3---3---|
E|---------------------------------|---------------------------------|---------------------------------|


E|---------------------------------|---------------------------------|---------------------------------|
B|---------------------------------|---------------------------------|---------------------------------|
G|---------------------------------|---------------------------------|---------------------------------|
D|-2---2---2---2---4---4---4---4---|-5---5---5---5---4---4---4---4---|-7---7---7---7---5---5---5---4---|
A|-3---3---3---3---3---3---3---3---|-5---5---5---5---5---5---5---5---|-7---7---7---7---7---7---7---7---|
E|---------------------------------|-0---0---0---0---0---0---0---0---|-0---0---0---0-------------------|


E|------------------------------|------------------------------|---------------------------------|
B|------------------------------|------------------------------|---------------------------------|
G|------------------------------|------------------------------|---------------------------------|
D|-2----2---2-------------------|-2----2---2-------------------|-5---5---5---4---4---------------|
A|-0----0---0-------0---2---3---|-0----0---0-------0---2---3---|-3---3---3---3---3---0---3---5---|
E|------------------------------|------------------------------|---------------------------------|


E|---------------------------------|------------------------------|------------------------------|
B|---------------------------------|------------------------------|------------------------------|
G|---------------------------------|------------------------------|------------------------------|
D|-7---7---7---5---5---7---7---7---|-2----2---2-------------------|-2----2---2-------------------|
A|-5---5---5---5---5---5---5---5---|-0----0---0-------0---2---3---|-0----0---0-------0---2---3---|
E|---------------------------------|------------------------------|------------------------------|


E|---------------------------------|---------------------------------|--------|--------|
B|---------------------------------|---------------------------------|--------|--------|
G|---------------------------------|---------------------------------|--------|--------|
D|-5---5---5---4---4---------------|-7---7---7---5---5---7---7---7---|--------|--------|
A|-3---3---3---3---3---0---3---5---|-5---5---5---5---5---5---5---5---|--------|--------|
E|---------------------------------|---------------------------------|--------|--------|


E|--------|--------|
B|--------|--------|
G|--------|--------|
D|--------|--------|
A|--------|--------|
E|--------|--------|





Track 2: Untitled

E|-0------|-0------|-0------|-0------|-0------|-0------|--------|--------|--------|
B|--------|--------|--------|--------|--------|--------|--------|--------|--------|
G|--------|--------|--------|--------|--------|--------|--------|--------|--------|
D|--------|--------|--------|--------|--------|--------|--------|--------|--------|
A|--------|--------|--------|--------|--------|--------|--------|--------|--------|
E|--------|--------|--------|--------|--------|--------|--------|--------|--------|


E|--------|--------|--------|--------|--------|--------|--------|--------|--------|
B|--------|--------|--------|--------|--------|--------|--------|--------|--------|
G|--------|--------|--------|--------|--------|--------|--------|--------|--------|
D|--------|--------|--------|--------|--------|--------|--------|--------|--------|
A|--------|--------|--------|--------|--------|--------|--------|--------|--------|
E|--------|--------|--------|--------|--------|--------|--------|--------|--------|


E|--------|--------|--------|--------|--------|--------|--------|--------|--------|
B|--------|--------|--------|--------|--------|--------|--------|--------|--------|
G|--------|--------|--------|--------|--------|--------|--------|--------|--------|
D|--------|--------|--------|--------|--------|--------|--------|--------|--------|
A|--------|--------|--------|--------|--------|--------|--------|--------|--------|
E|--------|--------|--------|--------|--------|--------|--------|--------|--------|


E|--------|--------|--------|--------|--------|--------|--------|--------|--------|
B|--------|--------|--------|--------|--------|--------|--------|--------|--------|
G|--------|--------|--------|--------|--------|--------|--------|--------|--------|
D|--------|--------|--------|--------|--------|--------|--------|--------|--------|
A|--------|--------|--------|--------|--------|--------|--------|--------|--------|
E|--------|--------|--------|--------|--------|--------|--------|--------|--------|


E|--------|--------|--------|--------|--------|--------|--------|--------|--------|
B|--------|--------|--------|--------|--------|--------|--------|--------|--------|
G|--------|--------|--------|--------|--------|--------|--------|--------|--------|
D|--------|--------|--------|--------|--------|--------|--------|--------|--------|
A|--------|--------|--------|--------|--------|--------|--------|--------|--------|
E|--------|--------|--------|--------|--------|--------|--------|--------|--------|


E|--------|--------|--------|--------|--------|--------|--------|--------|--------|
B|--------|--------|--------|--------|--------|--------|--------|--------|--------|
G|--------|--------|--------|--------|--------|--------|--------|--------|--------|
D|--------|--------|--------|--------|--------|--------|--------|--------|--------|
A|--------|--------|--------|--------|--------|--------|--------|--------|--------|
E|--------|--------|--------|--------|--------|--------|--------|--------|--------|


E|--------|--------|--------|--------|--------|--------|--------|--------|--------|
B|--------|--------|--------|--------|--------|--------|--------|--------|--------|
G|--------|--------|--------|--------|--------|--------|--------|--------|--------|
D|--------|--------|--------|--------|--------|--------|--------|--------|--------|
A|--------|--------|--------|--------|--------|--------|--------|--------|--------|
E|--------|--------|--------|--------|--------|--------|--------|--------|--------|


E|--------|--------|--------|--------|--------|--------|--------|--------|--------|
B|--------|--------|--------|--------|--------|--------|--------|--------|--------|
G|--------|--------|--------|--------|--------|--------|--------|--------|--------|
D|--------|--------|--------|--------|--------|--------|--------|--------|--------|
A|--------|--------|--------|--------|--------|--------|--------|--------|--------|
E|--------|--------|--------|--------|--------|--------|--------|--------|--------|


E|--------|--------|--------|--------|--------|--------|--------|--------|--------|
B|--------|--------|--------|--------|--------|--------|--------|--------|--------|
G|--------|--------|--------|--------|--------|--------|--------|--------|--------|
D|--------|--------|--------|--------|--------|--------|--------|--------|--------|
A|--------|--------|--------|--------|--------|--------|--------|--------|--------|
E|--------|--------|--------|--------|--------|--------|--------|--------|--------|


E|--------|--------|--------|--------|--------|--------|--------|--------|--------|
B|--------|--------|--------|--------|--------|--------|--------|--------|--------|
G|--------|--------|--------|--------|--------|--------|--------|--------|--------|
D|--------|--------|--------|--------|--------|--------|--------|--------|--------|
A|--------|--------|--------|--------|--------|--------|--------|--------|--------|
E|--------|--------|--------|--------|--------|--------|--------|--------|--------|


E|--------|--------|--------|--------|--------|--------|--------|
B|--------|--------|--------|--------|--------|--------|--------|
G|--------|--------|--------|--------|--------|--------|--------|
D|--------|--------|--------|--------|--------|--------|--------|
A|--------|--------|--------|--------|--------|--------|--------|
E|--------|--------|--------|--------|--------|--------|--------|





Track 3: Untitled

E|--------|--------|--------|--------|--------|--------|--------|--------|--------|
B|--------|--------|--------|--------|--------|--------|--------|--------|--------|
G|--------|--------|--------|--------|--------|--------|--------|--------|--------|
D|--------|--------|--------|--------|--------|--------|--------|--------|--------|
A|--------|--------|--------|--------|--------|--------|--------|--------|--------|
E|--------|--------|--------|--------|--------|--------|--------|--------|--------|


E|--------|--------|--------|--------|--------|--------|--------|--------|--------|
B|--------|--------|--------|--------|--------|--------|--------|--------|--------|
G|--------|--------|--------|--------|--------|--------|--------|--------|--------|
D|--------|--------|--------|--------|--------|--------|--------|--------|--------|
A|--------|--------|--------|--------|--------|--------|--------|--------|--------|
E|--------|--------|--------|--------|--------|--------|--------|--------|--------|


E|--------|--------|--------|--------|--------|--------|--------|--------|--------|
B|--------|--------|--------|--------|--------|--------|--------|--------|--------|
G|--------|--------|--------|--------|--------|--------|--------|--------|--------|
D|--------|--------|--------|--------|--------|--------|--------|--------|--------|
A|--------|--------|--------|--------|--------|--------|--------|--------|--------|
E|--------|--------|--------|--------|--------|--------|--------|--------|--------|


E|--------|--------|--------|--------|--------|--------|--------|--------|--------|
B|--------|--------|--------|--------|--------|--------|--------|--------|--------|
G|--------|--------|--------|--------|--------|--------|--------|--------|--------|
D|--------|--------|--------|--------|--------|--------|--------|--------|--------|
A|--------|--------|--------|--------|--------|--------|--------|--------|--------|
E|--------|--------|--------|--------|--------|--------|--------|--------|--------|


E|--------|--------|--------|--------|--------|--------|--------|--------|--------|
B|--------|--------|--------|--------|--------|--------|--------|--------|--------|
G|--------|--------|--------|--------|--------|--------|--------|--------|--------|
D|--------|--------|--------|--------|--------|--------|--------|--------|--------|
A|--------|--------|--------|--------|--------|--------|--------|--------|--------|
E|--------|--------|--------|--------|--------|--------|--------|--------|--------|


E|--------|--------|--------|--------|--------|--------|--------|--------|--------|
B|--------|--------|--------|--------|--------|--------|--------|--------|--------|
G|--------|--------|--------|--------|--------|--------|--------|--------|--------|
D|--------|--------|--------|--------|--------|--------|--------|--------|--------|
A|--------|--------|--------|--------|--------|--------|--------|--------|--------|
E|--------|--------|--------|--------|--------|--------|--------|--------|--------|


E|--------|--------|--------|--------|--------|--------|--------|--------|--------|
B|--------|--------|--------|--------|--------|--------|--------|--------|--------|
G|--------|--------|--------|--------|--------|--------|--------|--------|--------|
D|--------|--------|--------|--------|--------|--------|--------|--------|--------|
A|--------|--------|--------|--------|--------|--------|--------|--------|--------|
E|--------|--------|--------|--------|--------|--------|--------|--------|--------|


E|--------|--------|--------|--------|--------|--------|--------|--------|--------|
B|--------|--------|--------|--------|--------|--------|--------|--------|--------|
G|--------|--------|--------|--------|--------|--------|--------|--------|--------|
D|--------|--------|--------|--------|--------|--------|--------|--------|--------|
A|--------|--------|--------|--------|--------|--------|--------|--------|--------|
E|--------|--------|--------|--------|--------|--------|--------|--------|--------|


E|--------|--------|--------|--------|--------|--------|--------|--------|--------|
B|--------|--------|--------|--------|--------|--------|--------|--------|--------|
G|--------|--------|--------|--------|--------|--------|--------|--------|--------|
D|--------|--------|--------|--------|--------|--------|--------|--------|--------|
A|--------|--------|--------|--------|--------|--------|--------|--------|--------|
E|--------|--------|--------|--------|--------|--------|--------|--------|--------|


E|--------|--------|--------|------0------|--------|--------|--------|--------|--------|
B|--------|--------|--------|-------------|--------|--------|--------|--------|--------|
G|--------|--------|--------|-------------|--------|--------|--------|--------|--------|
D|--------|--------|--------|-------------|--------|--------|--------|--------|--------|
A|--------|--------|--------|-------------|--------|--------|--------|--------|--------|
E|--------|--------|--------|-------------|--------|--------|--------|--------|--------|


E|--------|--------|--------|--------|--------|--------|--------|
B|--------|--------|--------|--------|--------|--------|--------|
G|--------|--------|--------|--------|--------|--------|--------|
D|--------|--------|--------|--------|--------|--------|--------|
A|--------|--------|--------|--------|--------|--------|--------|
E|--------|--------|--------|--------|--------|--------|--------|





Track 4: Untitled

E|--------|--------|--------|--------|--------|--------|--------|-------------|--------|
B|--------|--------|--------|--------|--------|--------|--------|-------------|--------|
G|--------|--------|--------|--------|--------|--------|-0------|-0----0------|--------|
D|--------|--------|--------|--------|--------|--------|--------|-------------|--------|
A|--------|--------|--------|--------|--------|--------|--------|-------------|--------|
E|--------|--------|--------|--------|--------|--------|--------|-------------|--------|


E|--------|--------|--------|--------|--------|--------|--------|--------|--------|
B|--------|--------|--------|--------|--------|--------|--------|--------|--------|
G|--------|--------|--------|--------|--------|--------|--------|--------|--------|
D|--------|--------|--------|--------|--------|--------|--------|--------|--------|
A|--------|--------|--------|--------|--------|--------|--------|--------|--------|
E|--------|--------|--------|--------|--------|--------|--------|--------|--------|


E|--------|--------|--------|--------|--------|--------|--------|--------|--------|
B|--------|--------|--------|--------|--------|--------|--------|--------|--------|
G|--------|--------|--------|--------|--------|--------|--------|--------|--------|
D|--------|--------|--------|--------|--------|--------|--------|--------|--------|
A|--------|--------|--------|--------|--------|--------|--------|--------|--------|
E|--------|--------|--------|--------|--------|--------|--------|--------|--------|


E|--------|--------|--------|--------|--------|--------|--------|--------|--------|
B|--------|--------|--------|--------|--------|--------|--------|--------|--------|
G|--------|--------|--------|--------|--------|--------|--------|--------|--------|
D|--------|--------|--------|--------|--------|--------|--------|--------|--------|
A|--------|--------|--------|--------|--------|--------|--------|--------|--------|
E|--------|--------|--------|--------|--------|--------|--------|--------|--------|


E|--------|--------|--------|--------|--------|--------|--------|-----------------|
B|--------|--------|--------|--------|--------|--------|--------|-----------------|
G|--------|--------|--------|--------|--------|--------|--------|-0-----0----0----|
D|--------|--------|--------|--------|--------|--------|--------|-----------------|
A|--------|--------|--------|--------|--------|--------|--------|-----------------|
E|--------|--------|--------|--------|--------|--------|--------|-----------------|


E|--------|--------|--------|--------|--------|--------|--------|--------|--------|
B|--------|--------|--------|--------|--------|--------|--------|--------|--------|
G|--------|--------|--------|--------|--------|--------|--------|--------|--------|
D|--------|--------|--------|--------|--------|--------|--------|--------|--------|
A|--------|--------|--------|--------|--------|--------|--------|--------|--------|
E|--------|--------|--------|--------|--------|--------|--------|--------|--------|


E|--------|--------|--------|--------|--------|--------|--------|--------|--------|
B|--------|--------|--------|--------|--------|--------|--------|--------|--------|
G|--------|--------|--------|--------|--------|--------|--------|--------|--------|
D|--------|--------|--------|--------|--------|--------|--------|--------|--------|
A|--------|--------|--------|--------|--------|--------|--------|--------|--------|
E|--------|--------|--------|--------|--------|--------|--------|--------|--------|


E|--------|--------|--------|--------|--------|--------|--------|--------|--------|
B|--------|--------|--------|--------|--------|--------|--------|--------|--------|
G|--------|--------|--------|--------|--------|--------|--------|--------|--------|
D|--------|--------|--------|--------|--------|--------|--------|--------|--------|
A|--------|--------|--------|--------|--------|--------|--------|--------|--------|
E|--------|--------|--------|--------|--------|--------|--------|--------|--------|


E|--------|--------|--------|--------|--------|--------|--------|---------------------------------|
B|--------|--------|--------|--------|--------|--------|--------|---------------------------------|
G|--------|--------|--------|--------|--------|--------|--------|-0---0---0---0---0---0---0---0---|
D|--------|--------|--------|--------|--------|--------|--------|---------------------------------|
A|--------|--------|--------|--------|--------|--------|--------|---------------------------------|
E|--------|--------|--------|--------|--------|--------|-5------|-5-------------------5-----------|


E|------------------------------|---------------------------------|------------------------------|
B|------------------------------|---------------------------------|------------------------------|
G|------------------------------|-0---0---0---0---0---0---0---0---|------0-----------------------|
D|------------------------------|---------------------------------|------------------------------|
A|------------------------------|---------------------------------|------------------------------|
E|-5----5---5---5---5---5---5---|---------------------5-----------|-5----5---5---5---5---5---5---|


E|-------------|------------------------------|-------------|--------|--------|--------|
B|-------------|------0-----------------------|-------0-----|--------|--------|--------|
G|-------------|------------------------------|-------------|--------|--------|--------|
D|-------------|------------------------------|-------------|--------|--------|--------|
A|-------------|------------------------------|-5-----------|--------|--------|--------|
E|-5-----5-----|-5----5---5---5---5---5---5---|-------------|--------|--------|--------|


E|--------|--------|--------|--------|--------|--------|--------|--------|--------|
B|--------|--------|--------|--------|--------|--------|--------|--------|--------|
G|--------|--------|--------|--------|--------|--------|--------|--------|--------|
D|--------|--------|--------|--------|--------|--------|--------|--------|--------|
A|--------|--------|--------|--------|--------|--------|--------|--------|--------|
E|--------|--------|--------|--------|--------|--------|--------|--------|--------|





Track 5: di

E|--------|--------|--------|--------|--------|--------|--------|-0------|--------|
B|--------|--------|--------|--------|--------|--------|--------|--------|--------|
G|--------|--------|--------|--------|--------|--------|--------|--------|--------|
D|--------|--------|--------|--------|--------|--------|--------|--------|--------|
A|--------|--------|--------|--------|--------|--------|--------|--------|--------|
E|--------|--------|--------|--------|--------|--------|--------|--------|--------|


E|--------|--------|--------|--------|--------|--------|--------|--------|--------|
B|--------|--------|--------|--------|--------|--------|--------|--------|--------|
G|--------|--------|--------|--------|--------|--------|--------|--------|--------|
D|--------|--------|--------|--------|--------|--------|--------|--------|--------|
A|--------|--------|--------|--------|--------|--------|--------|--------|--------|
E|--------|--------|--------|--------|--------|--------|--------|--------|--------|


E|--------|--------|--------|--------|--------|--------|--------|--------|--------|
B|--------|--------|--------|--------|--------|--------|--------|--------|--------|
G|--------|--------|--------|--------|--------|--------|--------|--------|--------|
D|--------|--------|--------|--------|--------|--------|--------|--------|--------|
A|--------|--------|--------|--------|--------|--------|--------|--------|--------|
E|--------|--------|--------|--------|--------|--------|--------|--------|--------|


E|--------|--------|--------|--------|--------|--------|--------|--------|--------|
B|--------|--------|--------|--------|--------|--------|--------|--------|--------|
G|--------|--------|--------|--------|--------|--------|--------|--------|--------|
D|--------|--------|--------|--------|--------|--------|--------|--------|--------|
A|--------|--------|--------|--------|--------|--------|--------|--------|--------|
E|--------|--------|--------|--------|--------|--------|--------|--------|--------|


E|--------|--------|--------|--------|--------|--------|--------|--------|--------|
B|--------|--------|--------|--------|--------|--------|--------|--------|--------|
G|--------|--------|--------|--------|--------|--------|--------|--------|--------|
D|--------|--------|--------|--------|--------|--------|--------|--------|--------|
A|--------|--------|--------|--------|--------|--------|--------|--------|--------|
E|--------|--------|--------|--------|--------|--------|--------|--------|--------|


E|--------|--------|--------|--------|--------|--------|--------|--------|--------|
B|--------|--------|--------|--------|--------|--------|--------|--------|--------|
G|--------|--------|--------|--------|--------|--------|--------|--------|--------|
D|--------|--------|--------|--------|--------|--------|--------|--------|--------|
A|--------|--------|--------|--------|--------|--------|--------|--------|--------|
E|--------|--------|--------|--------|--------|--------|--------|--------|--------|


E|--------|--------|--------|--------|--------|--------|--------|--------|--------|
B|--------|--------|--------|--------|--------|--------|--------|--------|--------|
G|--------|--------|--------|--------|--------|--------|--------|--------|--------|
D|--------|--------|--------|--------|--------|--------|--------|--------|--------|
A|--------|--------|--------|--------|--------|--------|--------|--------|--------|
E|--------|--------|--------|--------|--------|--------|--------|--------|--------|


E|--------|--------|--------|--------|--------|--------|--------|--------|--------|
B|--------|--------|--------|--------|--------|--------|--------|--------|--------|
G|--------|--------|--------|--------|--------|--------|--------|--------|--------|
D|--------|--------|--------|--------|--------|--------|--------|--------|--------|
A|--------|--------|--------|--------|--------|--------|--------|--------|--------|
E|--------|--------|--------|--------|--------|--------|--------|--------|--------|


E|--------|--------|--------|--------|--------|--------|--------|--------|--------|
B|--------|--------|--------|--------|--------|--------|--------|--------|--------|
G|--------|--------|--------|--------|--------|--------|--------|--------|--------|
D|--------|--------|--------|--------|--------|--------|--------|--------|--------|
A|--------|--------|--------|--------|--------|--------|--------|--------|--------|
E|--------|--------|--------|--------|--------|--------|--------|--------|--------|


E|--------|--------|--------|--------|--------|--------|--------|--------|--------|
B|--------|--------|--------|--------|--------|--------|--------|--------|--------|
G|--------|--------|--------|--------|--------|--------|--------|--------|--------|
D|--------|--------|--------|--------|--------|--------|--------|--------|--------|
A|--------|--------|--------|--------|--------|--------|--------|--------|--------|
E|--------|--------|--------|--------|--------|--------|--------|--------|--------|


E|--------|--------|--------|--------|--------|--------|--------|
B|--------|--------|--------|--------|--------|--------|--------|
G|--------|--------|--------|--------|--------|--------|--------|
D|--------|--------|--------|--------|--------|--------|--------|
A|--------|--------|--------|--------|--------|--------|--------|
E|--------|--------|--------|--------|--------|--------|--------|





Track 6: di

E|--------|--------|--------|--------|--------|--------|--------|--------|---------------------------------|
B|--------|--------|--------|--------|--------|--------|--------|--------|---------------------------------|
G|--------|--------|--------|--------|--------|--------|--------|--------|---------5---5---4---4---5---5---|
D|--------|--------|--------|--------|--------|--------|--------|--------|-2---2---------------------------|
A|--------|--------|--------|--------|--------|--------|--------|--------|---------------------------------|
E|--------|--------|--------|--------|--------|--------|--------|--------|---------------------------------|


E|---------------------------------|---------------------------------|---------------------|
B|---------------------------------|---------------------------------|---------------------|
G|---------5---5---4---4---5---5---|---------4---4---2---2---4---4---|---------------------|
D|-2---2---------------------------|-0---0---------------------------|-5----5----4----4----|
A|---------------------------------|---------------------------------|---------------------|
E|---------------------------------|---------------------------------|---------------------|


E|---------------------------------|---------------------------------|-12--12--15--15--14--14--15--15--|
B|---------------------------------|---------------------------------|---------------------------------|
G|---------5---5---4---4---5---5---|-7---7---7---7---9---9---9---9---|---------------------------------|
D|-2---2---------------------------|---------------------------------|---------------------------------|
A|---------------------------------|---------------------------------|---------------------------------|
E|---------------------------------|---------------------------------|---------------------------------|


E|---------15--15--14--14--15--15--|-------------------------------------------------|
B|-15--15--------------------------|-------------------------------------------------|
G|---------------------------------|-14-12-9--14-12-9--14-12-9--14-12-9--14-12-9--12-|
D|---------------------------------|-------------------------------------------------|
A|---------------------------------|-------------------------------------------------|
E|---------------------------------|-------------------------------------------------|


E|-------------------------------------------------|-------------------------------------------------|
B|-------------------------------------------------|-------------------------------------------------|
G|-14-12-9--14-12-9--14-12-9--14-12-9--14-12-9--12-|-17-12-9--17-12-9--17-12-9--17-12-9--17-12-9--12-|
D|-------------------------------------------------|-------------------------------------------------|
A|-------------------------------------------------|-------------------------------------------------|
E|-------------------------------------------------|-------------------------------------------------|


E|-------------------------------------------------|-------------------------------------------------|
B|-------------------------------------------------|-------------------------------------------------|
G|-16-12-9--16-12-9--16-12-9--16-12-9--16-12-9--12-|-14-12-9--14-12-9--14-12-9--14-12-9--14-12-9--12-|
D|-------------------------------------------------|-------------------------------------------------|
A|-------------------------------------------------|-------------------------------------------------|
E|-------------------------------------------------|-------------------------------------------------|


E|-------------------------------------------------|-------------------------------------------------|
B|-------------------------------------------------|-14-10-10-10-12-10-10-10-15-10-10-10-14-10-10-10-|
G|-14-12-9--14-12-9--14-12-9--14-12-9--14-12-9--12-|-------------------------------------------------|
D|-------------------------------------------------|-------------------------------------------------|
A|-------------------------------------------------|-------------------------------------------------|
E|-------------------------------------------------|-------------------------------------------------|


E|-10-7--7--7--9--7--7--7--12-7--7--7--10-7--7--7--|-------------------------------------------------|
B|-------------------------------------------------|-------------------------------------------------|
G|-------------------------------------------------|-14-12-9--14-12-9--14-12-9--14-12-9--14-12-9--12-|
D|-------------------------------------------------|-------------------------------------------------|
A|-------------------------------------------------|-------------------------------------------------|
E|-------------------------------------------------|-------------------------------------------------|


E|-------------------------------------------------|-------------------------------------------------|
B|-------------------------------------------------|-------------------------------------------------|
G|-14-12-9--14-12-9--14-12-9--14-12-9--14-12-9--12-|-17-12-9--17-12-9--17-12-9--17-12-9--17-12-9--12-|
D|-------------------------------------------------|-------------------------------------------------|
A|-------------------------------------------------|-------------------------------------------------|
E|-------------------------------------------------|-------------------------------------------------|


E|-------------------------------------------------|-------------------------------------------------|
B|-------------------------------------------------|-------------------------------------------------|
G|-16-12-9--16-12-9--16-12-9--16-12-9--16-12-9--12-|-14-12-9--14-12-9--14-12-9--14-12-9--14-12-9--12-|
D|-------------------------------------------------|-------------------------------------------------|
A|-------------------------------------------------|-------------------------------------------------|
E|-------------------------------------------------|-------------------------------------------------|


E|-------------------------------------------------|-------------------------------------------------|
B|-------------------------------------------------|-14-10-10-10-12-10-10-10-15-10-10-10-14-10-10-10-|
G|-14-12-9--14-12-9--14-12-9--14-12-9--14-12-9--12-|-------------------------------------------------|
D|-------------------------------------------------|-------------------------------------------------|
A|-------------------------------------------------|-------------------------------------------------|
E|-------------------------------------------------|-------------------------------------------------|


E|-10-7--7--7--9--7--7--7--12-7--7--7--10-7--7--7--|---------------------------------|
B|-------------------------------------------------|---------------------------------|
G|-------------------------------------------------|---------------------------------|
D|-------------------------------------------------|-2---2---2---2---2---2---2---2---|
A|-------------------------------------------------|-0---0---0---0---0---0---0---0---|
E|-------------------------------------------------|---------------------------------|


E|---------------------------------|---------------------------------|---------------------------------|
B|---------------------------------|---------------------------------|---------------------------------|
G|---------------------------------|---------------------------------|---------------------------------|
D|-2---2---2---4---4---2---2---2---|-5---5---5---5---5---5---5---5---|-7---7---7---7---7---7---7---7---|
A|-0---0---0---0---0---0---0---0---|-3---3---3---3---3---3---3---3---|-5---5---5---5---5---5---5---7---|
E|---------------------------------|---------------------------------|---------------------------------|


E|---------------------------------|---------------------------------|---------------------------------|
B|---------------------------------|---------------------------------|---------------------------------|
G|---------------------------------|---------------------------------|---------------------------------|
D|-2---2---2---2---2---2---2---2---|-2---2---2---4---4---2---2---2---|-5---5---5---5---5---5---5---5---|
A|-0---0---0---0---0---0---0---0---|-0---0---0---0---0---0---0---0---|-3---3---3---3---3---3---3---3---|
E|---------------------------------|---------------------------------|---------------------------------|


E|---------------------------------|--------|--------|-------------|---------------------|
B|---------------------------------|--------|--------|-------------|---------------------|
G|---------------------------------|--------|--------|-------------|---------------------|
D|-7---7---7---7---7---7---7---7---|-5------|-5------|-2----2------|-4----4----4----4----|
A|-5---5---5---5---5---5---5---7---|-3------|-3------|-0----0------|-2----2----2----2----|
E|---------------------------------|--------|--------|-------------|---------------------|


E|---------------------------------|---------------------------------|---------------------------------|
B|---------------------------------|---------------------------------|---------------------------------|
G|---------------------------------|---------------------------------|---------------------------------|
D|-2---2---2---2---2---2---2---2---|-2---2---2---4---4---2---2---2---|-5---5---5---5---5---5---5---5---|
A|-0---0---0---0---0---0---0---0---|-0---0---0---0---0---0---0---0---|-3---3---3---3---3---3---3---3---|
E|---------------------------------|---------------------------------|---------------------------------|


E|---------------------------------|---------------------------------|---------------------------------|
B|---------------------------------|---------------------------------|---------------------------------|
G|---------------------------------|---------------------------------|---------------------------------|
D|-7---7---7---7---7---7---7---7---|-2---2---2---2---2---2---2---2---|-2---2---2---4---4---2---2---2---|
A|-5---5---5---5---5---5---5---5---|-0---0---0---0---0---0---0---0---|-0---0---0---0---0---0---0---0---|
E|---------------------------------|---------------------------------|---------------------------------|


E|---------------------------------|---------------------------------|---------------------------------|
B|---------------------------------|---------------------------------|---------------------------------|
G|---------------------------------|---------------------------------|---------5---5---4---4---5---5---|
D|-5---5---5---5---5---5---5---5---|-7---7---7---7---7---7---7---7---|-2---2---------------------------|
A|-3---3---3---3---3---3---3---3---|-5---5---5---5---5---5---5---5---|---------------------------------|
E|---------------------------------|---------------------------------|---------------------------------|


E|---------------------|---------------------------------|---------------------|---------------------|
B|---------------------|---------------------------------|---------------------|---------------------|
G|---------------------|---------4---4---2---2---4---4---|---------------------|------5----4----5----|
D|------5----4----5----|-0---0---------------------------|-5----5----4----4----|-5-------------------|
A|-5-------------------|---------------------------------|---------------------|---------------------|
E|---------------------|---------------------------------|---------------------|---------------------|


E|---------------------------------|-12--12--15--15--14--14--15--15--|---------15--15--14--14--15--15--|
B|---------------------------------|---------------------------------|-15--15--------------------------|
G|-7---7---7---7---9---9---9---9---|---------------------------------|---------------------------------|
D|---------------------------------|---------------------------------|---------------------------------|
A|---------------------------------|---------------------------------|---------------------------------|
E|---------------------------------|---------------------------------|---------------------------------|


E|---------------------------------|---------------------------------|---------------------------------|
B|---------------------------------|---------------------------------|---------------------------------|
G|---------------------------------|---------------------------------|---------------------------------|
D|-5---5---5---5---5---5---5---5---|-5---5---5---5---5---5---5---5---|-9---9---9---9---9---9---9---9---|
A|-3---3---3---3---3---3---3---3---|-3---3---3---3---3---3---3---3---|-10--10--10--10--10--10--10--10--|
E|---------------------------------|---------------------------------|---------------------------------|


E|---------------------------------|---------------------------------|---------------------------------|
B|---------------------------------|---------------------------------|---------------------------------|
G|---------------------------------|---------------------------------|---------------------------------|
D|-7---7---7---7---7---7---7---7---|-5---5---5---5---5---5---5---5---|-5---5---5---5---5---5---5---5---|
A|-9---9---9---9---9---9---9---9---|-3---3---3---3---3---3---3---3---|-3---3---3---3---3---3---3---3---|
E|---------------------------------|---------------------------------|---------------------------------|


E|-------------------------------------------------|-------------------------------------------------|
B|-------------------------------------------------|-------------------------------------------------|
G|-------------------------------------------------|-------------------------------------------------|
D|-2-----2-----2-----2-----2-----2-----2-----2-----|-4-----4-----4-----4-----4-----4-----4-----4-----|
A|-0--0--0--0--0--0--0--0--0--0--0--0--0--0--0--0--|-2--2--2--2--2--2--2--2--2--2--2--2--2--2--2--2--|
E|-------------------------------------------------|-------------------------------------------------|


E|---------------------------------|---------------------------------|---------------------------------|
B|---------------------------------|---------------------------------|---------------------------------|
G|---------------------------------|---------------------------------|---------------------------------|
D|-5---5---5---5---5---5---5---5---|-5---5---5---5---5---5---5---5---|-9---9---9---9---9---9---9---9---|
A|-3---3---3---3---3---3---3---3---|-3---3---3---3---3---3---3---3---|-10--10--10--10--10--10--10--10--|
E|---------------------------------|---------------------------------|---------------------------------|


E|---------------------------------|---------------------------------|---------------------------------|
B|---------------------------------|---------------------------------|---------------------------------|
G|---------------------------------|---------------------------------|---------------------------------|
D|-7---7---7---7---7---7---7---7---|-5---5---5---5---5---5---5---5---|-5---5---5---5---5---5---5---5---|
A|-9---9---9---9---9---9---9---9---|-3---3---3---3---3---3---3---3---|-7---7---7---7---7---7---7---7---|
E|---------------------------------|---------------------------------|---------------------------------|


E|---------------------------------|-------------|--------|--------|--------|--------|
B|---------------------------------|-------------|--------|--------|--------|--------|
G|---------------------------------|-------------|--------|--------|--------|--------|
D|-2---2---2---2---2---2---2---2---|-4-----4-----|--------|--------|--------|--------|
A|-0---0---0---0---0---0---0---0---|-2-----2-----|--------|--------|--------|--------|
E|---------------------------------|-------------|--------|--------|--------|--------|


E|--------|--------|--------|--------|--------|---------------------------------|---------------------------------|
B|--------|--------|--------|--------|--------|---------------------------------|---------------------------------|
G|--------|--------|--------|--------|--------|---------------------------------|---------------------------------|
D|--------|--------|--------|--------|--------|-2---2---2---2---2---2---2---2---|-2---2---2---4---4---2---2---2---|
A|--------|--------|--------|--------|--------|-0---0---0---0---0---0---0---0---|-0---0---0---0---0---0---0---0---|
E|--------|--------|--------|--------|--------|---------------------------------|---------------------------------|


E|---------------------------------|---------------------------------|---------------------------------|
B|---------------------------------|---------------------------------|---------------------------------|
G|---------------------------------|---------------------------------|---------------------------------|
D|-5---5---5---5---5---5---5---5---|-7---7---7---7---7---7---7---7---|-2---2---2---2---2---2---2---2---|
A|-3---3---3---3---3---3---3---3---|-5---5---5---5---5---5---5---5---|-0---0---0---0---0---0---0---0---|
E|---------------------------------|---------------------------------|---------------------------------|


E|---------------------------------|---------------------------------|---------------------------------|
B|---------------------------------|---------------------------------|---------------------------------|
G|---------------------------------|---------------------------------|---------------------------------|
D|-2---2---2---4---4---2---2---2---|-5---5---5---5---5---5---5---5---|-7---7---7---7---7---7---7---7---|
A|-0---0---0---0---0---0---0---0---|-3---3---3---3---3---3---3---3---|-5---5---5---5---5---5---5---5---|
E|---------------------------------|---------------------------------|---------------------------------|


E|--------|--------|--------|--------|
B|--------|--------|--------|--------|
G|--------|--------|--------|--------|
D|--------|--------|--------|--------|
A|--------|--------|--------|--------|
E|--------|--------|--------|--------|





Track 7: Bass

G|--------|--------|--------|--------|--------|--------|--------|--------|--------|
D|--------|--------|--------|--------|--------|--------|--------|--------|--------|
A|--------|--------|--------|--------|--------|--------|--------|--------|--------|
E|--------|--------|--------|--------|--------|--------|--------|--------|--------|


G|--------|--------|--------|--------|--------|--------|--------|--------|--------|
D|--------|--------|--------|--------|--------|--------|--------|--------|--------|
A|--------|--------|--------|--------|--------|--------|--------|--------|--------|
E|--------|--------|--------|--------|--------|--------|--------|--------|--------|


G|--------|--------|--------|--------|--------|--------|--------|--------|--------|
D|--------|--------|--------|--------|--------|--------|--------|--------|--------|
A|--------|--------|--------|--------|--------|--------|--------|--------|--------|
E|--------|--------|--------|--------|--------|--------|--------|--------|--------|


G|--------|--------|--------|--------|--------|--------|--------|--------|--------|
D|--------|--------|--------|--------|--------|--------|--------|--------|--------|
A|--------|--------|--------|--------|--------|--------|--------|--------|--------|
E|--------|--------|--------|--------|--------|--------|--------|--------|--------|


G|--------|--------|--------|--------|--------|--------|--------|--------|--------|
D|--------|--------|--------|--------|--------|--------|--------|--------|--------|
A|--------|--------|--------|--------|--------|--------|--------|--------|--------|
E|--------|--------|--------|--------|--------|--------|--------|--------|--------|


G|--------|--------|--------|--------|--------|--------|--------|--------|--------|
D|--------|--------|--------|--------|--------|--------|--------|--------|--------|
A|--------|--------|--------|--------|--------|--------|--------|--------|--------|
E|--------|--------|--------|--------|--------|--------|--------|--------|--------|


G|--------|--------|--------|--------|--------|--------|--------|--------|--------|
D|--------|--------|--------|--------|--------|--------|--------|--------|--------|
A|--------|--------|--------|--------|--------|--------|--------|--------|--------|
E|--------|--------|--------|--------|--------|--------|--------|--------|--------|


G|--------|--------|--------|--------|--------|--------|--------|--------|--------|
D|--------|--------|--------|--------|--------|--------|--------|--------|--------|
A|--------|--------|--------|--------|--------|--------|--------|--------|--------|
E|--------|--------|--------|--------|--------|--------|--------|--------|--------|


G|--------|--------|--------|--------|--------|--------|--------|--------|--------|
D|--------|--------|--------|--------|--------|--------|--------|--------|--------|
A|--------|--------|--------|--------|--------|--------|--------|--------|--------|
E|--------|--------|--------|--------|--------|--------|--------|--------|--------|


G|--------|--------|--------|--------|--------|--------|--------|--------|------------------------------|
D|--------|--------|--------|--------|--------|--------|--------|--------|-2----2---2-------------------|
A|--------|--------|--------|--------|--------|--------|--------|--------|------------------0---2---3---|
E|--------|--------|--------|--------|--------|--------|--------|--------|------------------------------|


G|------------------------------|------------------------------|---------------------------------|
D|-2----2---2-------------------|-5----5---5-------------------|-7---7---7---5---5---7---7---7---|
A|------------------0---2---3---|------------------0---3---5---|---------------------------------|
E|------------------------------|------------------------------|---------------------------------|


G|------------------------------|------------------------------|------------------------------|
D|-2----2---2-------------------|-2----2---2-------------------|-5----5---5-------------------|
A|------------------0---2---3---|------------------0---2---3---|------------------0---3---5---|
E|------------------------------|------------------------------|------------------------------|


G|---------------------------------|
D|-7---7---7---5---5---7---7---7---|
A|---------------------------------|
E|---------------------------------|





Track 8: Drum

 B|--------|--------|--------|--------|--------|--------|--------|-----------------------------------------------|
F#|--------|--------|--------|--------|--------|--------|--------|-----------------------------------------------|
 D|--------|--------|--------|--------|--------|--------|--------|-4--4--4--4--4---4--4--5--5--5--5--5--5--5--5--|
 A|--------|--------|--------|--------|--------|--------|--------|-5--5--5--5--5---5--4--4--4--4--4--4--4--4--4--|
 E|--------|--------|--------|--------|--------|--------|--------|-----------------------------------------------|
 B|--------|--------|--------|--------|--------|--------|--------|-----------------------------------------------|


 B|---------------------------------|---------------------------------|-----------------------------------|
F#|---------5---------------5-------|---------5---------------5-------|-----------3---------------3-------|
 D|-4---4---5---4-------4---5---4---|-----4---5---4-------4---5---4---|-2--2--2---3---2-------2---3---2---|
 A|-3---3-------3-------3-------3---|-----3-------3-------3-------3---|-1--1--1-------1-------1-------1---|
 E|---------------------------------|---------------------------------|-----------------------------------|
 B|---------------------------------|---------------------------------|-----------------------------------|


 B|---------------------------------|---------------------------------|-----------------------------------|
F#|---------5---------------5-------|-----5---------------5-----------|-----5---------------5-------------|
 D|-----4---5---4-------4---5---4---|-4---5---4-------4---5---4-------|-4---5---4-------4---5---4---2--2--|
 A|-----3-------3-------3-------3---|-3-------3-------3-------3-------|-3-------3-------3-------3---1--1--|
 E|---------------------------------|---------------------------------|-----------------------------------|
 B|---------------------------------|---------------------------------|-----------------------------------|


 B|-----------------------------------|-----------------------------------------------|
F#|-----3---------------3-------------|-----------------------------------------------|
 D|-2---3---2-------2---3---2---4--4--|-4--4--4--4--4---4--4--5--5--5--5--5--5--5--5--|
 A|-1-------1-------1-------1---5--5--|-5--5--5--5--5---5--4--4--4--4--4--4--4--4--4--|
 E|-----------------------------------|-----------------------------------------------|
 B|-----------------------------------|-----------------------------------------------|


 B|---------------------------------|---------------------------------|---------------------------------|
F#|---------3---------------3-------|---------3---------------3-------|---------3---------------3-------|
 D|---------5---------------5-------|---------5---------------5-------|---------5---------------5-------|
 A|-2---2-------2---2---2-------2---|-2---2-------2---2---2-------2---|-2---2-------2---2---2-------2---|
 E|-1---1-------1---1---1-------1---|-1---1-------1---1---1-------1---|-1---1-------1---1---1-------1---|
 B|---------------------------------|---------------------------------|---------------------------------|


 B|---------------------------------|---------------------------------|---------------------------------|
F#|---------3---------------3-------|---------3---------------3-------|---------3---------------3-------|
 D|---------5---------------5-------|---------5---------------5-------|---------5---------------5-------|
 A|-2---2-------2---2---2-------2---|-2---2-------2---2---2-------2---|-2---2-------2---2---2-------2---|
 E|-1---1-------1---1---1-------1---|-1---1-------1---1---1-------1---|-1---1-------1---1---1-------1---|
 B|---------------------------------|---------------------------------|---------------------------------|


 B|---------------------------------|---------------------------------|---------------------------------|
F#|---------3---------------3-------|---------3---------------3-------|---------3---------------3-------|
 D|---------5---------------5-------|---------5---------------5-------|---------5---------------5-------|
 A|-2---2-------2---2---2-------2---|-2---2-------2---2---2-------2---|-2---2-------2---2---2-------2---|
 E|-1---1-------1---1---1-------1---|-1---1-------1---1---1-------1---|-1---1-------1---1---1-------1---|
 B|---------------------------------|---------------------------------|---------------------------------|


 B|---------------------------------|---------------------------------|---------------------------------|
F#|---------3---------------3-------|---------3---------------3-------|---------3---------------3-------|
 D|---------5---------------5-------|---------5---------------5-------|---------5---------------5-------|
 A|-2---2-------2---2---2-------2---|-2---2-------2---2---2-------2---|-2---2-------2---2---2-------2---|
 E|-1---1-------1---1---1-------1---|-1---1-------1---1---1-------1---|-1---1-------1---1---1-------1---|
 B|---------------------------------|---------------------------------|---------------------------------|


 B|---------------------------------|---------------------------------|---------------------------------|
F#|---------3---------------3-------|---------3---------------3-------|---------3---------------3-------|
 D|---------5---------------5-------|---------5---------------5-------|---------5---------------5-------|
 A|-2---2-------2---2---2-------2---|-2---2-------2---2---2-------2---|-2---2-------2---2---2-------2---|
 E|-1---1-------1---1---1-------1---|-1---1-------1---1---1-------1---|-1---1-------1---1---1-------1---|
 B|---------------------------------|---------------------------------|---------------------------------|


 B|---------------------------------|---------------------------------|---------------------------------|
F#|---------3---------------3-------|---------5---------------5-------|---------5---------------5-------|
 D|---------5---------------5-------|-4---4---5---4-------4---5---4---|-----4---5---4-------4---5---4---|
 A|-2---2-------2---2---2-------2---|-3---3-------3-------3-------3---|-----3-------3-------3-------3---|
 E|-1---1-------1---1---1-------1---|---------------------------------|---------------------------------|
 B|---------------------------------|---------------------------------|---------------------------------|


 B|-----------------------------------|---------------------------------|---------------------------------|
F#|-----------3---------------3-------|---------5---------------5-------|---------5---------------5-------|
 D|-2--2--2---3---2-------2---3---2---|-----4---5---4-------4---5---4---|-4---4---5---4-------4---5---4---|
 A|-1--1--1-------1-------1-------1---|-----3-------3-------3-------3---|-3---3-------3-------3-------3---|
 E|-----------------------------------|---------------------------------|---------------------------------|
 B|-----------------------------------|---------------------------------|---------------------------------|


 B|---------------------------------|-----------------------------------|-----------------------------------------------|
F#|---------5---------------5-------|-----------3---------------3-------|-----------------------------------------------|
 D|-----4---5---4-------4---5---4---|-2--2--2---3---2-------2---3---2---|-4--4--4--4--4---4--4--2--2--2--2--2--2--2--2--|
 A|-----3-------3-------3-------3---|-1--1--1-------1-------1-------1---|-5--5--5--5--5---5--5--4--4--4--4--4--4--4--4--|
 E|---------------------------------|-----------------------------------|-----------------------------------------------|
 B|---------------------------------|-----------------------------------|-----------------------------------------------|


 B|---------------------------------|---------------------------------|-----------------------------------|
F#|---------5---------------5-------|---------5---------------5-------|-----------3---------------3-------|
 D|-4---4---5---4-------4---5---4---|-----4---5---4-------4---5---4---|-2--2--2---3---2-------2---3---2---|
 A|-3---3-------3-------3-------3---|-----3-------3-------3-------3---|-1--1--1-------1-------1-------1---|
 E|---------------------------------|---------------------------------|-----------------------------------|
 B|---------------------------------|---------------------------------|-----------------------------------|


 B|---------------------------------|---------------------------------|---------------------------------|
F#|---------5---------------5-------|---------5---------------5-------|---------5---------------5-------|
 D|-----4---5---4-------4---5---4---|-4---4---5---4-------4---5---4---|-----4---5---4-------4---5---4---|
 A|-----3-------3-------3-------3---|-3---3-------3-------3-------3---|-----3-------3-------3-------3---|
 E|---------------------------------|---------------------------------|---------------------------------|
 B|---------------------------------|---------------------------------|---------------------------------|


 B|-----------------------------------|-----------------------------------------------|
F#|-----------3---------------3-------|-----------------------------------------------|
 D|-2--2--2---3---2-------2---3---2---|-4--4--4--4--4---4--4--2--2--2--2--2--2--2--2--|
 A|-1--1--1-------1-------1-------1---|-5--5--5--5--5---5--5--4--4--4--4--4--4--4--4--|
 E|-----------------------------------|-----------------------------------------------|
 B|-----------------------------------|-----------------------------------------------|


 B|---------------------------------|---------------------------------|-----------------------------------|
F#|---------5---------------5-------|---------5---------------5-------|-----------3---------------3-------|
 D|-4---4---5---4-------4---5---4---|-----4---5---4-------4---5---4---|-2--2--2---3---2-------2---3---2---|
 A|-3---3-------3-------3-------3---|-----3-------3-------3-------3---|-1--1--1-------1-------1-------1---|
 E|---------------------------------|---------------------------------|-----------------------------------|
 B|---------------------------------|---------------------------------|-----------------------------------|


 B|---------------------------------|---------------------------------|---------------------------------|
F#|---------5---------------5-------|---------5---------------5-------|---------5---------------5-------|
 D|-----4---5---4-------4---5---4---|-4---4---5---4-------4---5---4---|-----4---5---4-------4---5---4---|
 A|-----3-------3-------3-------3---|-3---3-------3-------3-------3---|-----3-------3-------3-------3---|
 E|---------------------------------|---------------------------------|---------------------------------|
 B|---------------------------------|---------------------------------|---------------------------------|


 B|-----------------------------------|-----------------------------------------------|
F#|-----------3---------------3-------|-----------------------------------------------|
 D|-2--2--2---3---2-------2---3---2---|-4--4--4--4--4---4--4--2--2--2--2--2--2--2--2--|
 A|-1--1--1-------1-------1-------1---|-5--5--5--5--5---5--5--4--4--4--4--4--4--4--4--|
 E|-----------------------------------|-----------------------------------------------|
 B|-----------------------------------|-----------------------------------------------|


 B|---------------------------------|---------------------------------|-----------------------------------|
F#|---------5---------------5-------|---------5---------------5-------|-----------3---------------3-------|
 D|-4---4---5---4-------4---5---4---|-----4---5---4-------4---5---4---|-2--2--2---3---2-------2---3---2---|
 A|-3---3-------3-------3-------3---|-----3-------3-------3-------3---|-1--1--1-------1-------1-------1---|
 E|---------------------------------|---------------------------------|-----------------------------------|
 B|---------------------------------|---------------------------------|-----------------------------------|


 B|---------------------------------|---------------------------------|---------------------------------|
F#|---------5---------------5-------|---------5---------------5-------|---------5---------------5-------|
 D|-----4---5---4-------4---5---4---|-4---4---5---4-------4---5---4---|-----4---5---4-------4---5---4---|
 A|-----3-------3-------3-------3---|-3---3-------3-------3-------3---|-----3-------3-------3-------3---|
 E|---------------------------------|---------------------------------|---------------------------------|
 B|---------------------------------|---------------------------------|---------------------------------|


 B|-----------------------------------|-----------------------------------------------|
F#|-----------3---------------3-------|-----------------------------------------------|
 D|-2--2--2---3---2-------2---3---2---|-4--4--4--4--4---4--4--2--2--2--2--2--2--2--2--|
 A|-1--1--1-------1-------1-------1---|-5--5--5--5--5---5--5--4--4--4--4--4--4--4--4--|
 E|-----------------------------------|-----------------------------------------------|
 B|-----------------------------------|-----------------------------------------------|


 B|---------------------------------|---------------------------------|-----------------------------------|
F#|---------5---------------5-------|---------5---------------5-------|-----------3---------------3-------|
 D|-4---4---5---4-------4---5---4---|-----4---5---4-------4---5---4---|-2--2--2---3---2-------2---3---2---|
 A|-3---3-------3-------3-------3---|-----3-------3-------3-------3---|-1--1--1-------1-------1-------1---|
 E|---------------------------------|---------------------------------|-----------------------------------|
 B|---------------------------------|---------------------------------|-----------------------------------|


 B|---------------------------------|---------------------------------|---------------------------------|
F#|---------5---------------5-------|---------5---------------5-------|---------5---------------5-------|
 D|-----4---5---4-------4---5---4---|-4---4---5---4-------4---5---4---|-----4---5---4-------4---5---4---|
 A|-----3-------3-------3-------3---|-3---3-------3-------3-------3---|-----3-------3-------3-------3---|
 E|---------------------------------|---------------------------------|---------------------------------|
 B|---------------------------------|---------------------------------|---------------------------------|


 B|-----------------------------------|-----------------------------------------------|
F#|-----------3---------------3-------|-----------------------------------------------|
 D|-2--2--2---3---2-------2---3---2---|-4--4--4--4--4---4--4--2--2--2--2--2--2--2--2--|
 A|-1--1--1-------1-------1-------1---|-5--5--5--5--5---5--5--4--4--4--4--4--4--4--4--|
 E|-----------------------------------|-----------------------------------------------|
 B|-----------------------------------|-----------------------------------------------|


 B|---------------------------------|---------------------------------|-----------------------------------|
F#|---------5---------------5-------|---------5---------------5-------|-----------3---------------3-------|
 D|-4---4---5---4-------4---5---4---|-----4---5---4-------4---5---4---|-2--2--2---3---2-------2---3---2---|
 A|-3---3-------3-------3-------3---|-----3-------3-------3-------3---|-1--1--1-------1-------1-------1---|
 E|---------------------------------|---------------------------------|-----------------------------------|
 B|---------------------------------|---------------------------------|-----------------------------------|


 B|---------------------------------|---------------------------------|---------------------------------|
F#|---------5---------------5-------|---------5---------------5-------|---------5---------------5-------|
 D|-----4---5---4-------4---5---4---|-4---4---5---4-------4---5---4---|-----4---5---4-------4---5---4---|
 A|-----3-------3-------3-------3---|-3---3-------3-------3-------3---|-----3-------3-------3-------3---|
 E|---------------------------------|---------------------------------|---------------------------------|
 B|---------------------------------|---------------------------------|---------------------------------|


 B|-----------------------------------|-----------------------------------------------|
F#|-----------3---------------3-------|-----------------------------------------------|
 D|-2--2--2---3---2-------2---3---2---|-4--4--4--4--4---4--4--2--2--2--2--2--2--2--2--|
 A|-1--1--1-------1-------1-------1---|-5--5--5--5--5---5--5--4--4--4--4--4--4--4--4--|
 E|-----------------------------------|-----------------------------------------------|
 B|-----------------------------------|-----------------------------------------------|


 B|--------|--------|--------|--------|--------|--------|--------|--------|-----------------------------------------------|
F#|--------|--------|--------|--------|--------|--------|--------|--------|-----------------------------------------------|
 D|--------|--------|--------|--------|--------|--------|--------|--------|-4--4--4--4--4---4--4--2--2--2--2--2--2--2--2--|
 A|--------|--------|--------|--------|--------|--------|--------|--------|-5--5--5--5--5---5--5--4--4--4--4--4--4--4--4--|
 E|--------|--------|--------|--------|--------|--------|--------|--------|-----------------------------------------------|
 B|--------|--------|--------|--------|--------|--------|--------|--------|-----------------------------------------------|


 B|---------------------------------|---------------------------------|-----------------------------------|
F#|---------5---------------5-------|---------5---------------5-------|-----------3---------------3-------|
 D|-4---4---5---4-------4---5---4---|-----4---5---4-------4---5---4---|-2--2--2---3---2-------2---3---2---|
 A|-3---3-------3-------3-------3---|-----3-------3-------3-------3---|-1--1--1-------1-------1-------1---|
 E|---------------------------------|---------------------------------|-----------------------------------|
 B|---------------------------------|---------------------------------|-----------------------------------|


 B|---------------------------------|---------------------------------|---------------------------------|
F#|---------5---------------5-------|---------5---------------5-------|---------5---------------5-------|
 D|-----4---5---4-------4---5---4---|-4---4---5---4-------4---5---4---|-----4---5---4-------4---5---4---|
 A|-----3-------3-------3-------3---|-3---3-------3-------3-------3---|-----3-------3-------3-------3---|
 E|---------------------------------|---------------------------------|---------------------------------|
 B|---------------------------------|---------------------------------|---------------------------------|


 B|-----------------------------------|---------------------------------------------|
F#|-----------3---------------3-------|---------------------------------------------|
 D|-2--2--2---3---2-------2---3---2---|-4---4--4--4---4--4--4--2--2--2--2--2--2--2--|
 A|-1--1--1-------1-------1-------1---|-5---5--5--5---5--5--5--4--4--4--4--4--4--4--|
 E|-----------------------------------|---------------------------------------------|
 B|-----------------------------------|---------------------------------------------|