Menu:

 

Search:

 

justin roth - see the world:

 



Title: See The World
Artist: 
Album: LifeScapes  'Solo Guitar'
Author: Justin Roth


Track 1: Untitled

C|--------------12-------------|--------|--------|-------------|--------|--------|
B|-----------12------12--------|--------|--------|--------5----|-5------|-5------|
G|--------12--------------12---|--------|--------|--------5----|-5------|-5------|
D|-----------------------------|--------|--------|-------------|--------|--------|
G|-----7-----------------------|-7------|-7------|-------------|--------|--------|
C|-----------------------------|--------|-12-----|-12----------|-12-----|-12-----|


C|-----------------------0---|-0------------------2---|-2-----2---------0---|-0---------------|
B|-------------------0-------|-----0------------------|------------3--------|-------0-----0---|
G|-----------0---2-----------|----------2----0--------|-------0-------------|-----------------|
D|-------0-------------------|------------------------|---------------------|-----------------|
G|-0-------------------------|-0----------------------|---------------------|-----------------|
C|---------------------------|------------------------|-4-------------------|-4---------------|


C|-----------------------|--------------------|------------------------------|---------------------------|
B|-3-----3---1---0---1---|-1-----0---1---0----|-3--------1-------0-----------|---------------------------|
G|-0-----0-----------0---|-0-----0------------|--------------------------2---|-2------------2---4---0----|
D|-0-----0---------------|-------0------------|------------------------------|----------0----------------|
G|-----------------------|--------------------|------------------------------|---------------------------|
C|-------0---------------|-0------------------|-2----2-------2-------2-------|-2----2--------------------|


C|-----------------------0---|-0------------------2---|-2---------2---4---2---2---|
B|-------------------0-------|-----0------------------|---------------------------|
G|-----------0---2-----------|----------2----0--------|-------0---0-----------0---|
D|-------0-------------------|------------------------|---------------------------|
G|-0-------------------------|-0----------------------|---------------------------|
C|---------------------------|------------------------|-4-------------------------|


C|-2------|-7-----7---6---4---2---|-2-----2---4-----|-2--------0-------------|------------------------|
B|--------|-0-----0---0-----------|-------0---0-----|---------------0--------|------------------------|
G|-0------|-0-----0---0-----------|-------0---0-----|-0------------------2---|-2---------2---4---0----|
D|--------|-----------------------|-----------------|------------------------|-------0----------------|
G|--------|-----------------------|-----------------|------------------------|------------------------|
C|-4------|-------0---------------|-0-----0---------|-2----2-----------------|-2----------------------|


C|---------------------|--------2----|-2-----0-------------|--------|---------------------|
B|----------------3----|-3-----------|------------0--------|--------|----------------3----|
G|-------0-------------|-------------|----------------0----|-0------|-------0-------------|
D|-4-------------------|-------------|---------------------|--------|-4-------------------|
G|---------------------|-------------|---------------------|--------|---------------------|
C|-4---------4---------|-4-----------|-0-------------------|-0------|-4---------4---------|


C|------------2--4----|-4-----2-----2----|-2------7----|-7-----6----4---2----|-2------|
B|-3----------0--0----|-0-----0-----0----|-0-----------|-0-----0----0---0----|-0------|
G|--------------------|------------------|-------------|---------------------|--------|
D|--------------------|------------------|-------------|---------------------|--------|
G|--------------------|------------------|-------------|---------------------|--------|
C|-4-----4----0-------|-0----------------|-0-----------|-0-------------------|-0------|


C|-0------|-0------|-0------------------0---|-0-------------------|-0------------------0---|
B|--------|--------|------0-----------------|-------0-------------|------0-----------------|
G|--------|--------|----------0-------------|-----------0---------|----------0-------------|
D|--------|--------|---------------0--------|----------------0----|---------------0--------|
G|--------|--------|-0----------------------|-0-------------------|------------------------|
C|--------|--------|------------------------|---------------------|-4----------------------|


C|-0-------------------|-0------------------0---|-0-------------------|-0----------------------|
B|-------0-------------|------0-----------------|-------0-------------|------0-----------------|
G|-----------0---------|----------0-------------|-----------0---------|----------0---------2---|
D|----------------0----|---------------0--------|----------------0----|---------------0--------|
G|---------------------|------------------------|---------------------|------------------------|
C|-4-------------------|-0----------------------|-0-------------------|-2----------------------|


C|---------------------|-0------------------0---|-0-------------------|-0------------------0---|
B|---------------------|------0-----------------|-------0-------------|------0-----------------|
G|-2-----0--------0----|----------0-------------|-----------0---------|----------0-------------|
D|-----------0---------|---------------0--------|----------------0----|---------------0--------|
G|---------------------|-0----------------------|-0-------------------|------------------------|
C|-2-------------------|------------------------|---------------------|-4----------------------|


C|-0-------------------|-0------------------0---|-0-------------------|-0----------------------|
B|-------0-------------|------0-----------------|-------0-------------|------0-----------------|
G|-----------0---------|----------0-------------|-----------0---------|----------0---------2---|
D|----------------0----|---------------0--------|----------------0----|---------------0--------|
G|---------------------|------------------------|---------------------|------------------------|
C|-4-------------------|-0----------------------|-0-------------------|-2----------------------|


C|---------------------|------------------------------|------------------------------|
B|---------------------|------------------------------|------------------------------|
G|-2-----0--------0----|-0------------0---2-------4---|-4----------------------------|
D|-----------0---------|----------0-------------------|----------12------------------|
G|---------------------|-0----0-------0-------0-------|-0---0------------------------|
C|-2-------------------|------------------------------|--------------14--11--7---7---|


C|-----------0------------------|------------------------|------0-----------------|
B|-------------------0----------|------------------------|------------------------|
G|-0-------------------------0--|-0----------------------|-5--------4----0----2---|
D|------------------------------|------------------------|------------------------|
G|------------------------------|------------------------|------------------------|
C|-4----4-------4-------4-------|-4----4----4----4---4---|-0------------------0---|


C|-----------------|------0-----------------|---------------------|------------------------------|
B|-----------------|------------------------|---------------------|------------------------------|
G|-2-----0----2----|-5--------4----0----2---|-2-----0--------0----|-0------------0---2-------4---|
D|-----------------|------------------------|-----------0---------|----------0-------------------|
G|-----------------|------------------------|---------------------|-0----0-------0-------0-------|
C|-0---------------|-2----------------------|-2-------------------|------------------------------|


C|------------------------------|-----------0------------------|------------------------|
B|------------------------------|-------------------0----------|------------------------|
G|-4----------------------------|-0-------------------------0--|-0----------------------|
D|----------12------------------|------------------------------|------------------------|
G|-0---0------------------------|------------------------------|------------------------|
C|--------------14--11--7---7---|-4----4-------4-------4-------|-4----4----4----4---4---|


C|------0-----------------|-----------------|-0----0-----------------|---------------------|
B|------------------------|-----------------|------------------------|---------------------|
G|-5--------4----0----2---|-2-----0----2----|----------4----0----2---|-2-----0--------0----|
D|------------------------|-----------------|------------------------|-----------4---------|
G|------------------------|-----------------|------------------------|---------------------|
C|-0------------------0---|-0---------------|-2----------------------|-2-------------------|


C|----------------2----|-2----------2----|-2-----0-------------|--------|----------------2----|
B|----------------3----|-3----------0----|-0----------0--------|--------|----------------3----|
G|-------0-------------|-----------------|----------------0----|-0------|-------0-------------|
D|-4-------------------|-----------------|---------------------|--------|-4-------------------|
G|---------------------|-----------------|---------------------|--------|---------------------|
C|-4---------4---------|-4-----4---------|-0-------------------|-0------|-4---------4---------|


C|-2----------2---4---|-4-----2-----2----|-2------7----|-7-----6----4---2----|-2-----0-----|
B|-3----------0---0---|-0-----0-----0----|-0-----------|-0-----0----0---0----|-0-----------|
G|--------------------|------------------|-------------|---------------------|-------------|
D|--------------------|------------------|-------------|---------------------|-------------|
G|--------------------|------------------|-------------|---------------------|-------------|
C|-4-----4------------|-0----------------|-0-----------|-0-------------------|-0-----------|


C|-0------------------0---|-0-------------------|-0------------------0---|-0-------------------|
B|------0-----------------|-------0-------------|------0-----------------|-------0-------------|
G|----------0-------------|-----------0---------|----------0-------------|-----------0---------|
D|---------------0--------|----------------0----|---------------0--------|----------------0----|
G|-0----------------------|-0-------------------|------------------------|---------------------|
C|------------------------|---------------------|-4----------------------|-4-------------------|


C|-0------------------0---|-0-------------------|-0----------------------|---------------------|
B|------0-----------------|-------0-------------|------0-----------------|---------------------|
G|----------0-------------|-----------0---------|----------0---------2---|-2-----0--------0----|
D|---------------0--------|----------------0----|---------------0--------|-----------0---------|
G|------------------------|---------------------|------------------------|---------------------|
C|-0----------------------|-0-------------------|-2----------------------|-2-------------------|


C|-0------------------0---|-0-------------------|-0------------------0---|-0-------------------|
B|------0-----------------|-------0-------------|------0-----------------|-------0-------------|
G|----------0-------------|-----------0---------|----------0-------------|-----------0---------|
D|---------------0--------|----------------0----|---------------0--------|----------------0----|
G|-0----------------------|-0-------------------|------------------------|---------------------|
C|------------------------|---------------------|-4----------------------|-4-------------------|


C|-0------------------0---|-0-------------------|-0----------------------|---------------------|
B|------0-----------------|-------0-------------|------0-----------------|---------------------|
G|----------0-------------|-----------0---------|----------0---------2---|-2-----0--------0----|
D|---------------0--------|----------------0----|---------------0--------|-----------0---------|
G|------------------------|---------------------|------------------------|---------------------|
C|-0----------------------|-0-------------------|-2----------------------|-2-------------------|


C|------------------------------|------------------------------|-----------0------------------|
B|------------------------------|------------------------------|-------------------0----------|
G|-0------------0---2-------4---|-4----------------------------|-0-------------------------0--|
D|----------0-------------------|----------12------------------|------------------------------|
G|-0----0-------0-------0-------|-0---0------------------------|------------------------------|
C|------------------------------|--------------14--11--7---7---|-4----4-------4-------4-------|


C|------------------------|------0-----------------|-----------------|------0-----------------|
B|------------------------|------------------------|-----------------|------------------------|
G|-0----------------------|-5--------4----0----2---|-2-----0----2----|-5--------4----0----2---|
D|------------------------|------------------------|-----------------|------------------------|
G|------------------------|------------------------|-----------------|------------------------|
C|-4----4----4----4---4---|-0------------------0---|-0---------------|-2----------------------|


C|---------------------|------------------------------|------------------------------|
B|---------------------|------------------------------|------------------------------|
G|-2-----0--------0----|-0------------0---2-------4---|-4----------------------------|
D|-----------0---------|----------0-------------------|----------12------------------|
G|---------------------|-0----0-------0-------0-------|-0---0------------------------|
C|-2-------------------|------------------------------|--------------14--11--7---7---|


C|-----------0------------------|------------------------|------0-----------------|
B|-------------------0----------|------------------------|------------------------|
G|-0-------------------------0--|-0----------------------|-5--------4----0----2---|
D|------------------------------|------------------------|------------------------|
G|------------------------------|------------------------|------------------------|
C|-4----4-------4-------4-------|-4----4----4----4---4---|-0------------------0---|


C|-----------------|-0----0-----------------|---------------------|----------------2----|
B|-----------------|------------------------|---------------------|----------------3----|
G|-2-----0----2----|----------4----0----2---|-2-----0--------0----|-------0-------------|
D|-----------------|------------------------|-----------4---------|-4-------------------|
G|-----------------|------------------------|---------------------|---------------------|
C|-0---------------|-2----------------------|-2-------------------|-4---------4---------|


C|-2----------2----|-2-----0-------------|--------|----------------2----|-2----------2---4---|
B|-3----------0----|-0----------0--------|--------|----------------3----|-3----------0---0---|
G|-----------------|----------------0----|-0------|-------0-------------|--------------------|
D|-----------------|---------------------|--------|-4-------------------|--------------------|
G|-----------------|---------------------|--------|---------------------|--------------------|
C|-4-----4---------|-0-------------------|-0------|-4---------4---------|-4-----4------------|


C|-4-----2-----2----|-2---------------|---------------------|------------------------|
B|-0-----0-----0----|-0---------------|-8-----8--------7----|-7----------------------|
G|------------------|-----------------|-0-----0---0----0----|-0----------------------|
D|------------------|-----------------|---------------------|------------------------|
G|------------------|-----------------|---------------------|------------------------|
C|-0----------------|-0-----0----0----|-0-------------------|-0----0----0----0---0---|


C|-4-----4--------2----|-2-------------------|------------------------|--------------------|
B|-5-----5--------3----|-3-------------------|-1--------1---0----0----|-0----------0-------|
G|-0-----0--------0----|-0-------------------|-2--------2---0----0----|-0----------0-------|
D|-0-----0--------0----|-0-------------------|------------------------|--------------------|
G|---------------------|---------------------|------------------------|--------------------|
C|-2-------------------|-2----2----2----0----|-4----4---4-------------|-4-----4----4---5---|


C|------------0----|-0------|-0------|--------|-0------------------0---|-0-------------------|
B|------------1----|-1------|-0------|-0------|------0-----------------|-------0-------------|
G|-7-----7----2----|-2------|-2------|--------|----------0-------------|-----------0---------|
D|-7---------------|--------|--------|--------|---------------0--------|----------------0----|
G|-------7---------|--------|--------|--------|-0----------------------|-0-------------------|
C|-6---------------|--------|--------|--------|------------------------|---------------------|


C|-0------------------0---|-0-------------------|-0------------------0---|-0-------------------|
B|------0-----------------|-------0-------------|------0-----------------|-------0-------------|
G|----------0-------------|-----------0---------|----------0-------------|-----------0---------|
D|---------------0--------|----------------0----|---------------0--------|----------------0----|
G|------------------------|---------------------|------------------------|---------------------|
C|-4----------------------|-4-------------------|-0----------------------|-0-------------------|


C|-0----------------------|---------------------|-0------------------0---|-0-------------------|
B|------0-----------------|---------------------|------0-----------------|-------0-------------|
G|----------0---------2---|-2-----0--------0----|----------0-------------|-----------0---------|
D|---------------0--------|-----------0---------|---------------0--------|----------------0----|
G|------------------------|---------------------|-0----------------------|-0-------------------|
C|-2----------------------|-2-------------------|------------------------|---------------------|


C|-0------------------0---|-0-------------------|-0------------------0---|-0-------------------|
B|------0-----------------|-------0-------------|------0-----------------|-------0-------------|
G|----------0-------------|-----------0---------|----------0-------------|-----------0---------|
D|---------------0--------|----------------0----|---------------0--------|----------------0----|
G|------------------------|---------------------|------------------------|---------------------|
C|-4----------------------|-4-------------------|-0----------------------|-0-------------------|


C|-0----------------------|---------------------|------------------------------|------------------------------|
B|------0-----------------|---------------------|------------------------------|------------------------------|
G|----------0---------2---|-2-----0--------0----|-0------------0---2-------4---|-4----------------------------|
D|---------------0--------|-----------0---------|----------0-------------------|----------12------------------|
G|------------------------|---------------------|-0----0-------0-------0-------|-0---0------------------------|
C|-2----------------------|-2-------------------|------------------------------|--------------14--11--7---7---|


C|-----------0------------------|------------------------|------0-----------------|
B|-------------------0----------|------------------------|------------------------|
G|-0-------------------------0--|-0----------------------|-5--------4----0----2---|
D|------------------------------|------------------------|------------------------|
G|------------------------------|------------------------|------------------------|
C|-4----4-------4-------4-------|-4----4----4----4---4---|-0------------------0---|


C|-----------------|------0-----------------|---------------------|------------------------------|
B|-----------------|------------------------|---------------------|------------------------------|
G|-2-----0----2----|-5--------4----0----2---|-2-----0--------0----|-0------------0---2-------4---|
D|-----------------|------------------------|-----------0---------|----------0-------------------|
G|-----------------|------------------------|---------------------|-0----0-------0-------0-------|
C|-0---------------|-2----------------------|-2-------------------|------------------------------|


C|------------------------------|-----------0------------------|------------------------|
B|------------------------------|-------------------0----------|------------------------|
G|-4----------------------------|-0-------------------------0--|-0----------------------|
D|----------12------------------|------------------------------|------------------------|
G|-0---0------------------------|------------------------------|------------------------|
C|--------------14--11--7---7---|-4----4-------4-------4-------|-4----4----4----4---4---|


C|------0-----------------|-----------------|-0----0-----------------|---------------------|
B|------------------------|-----------------|------------------------|---------------------|
G|-5--------4----0----2---|-2-----0----2----|----------4----0----2---|-2-----0--------0----|
D|------------------------|-----------------|------------------------|-----------4---------|
G|------------------------|-----------------|------------------------|---------------------|
C|-0------------------0---|-0---------------|-2----------------------|-2-------------------|


C|----------------2----|-2----------2----|-2-----0-------------|--------|----------------2----|
B|----------------3----|-3----------0----|-0----------0--------|--------|----------------3----|
G|-------0-------------|-----------------|----------------0----|-0------|-------0-------------|
D|-4-------------------|-----------------|---------------------|--------|-4-------------------|
G|---------------------|-----------------|---------------------|--------|---------------------|
C|-4---------4---------|-4-----4---------|-0-------------------|-0------|-4---------4---------|


C|-2----------2---4---|-4-----2-----2----|-2------7----|-7-----6----4---2----|-2-----0-----|
B|-3----------0---0---|-0-----0-----0----|-0-----------|-0-----0----0---0----|-0-----------|
G|--------------------|------------------|-------------|---------------------|-------------|
D|--------------------|------------------|-------------|---------------------|-------------|
G|--------------------|------------------|-------------|---------------------|-------------|
C|-4-----4------------|-0----------------|-0-----------|-0-------------------|-0-----------|


C|-4-----2-----2----|-2---------------|---------------------|------------------------|
B|-0-----0-----0----|-0---------------|-8-----8--------7----|-7----------------------|
G|------------------|-----------------|-0-----0---0----0----|-0----------------------|
D|------------------|-----------------|---------------------|------------------------|
G|------------------|-----------------|---------------------|------------------------|
C|-0----------------|-0-----0----0----|-0-------------------|-0----0----0----0---0---|


C|-4-----4--------2----|-2-------------------|------------------------|--------------------|
B|-5-----5--------3----|-3-------------------|-1--------1---0----0----|-0----------0-------|
G|-0-----0--------0----|-0-------------------|-2--------2---0----0----|-0----------0-------|
D|-0-----0--------0----|-0-------------------|------------------------|--------------------|
G|---------------------|---------------------|------------------------|--------------------|
C|-2-------------------|-2----2----2----0----|-4----4---4-------------|-4-----4----4---5---|


C|------------0----|-0------|-0------|--------|-------------------------0---|-0------------------2---|
B|------------1----|-1------|-0------|-0------|---------------------0-------|-----0------------------|
G|-7-----7----2----|-2------|-2------|--------|-------------0---2-----------|----------2----0--------|
D|-7---------------|--------|--------|--------|--------0--------------------|------------------------|
G|-------7---------|--------|--------|--------|-0---------------------------|-0----------------------|
C|-6---------------|--------|--------|--------|-----------------------------|------------------------|


C|-2---------------0---|-0---------------|-----------------------|--------------------|
B|------------3--------|-------0-----0---|-3-----3---1---0---1---|-1-----0---1---0----|
G|-------0-------------|-----------------|-0-----0-----------0---|-0-----0------------|
D|---------------------|-----------------|-0-----0---------------|-------0------------|
G|---------------------|-----------------|-----------------------|--------------------|
C|-4-------------------|-4---------------|-------0---------------|-0------------------|


C|------------------------------|---------------------------|-----------------------0---|
B|-3--------1-------0-----------|---------------------------|-------------------0-------|
G|--------------------------2---|-2------------2---4---0----|-----------0---2-----------|
D|------------------------------|----------0----------------|-------0-------------------|
G|------------------------------|---------------------------|-0-------------------------|
C|-2----2-------2-------2-------|-2----2--------------------|---------------------------|


C|-0------------------2---|-2---------2---4---2---2---|-2------|-7-----7---6---4---2---|
B|-----0------------------|---------------------------|--------|-0-----0---0-----------|
G|----------2----0--------|-------0---0-----------0---|-0------|-0-----0---0-----------|
D|------------------------|---------------------------|--------|-----------------------|
G|-0----------------------|---------------------------|--------|-----------------------|
C|------------------------|-4-------------------------|-4------|-------0---------------|


C|-2-----2---4-----|-2--------0-------------|------------------------|---------------------|
B|-------0---0-----|---------------0--------|------------------------|----------------3----|
G|-------0---0-----|-0------------------2---|-2---------2---4---0----|-------0-------------|
D|-----------------|------------------------|-------0----------------|-4-------------------|
G|-----------------|------------------------|------------------------|---------------------|
C|-0-----0---------|-2----2-----------------|-2----------------------|-4---------4---------|


C|--------2----|-2-----0-------------|--------|---------------------|------------2--4----|
B|-3-----------|------------0--------|--------|----------------3----|-3----------0--0----|
G|-------------|----------------0----|-0------|-------0-------------|--------------------|
D|-------------|---------------------|--------|-4-------------------|--------------------|
G|-------------|---------------------|--------|---------------------|--------------------|
C|-4-----------|-0-------------------|-0------|-4---------4---------|-4-----4----0-------|


C|-4-----2-----2----|-2---------------|---------------------|------------------------|
B|-0-----0-----0----|-0---------------|-8-----8--------7----|-7----------------------|
G|------------------|-----------------|-0-----0---0----0----|-0----------------------|
D|------------------|-----------------|---------------------|------------------------|
G|------------------|-----------------|---------------------|------------------------|
C|-0----------------|-0-----0----0----|-0-------------------|-0----0----0----0---0---|


C|-4-----4--------2----|-2-------------------|------------------------|--------------------|
B|-5-----5--------3----|-3-------------------|-1--------1---0----0----|-0----------0-------|
G|-0-----0--------0----|-0-------------------|-2--------2---0----0----|-0----------0-------|
D|-0-----0--------0----|-0-------------------|------------------------|--------------------|
G|---------------------|---------------------|------------------------|--------------------|
C|-2-------------------|-2----2----2----0----|-4----4---4-------------|-4-----4----4---5---|


C|------------0----|-0------|-0-----------|--------|--------|-0------------------0---|
B|------------1----|-1------|-1-----0-----|-0------|-0------|------0-----------------|
G|-7-----7----2----|-2------|-2-----------|--------|--------|----------0-------------|
D|-7---------------|--------|-------------|--------|--------|---------------0--------|
G|-------7---------|--------|-------------|--------|--------|-0----------------------|
C|-6---------------|--------|-------------|--------|--------|------------------------|


C|-0-------------------|-0------------------0---|-0-------------------|-0------------------0---|
B|-------0-------------|------0-----------------|-------0-------------|------0-----------------|
G|-----------0---------|----------0-------------|-----------0---------|----------0-------------|
D|----------------0----|---------------0--------|----------------0----|---------------0--------|
G|-0-------------------|------------------------|---------------------|------------------------|
C|---------------------|-4----------------------|-4-------------------|-0----------------------|


C|-0-------------------|-0----------------------|---------------------|-0------------------0---|
B|-------0-------------|------0-----------------|---------------------|------0-----------------|
G|-----------0---------|----------0---------2---|-2-----0--------0----|----------0-------------|
D|----------------0----|---------------0--------|-----------0---------|---------------0--------|
G|---------------------|------------------------|---------------------|-0----------------------|
C|-0-------------------|-2----------------------|-2-------------------|------------------------|


C|-0-------------------|-0------------------0---|-0-------------------|-0------------------0---|
B|-------0-------------|------0-----------------|-------0-------------|------0-----------------|
G|-----------0---------|----------0-------------|-----------0---------|----------0-------------|
D|----------------0----|---------------0--------|----------------0----|---------------0--------|
G|-0-------------------|------------------------|---------------------|------------------------|
C|---------------------|-4----------------------|-4-------------------|-0----------------------|


C|-0-------------------|-0----------------------|---------------------|------------------------------|
B|-------0-------------|------0-----------------|---------------------|------------------------------|
G|-----------0---------|----------0---------2---|-2-----0--------0----|-0------------0---2-------4---|
D|----------------0----|---------------0--------|-----------0---------|----------0-------------------|
G|---------------------|------------------------|---------------------|-0----0-------0-------0-------|
C|-0-------------------|-2----------------------|-2-------------------|------------------------------|


C|------------------------------|-----------0------------------|---------------------|
B|------------------------------|-------------------0----------|---------------------|
G|-4----------------------------|-0-------------------------0--|-0-------------------|
D|----------12------------------|------------------------------|---------------------|
G|-0---0------------------------|------------------------------|---------------------|
C|--------------14--11--7---7---|-4----4-------4-------4-------|-4----4----4----4----|


C|------0-----------------|-----------------|------0-----------------|---------------------|
B|------------------------|-----------------|------------------------|---------------------|
G|-5--------4----0----2---|-2-----0----2----|-5--------4----0----2---|-2-----0--------0----|
D|------------------------|-----------------|------------------------|-----------0---------|
G|------------------------|-----------------|------------------------|---------------------|
C|-0------------------0---|-0---------------|-2----------------------|-2-------------------|


C|------------------------------|------------------------------|-----------0------------------|
B|------------------------------|------------------------------|-------------------0----------|
G|-0------------0---2-------4---|-4----------------------------|-0-------------------------0--|
D|----------0-------------------|----------12------------------|------------------------------|
G|-0----0-------0-------0-------|-0---0------------------------|------------------------------|
C|------------------------------|--------------14--11--7---7---|-4----4-------4-------4-------|


C|---------------------|------0-----------------|-----------------|------0-----------------|
B|---------------------|------------------------|-----------------|------------------------|
G|-0-------------------|-5--------4----0----2---|-2-----0----2----|-5--------4----0----2---|
D|---------------------|------------------------|-----------------|------------------------|
G|---------------------|------------------------|-----------------|------------------------|
C|-4----4----4----4----|-0------------------0---|-0---------------|-2----------------------|


C|---------------------|----------------2----|-2----------2----|-2-----0-------------|
B|---------------------|----------------3----|-3----------0----|-0----------0--------|
G|-2-----0--------0----|-------0-------------|-----------------|----------------0----|
D|-----------4---------|-4-------------------|-----------------|---------------------|
G|---------------------|---------------------|-----------------|---------------------|
C|-2-------------------|-4---------4---------|-4-----4---------|-0-------------------|


C|--------|----------------2----|-2----------2---4---|-4-----2-----2----|-2---------------|
B|--------|----------------3----|-3----------0---0---|-0-----0-----0----|-0---------------|
G|-0------|-------0-------------|--------------------|------------------|-----------------|
D|--------|-4-------------------|--------------------|------------------|-----------------|
G|--------|---------------------|--------------------|------------------|-----------------|
C|-0------|-4---------4---------|-4-----4------------|-0----------------|-0-----0----0----|


C|---------------------|------------------------|-4-----4--------2----|-2-------------------|
B|-8-----8--------7----|-7----------------------|-5-----5--------3----|-3-------------------|
G|-0-----0---0----0----|-0----------------------|-0-----0--------0----|-0-------------------|
D|---------------------|------------------------|-0-----0--------0----|-0-------------------|
G|---------------------|------------------------|---------------------|---------------------|
C|-0-------------------|-0----0----0----0---0---|-2-------------------|-2----2----2----0----|


C|------------------------|--------------------|------------0----|-0------|-0------|
B|-1--------1---0----0----|-0----------0-------|------------1----|-1------|-0------|
G|-2--------2---0----0----|-0----------0-------|-7-----7----2----|-2------|-2------|
D|------------------------|--------------------|-7---------------|--------|--------|
G|------------------------|--------------------|-------7---------|--------|--------|
C|-4----4---4-------------|-4-----4----4---5---|-6---------------|--------|--------|


C|-0------------------0---|-0-------------------|-0------------------0---|-0-------------------|
B|------0-----------------|-------0-------------|------0-----------------|-------0-------------|
G|----------0-------------|-----------0---------|----------0-------------|-----------0---------|
D|---------------0--------|----------------0----|---------------0--------|----------------0----|
G|-0----------------------|-0-------------------|------------------------|---------------------|
C|------------------------|---------------------|-4----------------------|-4-------------------|


C|-0------------------0---|-0-------------------|-0----------------------|---------------------|
B|------0-----------------|-------0-------------|------0-----------------|---------------------|
G|----------0-------------|-----------0---------|----------0---------2---|-2-----0--------0----|
D|---------------0--------|----------------0----|---------------0--------|-----------0---------|
G|------------------------|---------------------|------------------------|---------------------|
C|-0----------------------|-0-------------------|-2----------------------|-2-------------------|


C|-0------------------0---|-0-------------------|-0------------------0---|-0-------------------|
B|------0-----------------|-------0-------------|------0-----------------|-------0-------------|
G|----------0-------------|-----------0---------|----------0-------------|-----------0---------|
D|---------------0--------|----------------0----|---------------0--------|----------------0----|
G|-0----------------------|-0-------------------|------------------------|---------------------|
C|------------------------|---------------------|-4----------------------|-4-------------------|


C|-0------------------0---|-0-------------------|-0----------------------|---------------------|
B|------0-----------------|-------0-------------|------0-----------------|---------------------|
G|----------0-------------|-----------0---------|----------0---------2---|-2-----0--------0----|
D|---------------0--------|----------------0----|---------------0--------|-----------0---------|
G|------------------------|---------------------|------------------------|---------------------|
C|-0----------------------|-0-------------------|-2----------------------|-2-------------------|


C|-0------------------0---|-0-------------------|-0------------------0---|-0-------------------|
B|------0-----------------|-------0-------------|------0-----------------|-------0-------------|
G|----------0-------------|-----------0---------|----------0-------------|-----------0---------|
D|---------------0--------|----------------0----|---------------0--------|----------------0----|
G|-0----------------------|-0-------------------|------------------------|---------------------|
C|------------------------|---------------------|-4----------------------|-4-------------------|


C|-0------------------0---|-0-------------------|-0----------------------|---------------------|
B|------0-----------------|-------0-------------|------0-----------------|---------------------|
G|----------0-------------|-----------0---------|----------0---------2---|-2-----0--------0----|
D|---------------0--------|----------------0----|---------------0--------|-----------0---------|
G|------------------------|---------------------|------------------------|---------------------|
C|-0----------------------|-0-------------------|-2----------------------|-2-------------------|


C|-0------------------0---|-0-------------------|-0------------------0---|-0-------------------|
B|------0-----------------|-------0-------------|------0-----------------|-------0-------------|
G|----------0-------------|-----------0---------|----------0-------------|-----------0---------|
D|---------------0--------|----------------0----|---------------0--------|----------------0----|
G|-0----------------------|-0-------------------|------------------------|---------------------|
C|------------------------|---------------------|-4----------------------|-4-------------------|


C|-0------------------0---|-0-------------------|-0----------------------|---------------------|
B|------0-----------------|-------0-------------|------0-----------------|---------------------|
G|----------0-------------|-----------0---------|----------0---------2---|-2-----0--------0----|
D|---------------0--------|----------------0----|---------------0--------|-----------0---------|
G|------------------------|---------------------|------------------------|---------------------|
C|-0----------------------|-0-------------------|-2----------------------|-2-------------------|





Track 2: Untitled

G|--------|--------|--------|--------|--------|--------|--------|--------|--------|
D|--------|--------|--------|--------|--------|--------|--------|--------|--------|
A|--------|--------|--------|--------|--------|--------|--------|--------|--------|
E|--------|--------|--------|--------|--------|--------|--------|--------|--------|


G|--------|--------|--------|--------|--------|--------|--------|--------|--------|
D|--------|--------|--------|--------|--------|--------|--------|--------|--------|
A|--------|--------|--------|--------|--------|--------|--------|--------|--------|
E|--------|--------|--------|--------|--------|--------|--------|--------|--------|


G|--------|--------|--------|--------|--------|--------|--------|--------|--------|
D|--------|--------|--------|--------|--------|--------|--------|--------|--------|
A|--------|--------|--------|--------|--------|--------|--------|--------|--------|
E|--------|--------|--------|--------|--------|--------|--------|--------|--------|


G|--------|--------|--------|--------|--------|--------|--------|--------|--------|
D|--------|--------|--------|--------|--------|--------|--------|--------|--------|
A|--------|--------|--------|--------|--------|--------|--------|--------|--------|
E|--------|--------|--------|--------|--------|--------|--------|--------|--------|


G|--------|--------|--------|--------|--------|--------|--------|--------|--------|
D|--------|--------|--------|--------|--------|--------|--------|--------|--------|
A|--------|--------|--------|--------|--------|--------|--------|--------|--------|
E|--------|--------|--------|--------|--------|--------|--------|--------|--------|


G|--------|--------|--------|--------|--------|--------|--------|--------|--------|
D|--------|--------|--------|--------|--------|--------|--------|--------|--------|
A|--------|--------|--------|--------|--------|--------|--------|--------|--------|
E|--------|--------|--------|--------|--------|--------|--------|--------|--------|


G|--------|--------|--------|--------|--------|--------|--------|--------|--------|
D|--------|--------|--------|--------|--------|--------|--------|--------|--------|
A|--------|--------|--------|--------|--------|--------|--------|--------|--------|
E|--------|--------|--------|--------|--------|--------|--------|--------|--------|


G|--------|--------|--------|--------|--------|--------|--------|--------|--------|
D|--------|--------|--------|--------|--------|--------|--------|--------|--------|
A|--------|--------|--------|--------|--------|--------|--------|--------|--------|
E|--------|--------|--------|--------|--------|--------|--------|--------|--------|


G|--------|--------|--------|--------|--------|--------|--------|--------|--------|
D|--------|--------|--------|--------|--------|--------|--------|--------|--------|
A|--------|--------|--------|--------|--------|--------|--------|--------|--------|
E|--------|--------|--------|--------|--------|--------|--------|--------|--------|


G|--------|--------|--------|--------|--------|--------|--------|--------|--------|
D|--------|--------|--------|--------|--------|--------|--------|--------|--------|
A|--------|--------|--------|--------|--------|--------|--------|--------|--------|
E|--------|--------|--------|--------|--------|--------|--------|--------|--------|


G|--------|--------|--------|--------|--------|--------|--------|--------|--------|
D|--------|--------|--------|--------|--------|--------|--------|--------|--------|
A|--------|--------|--------|--------|--------|--------|--------|--------|--------|
E|--------|--------|--------|--------|--------|--------|--------|--------|--------|


G|--------|--------|--------|--------|--------|--------|--------|--------|--------|
D|--------|--------|--------|--------|--------|--------|--------|--------|--------|
A|--------|--------|--------|--------|--------|--------|--------|--------|--------|
E|--------|--------|--------|--------|--------|--------|--------|--------|--------|


G|--------|--------|--------|--------|--------|--------|--------|--------|--------|
D|--------|--------|--------|--------|--------|--------|--------|--------|--------|
A|--------|--------|--------|--------|--------|--------|--------|--------|--------|
E|--------|--------|--------|--------|--------|--------|--------|--------|--------|


G|--------|--------|--------|--------|--------|--------|--------|--------|--------|
D|--------|--------|--------|--------|--------|--------|--------|--------|--------|
A|--------|--------|--------|--------|--------|--------|--------|--------|--------|
E|--------|--------|--------|--------|--------|--------|--------|--------|--------|


G|--------|--------|--------|--------|--------|--------|--------|--------|--------|
D|--------|--------|--------|--------|--------|--------|--------|--------|--------|
A|--------|--------|--------|--------|--------|--------|--------|--------|--------|
E|--------|--------|--------|--------|--------|--------|--------|--------|--------|


G|--------|--------|--------|--------|--------|--------|--------|--------|--------|
D|--------|--------|--------|--------|--------|--------|--------|--------|--------|
A|--------|--------|--------|--------|--------|--------|--------|--------|--------|
E|--------|--------|--------|--------|--------|--------|--------|--------|--------|


G|--------|--------|--------|--------|--------|--------|--------|--------|--------|
D|--------|--------|--------|--------|--------|--------|--------|--------|--------|
A|--------|--------|--------|--------|--------|--------|--------|--------|--------|
E|--------|--------|--------|--------|--------|--------|--------|--------|--------|


G|--------|--------|--------|--------|--------|--------|--------|--------|--------|
D|--------|--------|--------|--------|--------|--------|--------|--------|--------|
A|--------|--------|--------|--------|--------|--------|--------|--------|--------|
E|--------|--------|--------|--------|--------|--------|--------|--------|--------|


G|--------|--------|--------|--------|--------|--------|--------|--------|--------|
D|--------|--------|--------|--------|--------|--------|--------|--------|--------|
A|--------|--------|--------|--------|--------|--------|--------|--------|--------|
E|--------|--------|--------|--------|--------|--------|--------|--------|--------|


G|--------|--------|--------|--------|--------|--------|--------|--------|--------|
D|--------|--------|--------|--------|--------|--------|--------|--------|--------|
A|--------|--------|--------|--------|--------|--------|--------|--------|--------|
E|--------|--------|--------|--------|--------|--------|--------|--------|--------|


G|--------|--------|--------|--------|--------|--------|--------|--------|--------|
D|--------|--------|--------|--------|--------|--------|--------|--------|--------|
A|--------|--------|--------|--------|--------|--------|--------|--------|--------|
E|--------|--------|--------|--------|--------|--------|--------|--------|--------|


G|--------|--------|--------|--------|--------|--------|--------|--------|--------|
D|--------|--------|--------|--------|--------|--------|--------|--------|--------|
A|--------|--------|--------|--------|--------|--------|--------|--------|--------|
E|--------|--------|--------|--------|--------|--------|--------|--------|--------|


G|--------|--------|--------|--------|--------|--------|--------|--------|--------|
D|--------|--------|--------|--------|--------|--------|--------|--------|--------|
A|--------|--------|--------|--------|--------|--------|--------|--------|--------|
E|--------|--------|--------|--------|--------|--------|--------|--------|--------|


G|--------|--------|--------|--------|--------|--------|--------|--------|--------|
D|--------|--------|--------|--------|--------|--------|--------|--------|--------|
A|--------|--------|--------|--------|--------|--------|--------|--------|--------|
E|--------|--------|--------|--------|--------|--------|--------|--------|--------|


G|--------|--------|--------|--------|--------|--------|--------|--------|--------|
D|--------|--------|--------|--------|--------|--------|--------|--------|--------|
A|--------|--------|--------|--------|--------|--------|--------|--------|--------|
E|--------|--------|--------|--------|--------|--------|--------|--------|--------|


G|--------|--------|--------|--------|--------|--------|--------|--------|--------|
D|--------|--------|--------|--------|--------|--------|--------|--------|--------|
A|--------|--------|--------|--------|--------|--------|--------|--------|--------|
E|--------|--------|--------|--------|--------|--------|--------|--------|--------|


G|--------|--------|--------|--------|--------|--------|--------|--------|--------|
D|--------|--------|--------|--------|--------|--------|--------|--------|--------|
A|--------|--------|--------|--------|--------|--------|--------|--------|--------|
E|--------|--------|--------|--------|--------|--------|--------|--------|--------|


G|--------|--------|--------|--------|--------|--------|--------|--------|--------|
D|--------|--------|--------|--------|--------|--------|--------|--------|--------|
A|--------|--------|--------|--------|--------|--------|--------|--------|--------|
E|--------|--------|--------|--------|--------|--------|--------|--------|--------|


G|--------|--------|--------|--------|--------|--------|--------|--------|--------|
D|--------|--------|--------|--------|--------|--------|--------|--------|--------|
A|--------|--------|--------|--------|--------|--------|--------|--------|--------|
E|--------|--------|--------|--------|--------|--------|--------|--------|--------|


G|--------|--------|--------|--------|--------|--------|--------|--------|--------|
D|--------|--------|--------|--------|--------|--------|--------|--------|--------|
A|--------|--------|--------|--------|--------|--------|--------|--------|--------|
E|--------|--------|--------|--------|--------|--------|--------|--------|--------|


G|--------|--------|--------|--------|--------|--------|--------|--------|--------|
D|--------|--------|--------|--------|--------|--------|--------|--------|--------|
A|--------|--------|--------|--------|--------|--------|--------|--------|--------|
E|--------|--------|--------|--------|--------|--------|--------|--------|--------|


G|--------|--------|--------|--------|--------|--------|--------|--------|--------|
D|--------|--------|--------|--------|--------|--------|--------|--------|--------|
A|--------|--------|--------|--------|--------|--------|--------|--------|--------|
E|--------|--------|--------|--------|--------|--------|--------|--------|--------|


G|--------|--------|--------|--------|--------|--------|--------|--------|
D|--------|--------|--------|--------|--------|--------|--------|--------|
A|--------|--------|--------|--------|--------|--------|--------|--------|
E|--------|--------|--------|--------|--------|--------|--------|--------|