Menu:

 

Search:

 

journey - lights:

 



Title: Lights
Artist: 
Album: Infinity
Author: Neal Schon


Track 1: Gtr.I

E|---------------------------------|--------------------------------|--------------------------------------|
B|-------------7-------------------|-----7--------------------------|---------------------2--3--2--2-------|
G|-----7-------9---7---------------|-----9--7------7------------9---|-7---7-----------2----------------2---|
D|---------------------9-----------|-7---------7----------------7---|-----9-------2------------------------|
A|-9-------9-------------------9---|-------------------9----9-------|---------0----------------------------|
E|-------------------------7-------|--------------------------------|--------------------------------------|


E|-----------------------------------|---------------------------------|------------------|
B|-----------------------------------|---------------------------------|------------------|
G|-------------9--7--7---------------|-----9-------------------7---7---|------7-----------|
D|---------7-------------------------|-10------10----------7-----------|------------------|
A|-----9-------------------------10--|-------------10--9---------------|------------------|
E|-7-------------------------8-------|---------------------------------|------------------|


E|---------------------------|---------------------------|---------------------------------|
B|---------------------------|---------------------------|---------------------------------|
G|-------9---7---------------|-----7-------------5-------|-----5-------5-------7---5-------|
D|---------------9-----------|-9-----------------5-------|-----5-------5-------5-----------|
A|-9---------------------9---|--------------7--------7---|---------7-------7-----------7---|
E|-------------------7-------|---------------------------|---------------------------------|


E|---------------------------|---------------------------|---------------------------------|
B|---------------------------|---------------------------|---------------------------------|
G|---------------------------|-----7-------------5-------|-----5-------5-------7---5---2---|
D|-------9---7---------------|-9-----------------5-------|-----5-------5-------------------|
A|-9-------------9-------9---|--------------7--------7---|---------7-------7---------------|
E|-------------------7-------|---------------------------|---------------------------------|


E|------------------------|---------------------------|---------------------------|
B|------------------------|---------------------------|---------------------------|
G|-------9----------------|-----7-------------5-------|-----5---7-----5---2-------|
D|-----------9------------|-------------------5-------|-----5-----------------4---|
A|-9----------------------|----------9---7--------7---|---------------------------|
E|------------------------|---------------------------|---------------------------|


E|---------------------------------|---------------------------------|------3---2-------------|
B|---------------------------------|---------------------------------|------3-------3---3-----|
G|-------------7-------------------|-----9-------------------7---7---|------2-------2---2-----|
D|---------7-------7---------------|-10------10----------7-----------|------0-----------------|
A|-----9---------------9-------10--|-------------10--9---------------|------------------------|
E|-7-----------------------8-------|---------------------------------|------------------------|


E|---------------------------|---------------------------|---------------------------|
B|---------------------------|---------------------------|---------------------------|
G|-------9---7---------------|-----7-------------5-------|-----5---7-----5---2-------|
D|---------------9-----------|-9-----------------5-------|-----5---------------------|
A|-9----------------------9--|--------------7--------7---|---------------------------|
E|-------------------7-------|---------------------------|---------------------------|


E|---------------------------|---------------------------|------------------------------|
B|---------------------------|---------------------------|------------------------------|
G|-------9-------------------|-----7-------------5-------|-----5---7---5---7---5--------|
D|-----------9---------------|-9-----------------5-------|-----5--------------------5---|
A|-----------------------9---|--------------7--------7---|------------------------------|
E|-------------------7-------|---------------------------|------------------------------|


E|---------------------------|---------------------------|---------------------------------|
B|---------------------------|---------------------------|---------------------------------|
G|-------9-------------------|-----7-------------5-------|-----5-------5-------7---5---2---|
D|-----------9---------------|-9-----------------5-------|-----5-------5-------------------|
A|-9---------------------9---|--------------7--------7---|---------7-------7---------------|
E|-------------------7-------|---------------------------|---------------------------------|


E|---------------------------------|---------------------------------|------3---2-------------|
B|---------------------------------|---------------------------------|------3-------3---3-----|
G|-------------7-------------------|-----9-------------------7---7---|------2-------2---2-----|
D|---------7-------7---------------|-10------10----------7-----------|------0-----------------|
A|-----9---------------9-------10--|-------------10--9---------------|------------------------|
E|-7-----------------------8-------|---------------------------------|------------------------|


E|--------|--------|--------|--------|--------|--------|--------|--------|--------|
B|--------|--------|--------|--------|--------|--------|--------|--------|--------|
G|--------|--------|--------|--------|--------|--------|--------|--------|--------|
D|--------|--------|--------|--------|--------|--------|--------|--------|--------|
A|--------|--------|--------|--------|--------|--------|--------|--------|--------|
E|--------|--------|--------|--------|--------|--------|--------|--------|--------|


E|--------|--------|--------|--------|--------------------|---------------------------|
B|--------|--------|--------|--------|--------------------|---------------------------|
G|--------|--------|--------|--------|------------5-------|-----5---7-----5---2-------|
D|--------|--------|--------|--------|------------5-------|-----5-----------------5---|
A|--------|--------|--------|--------|-------7--------7---|---------------------------|
E|--------|--------|--------|--------|--------------------|---------------------------|


E|---------------------------|--------------------|---------------------------|---------------------------|
B|------7--------------------|--------------------|---------------------------|---------------------------|
G|------7--------------------|------------5-------|-----5---7---5---7---5-----|-------9-------------------|
D|-4----7-------7------------|------------5-------|-----5---------------------|-4---------9---------------|
A|---------------------------|-------7--------7---|---------------------------|-----------------------9---|
E|---------------------------|--------------------|---------------------------|-------------------7-------|


E|------------------------------|---------------------------|---------------------------------|
B|------------------------------|---------------------------|---------------------------------|
G|-----7----------------5-------|-----5---7-----5---2-------|-------------7-------------------|
D|-9-------9------------5-------|-----5-----------------5---|---------9-------9---------------|
A|-------------9---7--------7---|---------------------------|-----9---------------9-------10--|
E|------------------------------|---------------------------|-7-----------------------8-------|


E|-----------------------|--------|--------|--------|--------|--------|--------|--------|
B|-----------------------|--------|--------|--------|--------|--------|--------|--------|
G|-----9-----------------|--------|--------|--------|--------|--------|--------|--------|
D|-10------10------------|--------|--------|--------|--------|--------|--------|--------|
A|-------------10--------|--------|--------|--------|--------|--------|--------|--------|
E|-----------------------|--------|--------|--------|--------|--------|--------|--------|


E|--------|--------|--------|--------|--------|--------|--------|--------|--------|
B|--------|--------|--------|--------|--------|--------|--------|--------|--------|
G|--------|--------|--------|--------|--------|--------|--------|--------|--------|
D|--------|--------|--------|--------|--------|--------|--------|--------|--------|
A|--------|--------|--------|--------|--------|--------|--------|--------|--------|
E|--------|--------|--------|--------|--------|--------|--------|--------|--------|


E|--------|--------|--------|--------|--------|--------|--------|--------|--------|
B|--------|--------|--------|--------|--------|--------|--------|--------|--------|
G|--------|--------|--------|--------|--------|--------|--------|--------|--------|
D|--------|--------|--------|--------|--------|--------|--------|--------|--------|
A|--------|--------|--------|--------|--------|--------|--------|--------|--------|
E|--------|--------|--------|--------|--------|--------|--------|--------|--------|


E|--------|--------|--------|
B|--------|--------|--------|
G|--------|--------|--------|
D|--------|--------|--------|
A|--------|--------|--------|
E|--------|--------|--------|





Track 2: Overdubbed Gtr.

E|--------|--------|--------|--------|--------|--------|--------|--------|--------|
B|--------|--------|--------|--------|--------|--------|--------|--------|--------|
G|--------|--------|--------|--------|--------|--------|--------|--------|--------|
D|--------|--------|--------|--------|--------|--------|--------|--------|--------|
A|--------|--------|--------|--------|--------|--------|--------|--------|--------|
E|--------|--------|--------|--------|--------|--------|--------|--------|--------|


E|--------|--------|--------|--------|--------|--------|--------|--------|--------|
B|--------|--------|--------|--------|--------|--------|--------|--------|--------|
G|--------|--------|--------|--------|--------|--------|--------|--------|--------|
D|--------|--------|--------|--------|--------|--------|--------|--------|--------|
A|--------|--------|--------|--------|--------|--------|--------|--------|--------|
E|--------|--------|--------|--------|--------|--------|--------|--------|--------|


E|-------------|-------------|------------------------|-------------|--------|--------|
B|-------------|-------------|------------------------|-------------|--------|--------|
G|-------------|-------------|------7-----5---2-------|-------------|--------|--------|
D|-------------|-------------|--------------------5---|-4-----------|--------|--------|
A|-------------|-------------|------------------------|-------------|--------|--------|
E|-------------|-------------|------------------------|-------------|--------|--------|


E|--------|--------|--------|--------|--------|--------|--------|--------|--------|
B|--------|--------|--------|--------|--------|--------|--------|--------|--------|
G|--------|--------|--------|--------|--------|--------|--------|--------|--------|
D|--------|--------|--------|--------|--------|--------|--------|--------|--------|
A|--------|--------|--------|--------|--------|--------|--------|--------|--------|
E|--------|--------|--------|--------|--------|--------|--------|--------|--------|


E|--------|--------|--------|--------|--------|--------|--------|-----------------|
B|--------|--------|--------|--------|--------|--------|--------|-----------------|
G|--------|--------|--------|--------|--------|--------|--------|-------------12--|
D|--------|--------|--------|--------|--------|--------|--------|-----------------|
A|--------|--------|--------|--------|--------|--------|--------|-------9---------|
E|--------|--------|--------|--------|--------|--------|--------|-----------------|


E|---------------------------------|------------------------|--------|--------|--------|
B|---------------------------------|------------------------|--------|--------|--------|
G|-11--9---7-----------------------|-------9----------------|--------|--------|--------|
D|-------------9---7---------------|-----------9---9--------|--------|--------|--------|
A|---------------------9---7---5---|-9----------------------|--------|--------|--------|
E|---------------------------------|------------------------|--------|--------|--------|


E|--------|--------|--------|--------|--------|--------|--------|--------|--------|
B|--------|--------|--------|--------|--------|--------|--------|--------|--------|
G|--------|--------|--------|--------|--------|--------|--------|--------|--------|
D|--------|--------|--------|--------|--------|--------|--------|--------|--------|
A|--------|--------|--------|--------|--------|--------|--------|--------|--------|
E|--------|--------|--------|--------|--------|--------|--------|--------|--------|


E|--------|--------|--------|--------|--------|--------|--------|--------|--------|
B|--------|--------|--------|--------|--------|--------|--------|--------|--------|
G|--------|--------|--------|--------|--------|--------|--------|--------|--------|
D|--------|--------|--------|--------|--------|--------|--------|--------|--------|
A|--------|--------|--------|--------|--------|--------|--------|--------|--------|
E|--------|--------|--------|--------|--------|--------|--------|--------|--------|


E|--------|--------|--------|--------|--------|--------|--------|--------|--------|
B|--------|--------|--------|--------|--------|--------|--------|--------|--------|
G|--------|--------|--------|--------|--------|--------|--------|--------|--------|
D|--------|--------|--------|--------|--------|--------|--------|--------|--------|
A|--------|--------|--------|--------|--------|--------|--------|--------|--------|
E|--------|--------|--------|--------|--------|--------|--------|--------|--------|


E|--------|--------|--------|--------|--------|--------|--------|--------|
B|--------|--------|--------|--------|--------|--------|--------|--------|
G|--------|--------|--------|--------|--------|--------|--------|--------|
D|--------|--------|--------|--------|--------|--------|--------|--------|
A|--------|--------|--------|--------|--------|--------|--------|--------|
E|--------|--------|--------|--------|--------|--------|--------|--------|





Track 3: Distortion Gtr.

E|--------|--------|--------|--------|--------|--------|--------|--------|--------|
B|--------|--------|--------|--------|--------|--------|--------|--------|--------|
G|--------|--------|--------|--------|--------|--------|--------|--------|--------|
D|--------|--------|--------|--------|--------|--------|--------|--------|--------|
A|--------|--------|--------|--------|--------|--------|--------|--------|--------|
E|--------|--------|--------|--------|--------|--------|--------|--------|--------|


E|--------|--------|--------|--------|--------|--------|--------|--------|--------|
B|--------|--------|--------|--------|--------|--------|--------|--------|--------|
G|--------|--------|--------|--------|--------|--------|--------|--------|--------|
D|--------|--------|--------|--------|--------|--------|--------|--------|--------|
A|--------|--------|--------|--------|--------|--------|--------|--------|--------|
E|--------|--------|--------|--------|--------|--------|--------|--------|--------|


E|--------|--------|--------|--------|--------|--------|--------|--------|--------|
B|--------|--------|--------|--------|--------|--------|--------|--------|--------|
G|--------|--------|--------|--------|--------|--------|--------|--------|--------|
D|--------|--------|--------|--------|--------|--------|--------|--------|--------|
A|--------|--------|--------|--------|--------|--------|--------|--------|--------|
E|--------|--------|--------|--------|--------|--------|--------|--------|--------|


E|--------|--------|--------|---------------------|------------------------|---------------------------------|
B|--------|--------|--------|----------------3----|------3---3---3-----3---|-3---3---3---3---3---3---3---3---|
G|--------|--------|--------|-4-----4----2---0----|------0---0---2-----2---|-2---2---2---2---2---2---2---2---|
D|--------|--------|--------|-4-----4----2---0----|------0---0---0-----0---|-0---0---0---0---0---0---0---0---|
A|--------|--------|--------|-2-----2----0--------|------------------------|---------------------------------|
E|--------|--------|--------|----------------3----|------3---3-------------|---------------------------------|


E|------------------------|------------------------|---------------------------------|
B|-------------------3----|-----3----3---3-----3---|-3---3---3-----------------------|
G|-4----4---4----2---0----|-----0----0---2-----2---|-2---2---2---2-------2-------2---|
D|-4----4---4----2---0----|-----0----0---0-----0---|-0---0---0---2-------2-------2---|
A|-2----2---2----0--------|------------------------|-------------0-------0-------0---|
E|-------------------3----|-----3----3-------------|---------------------------------|


E|------------------------|------------------------|---------------------------------|
B|-------------------3----|-----3----3---3-----3---|-3---3---3---3---3---3---3---3---|
G|-4----4---4----2---0----|-----0----0---2-----2---|-2---2---2---2---2---2---2---2---|
D|-4----4---4----2---0----|-----0----0---0-----0---|-0---0---0---0---0---0---0---0---|
A|-2----2---2----0--------|------------------------|---------------------------------|
E|-------------------3----|-----3----3-------------|---------------------------------|


E|-2----2---2---2---2--------|-----------------2-----|------2------|-------------|
B|-3----3---3---3---3---5----|-5---5---5---5---3-----|------3------|-------------|
G|-4----4---4---4---4---5----|-5---5---5---5---2-----|------2------|-------------|
D|-4----4---4---4---4---5----|-5---5---5---5---0-----|------0------|-------------|
A|-2----2---2---2---2---3----|-3---3---3---3---------|-------------|-------------|
E|---------------------------|-----------------------|-------------|-------------|


E|--------|--------|--------|--------|--------|--------|--------|--------|--------|
B|--------|--------|--------|--------|--------|--------|--------|--------|--------|
G|--------|--------|--------|--------|--------|--------|--------|--------|--------|
D|--------|--------|--------|--------|--------|--------|--------|--------|--------|
A|--------|--------|--------|--------|--------|--------|--------|--------|--------|
E|--------|--------|--------|--------|--------|--------|--------|--------|--------|


E|----------------------|---------------------------------|-12----12---12-10-12-10-10--|
B|----------------------|-------------------------10--12--|----------------------------|
G|----------------------|-----------------7---11----------|----------------------------|
D|---------------4--16--|---------7---9-------------------|----------------------------|
A|------------4--5--17--|-----9---------------------------|----------------------------|
E|----------------------|---------------------------------|----------------------------|


E|-----10------10--12----12--|-----12-10-12-------------10---|-10---10-7-------------------------|
B|---------12----------------|--------------10-10------------|------------10-7-------------------|
G|---------------------------|-------------------------------|------------------9-9-7---7---7----|
D|---------------------------|-------------------------------|------------------------9----------|
A|---------------------------|-------------------------------|-----------------------------------|
E|---------------------------|-------------------------------|-----------------------------------|


E|---------------------------|-----------------------------|-10--10--10--10--10--10--10--------|
B|---------------------------|---------------------10--12--|-12--12--12--12--12--12--12-10-----|
G|---------7---9---9-----9---|-----9--7--9-----11----------|-------------------------------12--|
D|-----9---------------------|-----------------------------|-----------------------------------|
A|---------------------------|-----------------------------|-----------------------------------|
E|---------------------------|-----------------------------|-----------------------------------|


E|-----------------10--------------------|---------------------------------------------|
B|---------10--12-----10-12----10----7---|---------------------------------------------|
G|-----12-------------------11----9------|-9-----7-------------------------------------|
D|---------------------------------------|----9-----7--9-----7-------------------------|
A|---------------------------------------|----------------9-----7--9--7--7--9--7--5----|
E|---------------------------------------|---------------------------------------------|


E|-----15--15-13-------15-15-13-15--|-----13---13------------|---------17--17--17--17--------------|
B|---------------15-----------------|--------------15--------|-15--17--19--19--19--19-17-19-17-----|
G|----------------------------------|--------------------16--|---------------------------------19--|
D|----------------------------------|------------------------|-------------------------------------|
A|----------------------------------|------------------------|-------------------------------------|
E|----------------------------------|------------------------|-------------------------------------|


E|-17----17------------------|------------------------------|---------------------------|
B|-19----19------------------|------------------------------|---------------------------|
G|---------------------------|-----7----------------5-------|-----5---7-----5---2-------|
D|-----------9---------------|-9----------------5-----------|-5---------------------5---|
A|---------------9-------9---|--------------7-----------7---|---------------------------|
E|-------------------7-------|------------------------------|---------------------------|


E|------------------------|---------------------|------------------------|---------------------------|
B|------------------------|-----7---------------|------------------------|---------------------------|
G|-------9----------------|-----7---------------|------7-----5---2-------|-------9-------------------|
D|-4---------9------------|-----7-----------5---|--------------------5---|-4---------9---------------|
A|---------------9--------|-----------7---------|------------------------|---------------9-------9---|
E|-------------------7----|---------------------|------------------------|-------------------7-------|


E|---------------------------------|---------------------------|------------------------------|
B|-----7---------------------------|---------------------------|------------------------------|
G|---------7---------------5-------|-----5---7---5---7---5-----|-------------7-----------5----|
D|-9-----------9-------5-----------|-5-------------------------|---------7-------7------------|
A|-----------------7-----------7---|---------------------------|-----9---------------9--------|
E|---------------------------------|---------------------------|-7----------------------------|


E|-----------------------|------------------------------|------------------------------|
B|-----------------------|------------------------------|------------------------------|
G|---------------7---11--|------11--7-------------------|-------------9--7----7---5----|
D|-----------7-----------|--------------9---7---4-------|---------9--------------------|
A|-------9---------------|--------------------------5---|-----9------------------------|
E|-----------------------|------------------------------|-7----------------------------|


E|------------------------------|-------------|
B|-----5--------10--8---7---7---|------7------|
G|-5------------11--9---7---7---|------7------|
D|------------------------------|-------------|
A|------------------------------|-------------|
E|------------------------------|-------------|





Track 4: Bass

G|--------|--------|--------|--------|-----------------------|------------------------|
D|--------|--------|--------|--------|-----------------------|------------------------|
A|--------|--------|--------|--------|-------5-------5---5---|------5-------------4---|
E|--------|--------|--------|--------|-----------5-----------|------------5---7-------|


G|---------------------|-----------------|----------------|---------------------|-----------------|
D|---------------------|-----------------|----------------|---------------------|-----------------|
A|-5----5-----4---2----|-------3-----3---|---------3------|-5----5-----4---2----|-------3-----3---|
E|---------------------|-----------------|-----3----------|---------------------|-----------------|


G|----------------|---------------------|-----------------|---------------------------|
D|----------------|---------------------|-----------------|---------------------------|
A|---------3------|-5----5-----4---2----|-------3-----3---|---------3-----3-------3---|
E|-----3----------|---------------------|-----------------|-----3-------------3-------|


G|------------------------|---------------------------------|------------------------|
D|------------------------|---------------------------------|------------------------|
A|-2-----2-------2---3----|-----3---5---7---5-------5---5---|------5-------------4---|
E|-----------2------------|---------------------5-----------|------------5---7-------|


G|---------------------|-----------------|----------------|---------------------|------------------------|
D|---------------------|-----------------|----------------|---------------------|------------------------|
A|-5----5-----4---2----|-------3-----3---|---------3------|-5----5-----4---2----|-----2----2---3-----3---|
E|---------------------|-----------------|-----3----------|---------------------|------------------------|


G|----------------|---------------------|-----------------|---------------------------|
D|----------------|---------------------|-----------------|---------------------------|
A|---------3------|-5----5-----4---2----|-------3-----3---|---------3-----3-------3---|
E|-----3----------|---------------------|-----------------|-----3-------------3-------|


G|------------------------|---------------------------------|------------------------------|
D|------------------------|---------------------------------|------------------------------|
A|-2-----2-------2---3----|-----3-------3---5-------5---5---|------5---5---5---5---5---4---|
E|-----------2------------|---------3-----------5-----------|------------------------------|


G|--------------------|-----------------------|---------------------------|--------------------|
D|--------------------|-----------------------|---------------------------|--------------------|
A|-2-----2------------|---------2---4---5-----|-5-------5-----5---4---3---|-2-----2------------|
E|-----------5---3----|-----3-----------------|-----5---------------------|-----------5---3----|


G|---------------------------|---------------------------------|------------------------|
D|---------------------------|---------------------------------|------------------------|
A|---------2---4---5-----5---|-4---2---------------------------|-2----2---2-------------|
E|-----3---------------------|-------------5-------5-------5---|---------------5---3----|


G|---------------------------|---------------------------------|------------------------|
D|---------------------------|---------------------------------|------------------------|
A|---------2---4---5-----5---|---------5---5---5---5---4---3---|-2-----2-------2---3----|
E|-----3---------------------|-----5---------------------------|-----------2------------|


G|---------------------------------|------------------------|---------------------|
D|---------------------------------|------------------------|---------------------|
A|-----3-------3---5-------5---5---|------5-----5---2---4---|-5-----5----4---2----|
E|---------3-----------5-----------|------------------------|---------------------|


G|---------------------------|------------------------|---------------------|------------------------|
D|---------------------------|------------------------|---------------------|------------------------|
A|-----2-------2---3-----3---|---------3-----3----3---|-5----5-----4---2----|-----2----2---3-----3---|
E|---------2-----------------|-----3------------------|---------------------|------------------------|


G|------------------------|---------------------|------------------------|---------------------------|
D|------------------------|---------------------|------------------------|---------------------------|
A|---------3-----3----3---|-5----5-----4---2----|-----2----2---3-----3---|---------3-----3-------3---|
E|-----3------------------|---------------------|------------------------|-----3-------------3-------|


G|------------------------|---------------------------------|------------------------------|
D|------------------------|---------------------------------|------------------------------|
A|-2-----2-------2---3----|-----3-------3---5-------5---5---|------5---5---5---5---5---4---|
E|-----------2------------|---------3-----------5-----------|------------------------------|


G|--------------------|---------------------------|---------------------------|--------------------|
D|--------------------|---------------------------|---------------------------|--------------------|
A|-2-----2------------|---------2---4---5-----5---|---------5-----5---4---3---|-2-----2------------|
E|-----------5---3----|-----3---------------------|-----5---------------------|-----------5---3----|


G|---------------------------|---------------------------------|------------------------|
D|---------------------------|---------------------------------|------------------------|
A|---------2---4---5-----5---|-4---2---------------------------|-2----2---2-------------|
E|-3---3---------------------|-------------5-------5-------5---|---------------5---3----|


G|---------------------------|------------------------|------------------------|---------------------------------|
D|---------------------------|------------------------|------------------------|-------------2-------------------|
A|---------2---4---5-----5---|---------5-----5--------|-2-----2-------2---3----|-----3---5-------5-------5---5---|
E|-----3---------------------|-----5--------------2---|-----------2------------|---------------------5-----------|


G|---------------------------------|---------------------|------------------------|
D|---------------------------------|---------------------|------------------------|
A|-5---5---5---5---5---5---2---4---|-5-----5----4---2----|-----2----2---3-----3---|
E|---------------------------------|---------------------|------------------------|


G|------------------------|---------------------|------------------------|------------------------------|
D|------------------------|---------------------|------------------------|--------------------------2---|
A|---------3-----3----3---|-5-----5----4---2----|-----2----2---3-----3---|---------3----3---3---5-------|
E|-----3------------------|---------------------|------------------------|-----3------------------------|


G|---------------------|------------------------|---------------------------------|
D|---------------------|------------------------|---------------------------------|
A|-5-----5----4---2----|-----2----2---3-----3---|---------3---3---3---3-------3---|
E|---------------------|------------------------|-----3-------------------3-------|


G|------------------------|------------------------------|-------------|------------------------|
D|------------------------|------------------------------|-------------|------------------------|
A|-2-----2-------2---3----|-----3--------5-------5---5---|------5------|-2-----2-------2---3----|
E|-----------2------------|---------3--------5-----------|-------------|-----------2------------|


G|---------------------------------|-------------|
D|-------------2-------7-----------|-------------|
A|-----3---5-------5-------5---5---|------5------|
E|---------------------------------|-------------|