Menu:

 

Search:

 

john williams film composer - harry potter solo guitar arrangement:

 



Title: Harry Potter
Artist: 
Album: Harry Potter ost
Author: John Williams


Track 1: Untitled

E|------------0----|-----3---2----0-----|-7----5------|-2------0----|-----3---2----------|
B|-------0---------|--------------------|-------------|-------------|--------------4-----|
G|-----------------|--------------------|-------------|-------------|--------------------|
D|-----------------|--------------------|-------------|-------------|--------------------|
A|-----------------|--------------------|-------------|-------------|--------------------|
E|-----------------|--------------------|-------------|-------------|--------------------|


E|-2---------------|------------0----|-----3---2----0-----|-7----10----9----|-8-----5----8----|
B|------0----0-----|-0-----0---------|--------------------|-----------------|-----------------|
G|-----------------|-----------------|--------------------|-----------------|-----------------|
D|-----------------|-----------------|--------------------|-----------------|-----------------|
A|-----------------|-----------------|--------------------|-----------------|-----------------|
E|-----------------|-----------------|--------------------|-----------------|-----------------|


E|------7----6-----|------3----0-----|
B|-----------------|-0---------------|
G|-----------------|-----------------|
D|-----------------|-----------------|
A|-----------------|-----------------|
E|-----------------|-----------------|





Track 2: Untitled

G|--------|--------|--------|--------|--------|--------|--------|--------|--------|
D|--------|--------|--------|--------|--------|--------|--------|--------|--------|
A|--------|--------|--------|--------|--------|--------|--------|--------|--------|
E|--------|--------|--------|--------|--------|--------|--------|--------|--------|


G|--------|--------|--------|
D|--------|--------|--------|
A|--------|--------|--------|
E|--------|--------|--------|