Menu:

 

Search:

 

joe satriani - you saved my life:

 



Title: You Saved My Life
Artist: 
Album: Strange Beautiful Music
Author: Joe Satriani


Track 1: Untitled

E|---------------------------|--------|--------------------------------|--------|---------------------------|
B|------9---7---7----9-------|--------|----------7--9--7---------------|--------|------9---7---7----9-------|
G|-----------------------9---|-9------|--------------------9---8---9---|-9------|-----------------------9---|
D|---------------------------|--------|--------------------------------|--------|---------------------------|
A|---------------------------|--------|--------------------------------|--------|---------------------------|
E|---------------------------|--------|--------------------------------|--------|---------------------------|


E|--------|--------------------------------|-------0---0-----|--------------------------------|
B|--------|----------7--9--7---------------|-------0---0-----|------------------7--9--12--9---|
G|-9------|--------------------9---8---9---|-9---------------|----------9---9-----------------|
D|--------|--------------------------------|-----------------|--------------------------------|
A|--------|--------------------------------|-----------------|--------------------------------|
E|--------|--------------------------------|-----------------|--------------------------------|


E|-------------|-9---------11---------|------------------|---------------------------|
B|-12---14-----|----------------------|--------12--------|------9---7---7----9-------|
G|-------------|----9--11-------------|------------11-9--|-----------------------9---|
D|-------------|----------------------|------------------|-9-------------------------|
A|-------------|----------------------|------------------|---------------------------|
E|-------------|----------------------|------------------|---------------------------|


E|-------------------------------|--------------------------------|---------------------------|
B|-------12-10-9-----10-9--------|--------------------------------|-7--------9------9----9----|
G|-9-----------------------11----|-9--11-11--11-----------8---9---|---------------------------|
D|-------------------------------|--------------------9-----------|---------------------------|
A|-------------------------------|--------------------------------|---------------------------|
E|-------------------------------|--------------------------------|---------------------------|


E|------------------------------|---------------------------------|------------------------------|
B|----------12--12--10--9-------|---------------------------------|----------12--12--10--9-------|
G|--------------------------11--|-13---119-----9---9---11-13------|--------------------------11--|
D|------------------------------|----------11---------------------|------------------------------|
A|------------------------------|---------------------------------|------------------------------|
E|------------------------------|---------------------------------|------------------------------|


E|-----------------------------|------------------------------|------------------------------------|
B|-----------------------------|----------12--12--10--9-------|------------------------------------|
G|-13--------11-9--11-9--------|-9------------------------11--|-13---119-----9---9---11-13-----13--|
D|-----------------------11-9--|-11---------------------------|----------11------------------------|
A|-----------------------------|------------------------------|------------------------------------|
E|-----------------------------|------------------------------|------------------------------------|


E|-------------------------------|-------------|------------------------------|--------|
B|-------------------------------|-------------|------------------------------|--------|
G|-------------------------------|-------------|------------------------------|--------|
D|-----------------9-----9---11--|-9-----------|----------9---9---------------|--------|
A|-7---------9--11---------------|-------------|------------------12--11--9---|-11-----|
E|-------------------------------|-------------|------------------------------|--------|


E|---------------------------|-----------------------|---------------------------|
B|---------------------------|-----------------------|-------10-12----10-10--9---|
G|-------------9-----9-------|-9---11--11--13--11----|---------------------------|
D|-------9--11-----------11--|-----------------------|---------------------------|
A|---------------------------|-----------------------|---------------------------|
E|---------------------------|-----------------------|---------------------------|


E|------------------|------16--14--14---16--12--|-12----------|----------14-16-14--12--11--12--|
B|-10-12-12--12-----|---------------------------|-------------|--------------------------------|
G|------------------|---------------------------|-------------|--------------------------------|
D|------------------|---------------------------|-------------|--------------------------------|
A|------------------|---------------------------|-------------|--------------------------------|
E|------------------|---------------------------|-------------|--------------------------------|


E|-12--------------|------16--14--14---16--12--|-12----------|----------14-16-14--12--11--12--|
B|-------12--12----|---------------------------|-------------|--------------------------------|
G|-----------------|---------------------------|-------------|--------------------------------|
D|-----------------|---------------------------|-------------|--------------------------------|
A|-----------------|---------------------------|-------------|--------------------------------|
E|-----------------|---------------------------|-------------|--------------------------------|


E|-12---------------------------|-------------------------------|-------------------------------|
B|------------------------------|-------12--9-------------------|--------------------12---12-10-|
G|------------------------9--11-|-13-----------11-9---11-13-----|-11---11-13-9---9--------------|
D|------------------9--11-------|-------------------------------|-------------------------------|
A|------------9--11-------------|-------------------------------|-------------------------------|
E|------------------------------|-------------------------------|-------------------------------|


E|---------------------------------|------------------------------------------|------16--14--14---16--12--|
B|-12------------------------------|-9--12-10-9-----9--10-9-----9--------9----|---------------------------|
G|-----------9---8--9-----8--9--11-|-------------11----------11----11-13------|---------------------------|
D|---------------------11----------|------------------------------------------|---------------------------|
A|---------------------------------|------------------------------------------|---------------------------|
E|---------------------------------|------------------------------------------|---------------------------|


E|-12----12-14-12--7--9--7--5--|--------------------------12--------|-17-19-19-----|
B|-------12-14-12--7--9--7--5--|-7--9--7---7--------9--10-----10-9--|--------------|
G|-----------------------------|------------------------------------|--------------|
D|-----------------------------|------------------------------------|--------------|
A|-----------------------------|------------------------------------|--------------|
E|-----------------------------|------------------------------------|--------------|


E|--------|--------|--------|--------|--------|--------|--------|--------|--------|
B|--------|--------|--------|--------|--------|--------|--------|--------|--------|
G|--------|--------|--------|--------|--------|--------|--------|--------|--------|
D|--------|--------|--------|--------|--------|--------|--------|--------|--------|
A|--------|--------|--------|--------|--------|--------|--------|--------|--------|
E|--------|--------|--------|--------|--------|--------|--------|--------|--------|


E|--------|--------|--------|--------|--------|--------|--------|------------------------------|
B|--------|--------|--------|--------|--------|--------|--------|----------12--12--10--9-------|
G|--------|--------|--------|--------|--------|--------|--------|--------------------------11--|
D|--------|--------|--------|--------|--------|--------|--------|------------------------------|
A|--------|--------|--------|--------|--------|--------|--------|------------------------------|
E|--------|--------|--------|--------|--------|--------|--------|------------------------------|


E|---------------------------------|------------------------------|-------12-11-------------------|
B|---------------------------------|----------12--12--10--9-------|-------------12----9-----------|
G|-13---119-----9---9---11-13------|--------------------------11--|-13-------------11----11-9--8--|
D|----------11---------------------|------------------------------|-------------------------------|
A|---------------------------------|------------------------------|-------------------------------|
E|---------------------------------|------------------------------|-------------------------------|


E|---------------------------------|--------------------------------------|----------------------|
B|-------------12--12--10--9-------|--------------------------------------|----------------------|
G|-----------------------------11--|-13---119-----9---9---11-13-13--11-13-|-13-9--9---9----------|
D|-9--11---------------------------|----------11--------------------------|----------------------|
A|---------------------------------|--------------------------------------|----------------------|
E|---------------------------------|--------------------------------------|----------------------|


E|--------|------------------------------|--------------|---------------------------|
B|--------|------------------------------|--------------|---------------------------|
G|--------|------------------------------|--------------|-------------9-----9-------|
D|--------|----------9---9---------------|--------------|-------9--11-----------11--|
A|--------|------------------12--11--9---|-7--9--9------|---------------------------|
E|--------|------------------------------|--------------|---------------------------|


E|-----------------------|---------------------------|---------------------|------16--14--14---16--12--|
B|-----------------------|-------12--12--10--10-9----|------9----10---12---|---------------------------|
G|-9---11--11--13--11----|-11------------------------|-11------------------|---------------------------|
D|-----------------------|---------------------------|---------------------|---------------------------|
A|-----------------------|---------------------------|---------------------|---------------------------|
E|-----------------------|---------------------------|---------------------|---------------------------|


E|-12----12-14-------------------|----------14-16-14--12--11--12--|-12----12--9---7-----------|
B|-------------12-14-------------|--------------------------------|-----------9---7--9--------|
G|-------------------11-13-9--11-|-11-----------------------------|---------------------11-9--|
D|-------------------------------|--------------------------------|---------------------------|
A|-------------------------------|--------------------------------|---------------------------|
E|-------------------------------|--------------------------------|---------------------------|


E|------16--14--14---16--12--|-12--------12--12------|-14--------------|-----------------------------|
B|---------------------------|------------------14---|-----------------|-12-10-9---------------------|
G|-13------------------------|-----------------------|-----------------|----------11-9--8------------|
D|---------------------------|-----------------------|-----------------|-------------------11--9-----|
A|---------------------------|-----------------------|-----------------|-----------------------------|
E|---------------------------|-----------------------|-----------------|-----------------------------|


E|--------|--------14---|-12-14-14-----|-----------------------|-19------16--14--14---16--12--|
B|--------|-------------|--------------|-----------19--19--19--|------------------------------|
G|--------|-------------|--------------|-----------------------|------------------------------|
D|--------|-------------|--------------|-----------------------|------------------------------|
A|--------|-------------|--------------|-----------------------|------------------------------|
E|--------|-------------|--------------|-----------------------|------------------------------|


E|-12----------|-------14-16-14--12--11--|-11-12-------16--16----|--------|-----------------12-------11-|
B|-------------|-------------------------|-----------------------|--------|-----------7--9-----9--------|
G|-------------|-------------------------|-----------------------|--------|-----------------------------|
D|-------------|-------------------------|-----------------------|--------|-----------------------------|
A|-------------|-------------------------|-----------------------|--------|-----------------------------|
E|-------------|-------------------------|-----------------------|--------|-----------------------------|


E|-------9-----------------------------------------|--------------------------------|
B|-9--------9--12-9-----10-9-----9-----------------|--------------------------------|
G|----------------------------11----11-9--11-9--8--|-8--9-8----8--9--8--9--11-11----|
D|-------------------------------------------------|--------11----------------------|
A|-------------------------------------------------|--------------------------------|
E|-------------------------------------------------|--------------------------------|


E|-----------------------------------------12--|-14-16-----16-16-14-12-14--14--14---|
B|-----------------------------12-12-12-14-----|--------14--------------------------|
G|-----------------9--9--11-13-----------------|------------------------------------|
D|-----9--9--9--11-----------------------------|------------------------------------|
A|---------------------------------------------|------------------------------------|
E|---------------------------------------------|------------------------------------|


E|-14-12-9--11-11---------12-|-9------------------------------------|--------|
B|---------------------------|----12-9------------------------------|--------|
G|---------------------------|----------11-9------------------------|--------|
D|---------------------------|----------------11-9--11-11-9---9-----|--------|
A|---------------------------|--------------------------------------|--------|
E|---------------------------|--------------------------------------|--------|





Track 2: Untitled

E|---------------------------|--------|--------------------------------|-----------------|
B|---------------------------|--------|--------------------------------|-----------------|
G|------9---8---8----9-------|--------|----------8--9--8---------------|-----------------|
D|-----------------------11--|-11-----|--------------------11--9---11--|-11----9---9-----|
A|---------------------------|--------|--------------------------------|-----------------|
E|---------------------------|--------|--------------------------------|-----------------|


E|---------------------------|--------|--------------------------------|--------------------------------------|
B|---------------------------|--------|--------------------------------|--------------------------------------|
G|------9---8---8----9-------|--------|----------8--9--8---------------|--------------------------------------|
D|-----------------------11--|-11-----|--------------------11--9---11--|-11-------------9---9--11-9-----------|
A|---------------------------|--------|--------------------------------|------7---9--11--------------7--9--11-|
E|---------------------------|--------|--------------------------------|--------------------------------------|


E|--------------------------------|-------------|-------------------------|-----------------------------|
B|--------------------------------|-------------|-------------------------|-----------------------------|
G|--------------------------------|-------------|-------------------------|-----------------------------|
D|------------------------9-------|-9----11-----|-------------------------|-----------------------------|
A|-7--------7---7---9--11-----11--|-------------|-------11-12-11--9---7---|-9----9--7--11--11--11--11---|
E|--------------------------------|-------------|-------------------------|-----------------------------|


E|---------------------------|--------|--------------------------------|---------------------------|
B|---------------------------|--------|--------------------------------|---------------------------|
G|------9---8---8----9-------|--------|----------8--9--8---------------|----------9------9----9----|
D|-----------------------11--|-11-----|--------------------11--9---11--|-11------------------------|
A|---------------------------|--------|--------------------------------|---------------------------|
E|---------------------------|--------|--------------------------------|---------------------------|


E|------------------------------|---------------------------------|------------------------------|
B|------------------------------|---------------------------------|------------------------------|
G|------------------------------|---------------------------------|------------------------------|
D|----------9---9---------------|---------------------------------|----------9---9---------------|
A|------------------12--11--9---|-11---9-7-----7---7---9--11------|------------------12--11--9---|
E|------------------------------|----------9----------------------|------------------------------|


E|--------|------------------------------|----------------------------------|--------|
B|--------|------------------------------|----------------------------------|--------|
G|--------|------------------------------|----------------------------------|--------|
D|--------|----------9---9---------------|----------------------------------|--------|
A|-11-----|------------------12--11--9---|-11---9-7-----7---7---9---9---11--|--------|
E|--------|------------------------------|----------9-----------------------|--------|


E|--------|--------|--------|--------|--------|--------|--------|------12--11--11---12------|
B|--------|--------|--------|--------|--------|--------|--------|-----------------------14--|
G|--------|--------|--------|--------|--------|--------|--------|---------------------------|
D|--------|--------|--------|--------|--------|--------|--------|---------------------------|
A|--------|--------|--------|--------|--------|--------|--------|---------------------------|
E|--------|--------|--------|--------|--------|--------|--------|---------------------------|


E|-------------|----------11-12-11--9-------9---|-----------------|------12--11--11---12------|
B|-14----------|------------------------12------|-14----12--12----|-----------------------14--|
G|-------------|--------------------------------|-----------------|---------------------------|
D|-------------|--------------------------------|-----------------|---------------------------|
A|-------------|--------------------------------|-----------------|---------------------------|
E|-------------|--------------------------------|-----------------|---------------------------|


E|-------12-9------------------------|----------11-12-11--9-------9---|--------------------------14-12-------|
B|-14----------12-9------------------|------------------------12------|-12-------10--9--10-9-----------14-12-|
G|-------------------11-9------------|--------------------------------|-----------------------11-------------|
D|-------------------------11-9------|--------------------------------|--------------------------------------|
A|-------------------------------11--|-9------------------------------|--------------------------------------|
E|-----------------------------------|--------------------------------|--------------------------------------|


E|--------------------------------|--------------------------|--------------------|
B|--------------------------------|--------------------------|--------------------|
G|--------------------------------|--------------------------|--------------------|
D|--------------------9---9-------|-9----9--11-11---9----9---|-9----------9---11--|
A|--------------9--11---------11--|--------------------------|--------------------|
E|----------12--------------------|--------------------------|--------------------|


E|--------------------|------12--11--11---12------|--------|----------------------------------------|
B|--------------------|-----------------------14--|-14-----|------12-10-9---10-9--------10-12-------|
G|--------------------|---------------------------|--------|----------------------11-13-------13-11-|
D|-11-------9---9-----|---------------------------|--------|----------------------------------------|
A|--------------------|---------------------------|--------|----------------------------------------|
E|--------------------|---------------------------|--------|----------------------------------------|


E|----------------------|--------|--------|--------|--------|--------|--------|--------|
B|-------12-------------|--------|--------|--------|--------|--------|--------|--------|
G|-11-------------------|--------|--------|--------|--------|--------|--------|--------|
D|------------9--11-11--|--------|--------|--------|--------|--------|--------|--------|
A|----------------------|--------|--------|--------|--------|--------|--------|--------|
E|----------------------|--------|--------|--------|--------|--------|--------|--------|


E|--------|--------|--------|--------|--------|--------|--------|--------|--------|
B|--------|--------|--------|--------|--------|--------|--------|--------|--------|
G|--------|--------|--------|--------|--------|--------|--------|--------|--------|
D|--------|--------|--------|--------|--------|--------|--------|--------|--------|
A|--------|--------|--------|--------|--------|--------|--------|--------|--------|
E|--------|--------|--------|--------|--------|--------|--------|--------|--------|


E|------------------------------|---------------------------------|------------------------------|
B|------------------------------|---------------------------------|------------------------------|
G|------------------------------|---------------------------------|------------------------------|
D|----------9---9---------------|---------------------------------|----------9---9---------------|
A|------------------12--11--9---|-11---9-7-----7---7---9--11------|------------------12--11--9---|
E|------------------------------|----------9----------------------|------------------------------|


E|------------------9----|------------------------------|--------------------------------------|
B|------------9--12------|------------------------------|--------------------------------------|
G|-----------------------|------------------------------|--------------------------------------|
D|-----------------------|----------9---9---------------|--------------------------------------|
A|-11--------------------|------------------12--11--9---|-11---9-7-----7---7---9--11-11--9--11-|
E|-----------------------|------------------------------|----------9---------------------------|


E|-------------------------|--------|--------|--------|--------|--------|--------|
B|-------------------------|--------|--------|--------|--------|--------|--------|
G|-------------------------|--------|--------|--------|--------|--------|--------|
D|-------------9---9---11--|-9------|--------|--------|--------|--------|--------|
A|-------9--11-------------|--------|--------|--------|--------|--------|--------|
E|-------------------------|--------|--------|--------|--------|--------|--------|


E|--------|---------------------------|--------|--------------------------------|-----------------|
B|--------|-12------------------------|--------|--------------------------------|-----------------|
G|--------|------9---8---8----9-------|--------|----------8--9--8---------------|-----------------|
D|--------|-----------------------11--|-11-----|--------------------11--9---11--|-11----9---9-----|
A|--------|---------------------------|--------|--------------------------------|-----------------|
E|--------|---------------------------|--------|--------------------------------|-----------------|


E|---------------------------|------12--9---9---------------|--------------------------------|
B|---------------------------|------------------12--10-9----|--------------------------------|
G|------9---8---8----9-------|------------------------------|-11-------8--9--8---------------|
D|-----------------------11--|-11---------------------------|--------------------11--9---11--|
A|---------------------------|------------------------------|--------------------------------|
E|---------------------------|------------------------------|--------------------------------|


E|-------------------|--------|--------|--------|--------|------12--11--11---12------|
B|-------------------|--------|--------|--------|--------|-----------------------14--|
G|-------------------|--------|--------|--------|--------|---------------------------|
D|-11----------------|--------|--------|--------|--------|---------------------------|
A|-------9--11-11----|--------|--------|--------|--------|---------------------------|
E|-------------------|--------|--------|--------|--------|---------------------------|


E|-------11-12-11-9--------------------|----------11-12-11--9-------9---|-------16--16----|
B|-14----------------12----12-14-12-10-|------------------------12------|-14--------------|
G|-------------------------------------|-13--11-------------------------|-----------------|
D|-------------------------------------|--------------------------------|-----------------|
A|-------------------------------------|--------------------------------|-----------------|
E|-------------------------------------|--------------------------------|-----------------|


E|--------|-------------------------------------|--------------|--------------------------------|
B|--------|-------------------------------------|--------------|--------------------------------|
G|--------|-----------9------9--13--11--11------|-9--11-11-----|-8--9-8----9--------------------|
D|--------|-----9--11-----11----------------11--|--------------|--------11----9--7--------------|
A|--------|-------------------------------------|--------------|--------------------9--11-11----|
E|--------|-------------------------------------|--------------|--------------------------------|


E|---------------------------------------|---------------------------|-------------------------------|
B|---------------------------------------|---------------------------|-------------------------------|
G|---------------------------------------|---------------------------|-------------------------------|
D|-4--6--6--6--6---7---7---9---9---7--6--|-4---6---7---2---2-----6---|-6----2--4--6--9--9---11--9----|
A|---------------------------------------|---------------------------|-------------------------------|
E|---------------------------------------|---------------------------|-------------------------------|


E|--------|--------|
B|--------|--------|
G|--------|--------|
D|-9------|--------|
A|--------|--------|
E|--------|--------|





Track 3: Solo Wah Guitar

E|--------|--------|--------|--------|--------|--------|--------|--------|--------|
B|--------|--------|--------|--------|--------|--------|--------|--------|--------|
G|--------|--------|--------|--------|--------|--------|--------|--------|--------|
D|--------|--------|--------|--------|--------|--------|--------|--------|--------|
A|--------|--------|--------|--------|--------|--------|--------|--------|--------|
E|--------|--------|--------|--------|--------|--------|--------|--------|--------|


E|--------|--------|--------|--------|--------|--------|--------|--------|--------|
B|--------|--------|--------|--------|--------|--------|--------|--------|--------|
G|--------|--------|--------|--------|--------|--------|--------|--------|--------|
D|--------|--------|--------|--------|--------|--------|--------|--------|--------|
A|--------|--------|--------|--------|--------|--------|--------|--------|--------|
E|--------|--------|--------|--------|--------|--------|--------|--------|--------|


E|--------|--------|--------|--------|--------|--------|--------|--------|--------|
B|--------|--------|--------|--------|--------|--------|--------|--------|--------|
G|--------|--------|--------|--------|--------|--------|--------|--------|--------|
D|--------|--------|--------|--------|--------|--------|--------|--------|--------|
A|--------|--------|--------|--------|--------|--------|--------|--------|--------|
E|--------|--------|--------|--------|--------|--------|--------|--------|--------|


E|--------|--------|--------|--------|--------|--------|--------|--------|--------|
B|--------|--------|--------|--------|--------|--------|--------|--------|--------|
G|--------|--------|--------|--------|--------|--------|--------|--------|--------|
D|--------|--------|--------|--------|--------|--------|--------|--------|--------|
A|--------|--------|--------|--------|--------|--------|--------|--------|--------|
E|--------|--------|--------|--------|--------|--------|--------|--------|--------|


E|--------|--------|--------|--------|--------|--------|--------|--------|--------|
B|--------|--------|--------|--------|--------|--------|--------|--------|--------|
G|--------|--------|--------|--------|--------|--------|--------|--------|--------|
D|--------|--------|--------|--------|--------|--------|--------|--------|--------|
A|--------|--------|--------|--------|--------|--------|--------|--------|--------|
E|--------|--------|--------|--------|--------|--------|--------|--------|--------|


E|--------|---------------------------|---------------------------------------|---------------------------|
B|--------|---------------------------|---------------------------------------|---------------------------|
G|--------|---------------------------|---------------------------------------|---------------------------|
D|--------|---------------------------|---------------------------------------|---------------------------|
A|--------|--------------7----9---9---|-7--7--7--7----------7--9----9--7---7--|--------------7----11--11--|
E|--------|------7--9-----------------|-------------7--9----------------------|------7--9-----------------|


E|---------------------------------------|------------------------|---------------------------------|
B|---------------------------------------|------------------------|---------------------------------|
G|---------------------------------------|------------------------|---------------------------------|
D|---------------------------------------|------------------------|---------------------------------|
A|-7---7--7----------6--7--6---6--7--6---|--------------7----9----|-11--11----------7--9----9---11--|
E|-----------7--9------------------------|------7--9--------------|---------7--9--------------------|


E|------------------------|----------------------------------------|---------------------------------------------|
B|------------------------|----------------------------------------|---------------------------------------------|
G|------------------------|----------------------------------------|---------------------------------------------|
D|------------------------|----------------------------------------|-------------------------6--9--9--9--11--11--|
A|-7------------7----9----|-9--11-11-11-11-9--7--7--7--9--9---9----|-9--9--9--9--9--11-11-11---------------------|
E|------7--9--------------|----------------------------------------|---------------------------------------------|


E|-------------------------------------------|-----------------------------------|
B|-------------------------------------------|-----------------------------------|
G|-------------------------------------------|-----------------------------------|
D|-------------------------6--9--11--11--9---|-9----------------6--9--11-9--11---|
A|-9--9--9--9--9--11-11-11-------------------|------9--11-11-11------------------|
E|-------------------------------------------|-----------------------------------|


E|----------------------------------|---------------------------------------------|
B|----------------------------------|---------------------------------------------|
G|----------------------------------|-4--6--6--6--6--8--8--8--8--9--9--9--9---9---|
D|------11-9--------------9--11-----|---------------------------------------------|
A|------------11--9---11------------|---------------------------------------------|
E|----------------------------------|---------------------------------------------|


E|-------------------------------------------|---------------------------------------------|
B|-------------------------------------------|-----------------------------------7--9--9---|
G|-----------8--9-----8-----------9--11--11--|-----------8--9--9-----9--11-11-9------------|
D|--------11-------11----9--11-11------------|-----9--11----------11-----------------------|
A|-----11------------------------------------|---------------------------------------------|
E|-------------------------------------------|---------------------------------------------|


E|----------------9-------9-------|-9------|--------|--------|--------|--------|--------|
B|-----12-9--12--------12------12-|--------|--------|--------|--------|--------|--------|
G|--------------------------------|--------|--------|--------|--------|--------|--------|
D|--------------------------------|--------|--------|--------|--------|--------|--------|
A|--------------------------------|--------|--------|--------|--------|--------|--------|
E|--------------------------------|--------|--------|--------|--------|--------|--------|


E|--------|--------|--------|--------|--------|--------|--------|--------|--------|
B|--------|--------|--------|--------|--------|--------|--------|--------|--------|
G|--------|--------|--------|--------|--------|--------|--------|--------|--------|
D|--------|--------|--------|--------|--------|--------|--------|--------|--------|
A|--------|--------|--------|--------|--------|--------|--------|--------|--------|
E|--------|--------|--------|--------|--------|--------|--------|--------|--------|


E|--------|--------|--------|--------|--------|--------|--------|--------|--------|
B|--------|--------|--------|--------|--------|--------|--------|--------|--------|
G|--------|--------|--------|--------|--------|--------|--------|--------|--------|
D|--------|--------|--------|--------|--------|--------|--------|--------|--------|
A|--------|--------|--------|--------|--------|--------|--------|--------|--------|
E|--------|--------|--------|--------|--------|--------|--------|--------|--------|


E|--------|--------|--------|--------|--------|--------|--------|--------|--------|
B|--------|--------|--------|--------|--------|--------|--------|--------|--------|
G|--------|--------|--------|--------|--------|--------|--------|--------|--------|
D|--------|--------|--------|--------|--------|--------|--------|--------|--------|
A|--------|--------|--------|--------|--------|--------|--------|--------|--------|
E|--------|--------|--------|--------|--------|--------|--------|--------|--------|


E|--------|--------|--------|--------|--------|--------|
B|--------|--------|--------|--------|--------|--------|
G|--------|--------|--------|--------|--------|--------|
D|--------|--------|--------|--------|--------|--------|
A|--------|--------|--------|--------|--------|--------|
E|--------|--------|--------|--------|--------|--------|





Track 4: Untitled

G|------------|-----------------------|-----------------------|-----------------|------------|
D|------------|-----------------------|-----------------------|-----------------|------------|
A|------------|-----------------------|-2-----2---2---2---2---|-----------------|------------|
E|-0------0---|-5-----5---5---5---5---|-----------------------|-5-----0---0-----|-0------0---|


G|-----------------------|-----------------------|-----------------|------------|-----------------------|
D|-----------------------|-----------------------|-----------------|------------|-----------------------|
A|-----------------------|-2-----2---2---2---2---|-----------------|------------|-----------------------|
E|-5-----5---5---5---5---|-----------------------|-5-----0---0-----|-0------0---|-5-----5---5---5---5---|


G|-----------------------|-----------------|------------|-----------------------|-----------------------|
D|-----------------------|-----------------|------------|-----------------------|-----------------------|
A|-2-----2---2---2---2---|-----------------|------------|-----------------------|-2-----2---2---2---2---|
E|-----------------------|-5-----0---0-----|-0------0---|-5-----5---5---5---5---|-----------------------|


G|-----------------|---------------------------|---------------------------|---------------------------|
D|-----------------|---------------------------|---------------------------|---------------------------|
A|-----------------|-----------------------2---|-4-----4---4---4---4---4---|-----------------------2---|
E|-5-----0---0-----|-2-----2---2---2---2-------|---------------------------|-2-----2---2---2---2-------|


G|---------------------------|---------------------------|---------------------------|
D|---------------------------|---------------------------|---------------------------|
A|-4-----4---4---4---4---4---|-----------------------2---|-4-----4---4---4---4---2---|
E|---------------------------|-2-----2---2---2---2-------|---------------------------|


G|-----------------------|-----------------------|-----------------------|-----------------------|
D|-----------------------|-----------------------|-----------------------|-----------------------|
A|-----------------------|-2-----2---2---2---2---|-----------------------|-2-----2---2---2---2---|
E|-5-----5---5---5---5---|-----------------------|-5-----5---5---5---5---|-----------------------|


G|-----------------------|-----------------------|-----------------------|-----------------------|
D|-----------------------|-----------------------|-----------------------|-----------------------|
A|-----------------------|-2-----2---2---2---4---|-----------------------|-2-----2---2---2---2---|
E|-5-----5---5---5---5---|-----------------------|-5-----5---5---5---5---|-----------------------|


G|------------|-----------------------|-----------------------|-----------------|------------|
D|------------|-----------------------|-----------------------|-----------------|------------|
A|------------|-----------------------|-2-----2---2---2---2---|-----------------|------------|
E|-0------0---|-5-----5---5---5---5---|-----------------------|-5-----0---0-----|-0------0---|


G|-----------------------|-----------------------|-----------------|------------|-----------------------|
D|-----------------------|-----------------------|-----------------|------------|-----------------------|
A|-----------------------|-2-----2---2---2---2---|-----------------|------------|-----------------------|
E|-5-----5---5---5---5---|-----------------------|-5-----0---0-----|-0------0---|-5-----5---5---5---5---|


G|-----------------------|-----------------|------------|-----------------------|-----------------------|
D|-----------------------|-----------------|------------|-----------------------|-----------------------|
A|-2-----2---2---2---2---|-----------------|------------|-----------------------|-2-----2---2---2---2---|
E|-----------------------|-5-----0---0-----|-0------0---|-5-----5---5---5---5---|-----------------------|


G|-----------------------|------------------------------|------------------------------|
D|-----------------------|------------------------------|------------------------------|
A|-2-----2---2---2---2---|-4----4---4---4---2---2---0---|-0----0---0---0---2---2---4---|
E|-----------------------|------------------------------|------------------------------|


G|------------------------------|------------------------------|------------------------------|
D|------------------------------|------------------------------|------------------------------|
A|-4----4---4---4---2---2---0---|-0----0---0---0---2---2---4---|-4----4---4---4---2---2---0---|
E|------------------------------|------------------------------|------------------------------|


G|------------------------------|------------------------------|------------------------------|
D|------------------------------|------------------------------|------------------------------|
A|-0----0---0---0---2---2---4---|-4----4---4---4---2---2---0---|-0----0---0---0---2---2---4---|
E|------------------------------|------------------------------|------------------------------|


G|------------------------------|------------------------------|------------------------------|
D|------------------------------|------------------------------|------------------------------|
A|-4----4---4---4---2---2---0---|-0----0---0---0---2---2---4---|-4----4---4---4---2---2---0---|
E|------------------------------|------------------------------|------------------------------|


G|------------------------------|------------------------------|------------------------------|
D|------------------------------|------------------------------|------------------------------|
A|-0----0---0---0---2---2---4---|-4----4---4---4---6---6---7---|-7----7---7---7---9---9---11--|
E|------------------------------|------------------7---7---9---|-9----9---9---9---11--11--12--|


G|------------------------------|------------------------------|---------------------------|
D|------------------------------|------------------------------|---------------------------|
A|-11---4---4---4---2---2---0---|-0----0---0---0---2---2---4---|-----------------------2---|
E|-12---------------------------|------------------------------|-2-----2---2---2---2-------|


G|---------------------------|---------------------------|---------------------------|
D|---------------------------|---------------------------|---------------------------|
A|-4-----4---4---4---4---4---|-----------------------2---|-4-----4---4---4---4---4---|
E|---------------------------|-2-----2---2---2---2-------|---------------------------|


G|---------------------------|---------------------------|-----------------------|
D|---------------------------|---------------------------|-----------------------|
A|-----------------------2---|-4-----4---4---4---4---2---|-----------------------|
E|-2-----2---2---2---2-------|---------------------------|-5-----5---5---5---5---|


G|-----------------------|-----------------------|-----------------------|-----------------------|
D|-----------------------|-----------------------|-----------------------|-----------------------|
A|-2-----2---2---2---2---|-----------------------|-2-----2---2---2---2---|-----------------------|
E|-----------------------|-5-----5---5---5---5---|-----------------------|-5-----5---5---5---5---|


G|-----------------------|-----------------------|-----------------------|------------|
D|-----------------------|-----------------------|-----------------------|------------|
A|-2-----2---2---2---2---|-4-----4---4---4---4---|-6-----6---6---6---6---|------------|
E|-----------------------|-----------------------|-----------------------|-0------0---|


G|-----------------------|-----------------------|-----------------|------------|-----------------------|
D|-----------------------|-----------------------|-----------------|------------|-----------------------|
A|-----------------------|-2-----2---2---2---2---|-----------------|------------|-----------------------|
E|-5-----5---5---5---5---|-----------------------|-5-----0---0-----|-0------0---|-5-----5---5---5---5---|


G|-----------------------|-----------------|------------|-----------------------|-----------------------|
D|-----------------------|-----------------|------------|-----------------------|-----------------------|
A|-2-----2---2---2---2---|-----------------|------------|-----------------------|-2-----2---2---2---2---|
E|-----------------------|-5-----0---0-----|-0------0---|-5-----5---5---5---5---|-----------------------|


G|-----------------|------------|-----------------------|-----------------------|-----------------|
D|-----------------|------------|-----------------------|-----------------------|-----------------|
A|-----------------|------------|-----------------------|-2-----2---2---2---2---|-----------------|
E|-5-----0---0-----|-0------0---|-5-----5---5---5---5---|-----------------------|-5-----0---0-----|


G|------------|-----------------------|-----------------------|-----------------|------------|
D|------------|-----------------------|-----------------------|-----------------|------------|
A|------------|-----------------------|-2-----2---2---2---2---|-----------------|------------|
E|-0------0---|-5-----5---5---5---5---|-----------------------|-5-----0---0-----|-0------0---|


G|-----------------------|-----------------------|-----------------|--------|
D|-----------------------|-----------------------|-----------------|--------|
A|-----------------------|-2-----2---2---2---2---|-----------------|--------|
E|-5-----5---5---5---5---|-----------------------|-5-----0---0-----|-0------|





Track 5: Untitled

E|---------------------------|--------|--------------------------------|-----------------|
B|---------------------------|--------|--------------------------------|-----------------|
G|------9---8---8----9-------|--------|----------8--9--8---------------|-----------------|
D|-----------------------11--|-11-----|--------------------11--9---11--|-11----9---9-----|
A|---------------------------|--------|--------------------------------|-----------------|
E|---------------------------|--------|--------------------------------|-----------------|


E|---------------------------|--------|--------------------------------|------------------------------------|
B|------9---7---7----9-------|--------|----------7--9--7---------------|------------------------------------|
G|-----------------------9---|-9------|--------------------9---8---9---|-9----------------------------------|
D|---------------------------|--------|--------------------------------|----------------9---9--11-9---------|
A|---------------------------|--------|--------------------------------|------9---9--11---------------9--11-|
E|---------------------------|--------|--------------------------------|------------------------------------|


E|--------------------------------|-------------|-------------------------|-----------------------------|
B|------------------------12------|-12---14-----|-------------------------|-----------------------------|
G|----------9---9---11-13-----13--|-------------|-------------------------|-----------------------------|
D|--------------------------------|-------------|-------------------------|-----------------------------|
A|-7------------------------------|-------------|-------11-12-11--9---7---|-9----9--7--11--11--11--11---|
E|--------------------------------|-------------|-------------------------|-----------------------------|


E|---------------------------|--------|--------------------------------|-----------------|
B|------9---7---7----9-------|--------|--------------------------------|-----------------|
G|-----------------------9---|-9------|----------8--9--8---------------|-----------------|
D|---------------------------|--------|--------------------11--9---11--|-11----9---9-----|
A|---------------------------|--------|--------------------------------|-----------------|
E|---------------------------|--------|--------------------------------|-----------------|


E|------------------------------|-----------------------------|------------------------------|
B|----------12--12--10--9-------|-----------------------------|----------12--12--10--9-------|
G|--------------------------11--|-13-------9---9---11-13------|--------------------------11--|
D|------------------------------|------11---------------------|------------------------------|
A|------------------------------|-----------------------------|------------------------------|
E|------------------------------|-----------------------------|------------------------------|


E|------------------------------------|------------------------------|-----------------------------|
B|------------------------------------|----------12--12--10--9-------|-----------------------------|
G|-11---13--9---9------------9--------|--------------------------11--|-13-------9---9---11-13-13---|
D|------------------11-9--11----11-9--|-11---------------------------|------11---------------------|
A|------------------------------------|------------------------------|-----------------------------|
E|------------------------------------|------------------------------|-----------------------------|


E|-----------------|-----------------------------|----------------------|----------------------------------|
B|-----------------|-----------------------------|----------------------|--------------------12----12--14--|
G|-9---------------|-------------9-----9---9--11-|-11-9--9--------------|----------9---11-13---------------|
D|-----------------|-------9--11-----------------|----------------------|----------------------------------|
A|-----------------|-----------------------------|----------------------|----------------------------------|
E|-----------------|-----------------------------|----------------------|----------------------------------|


E|----------------------|-------------12----12--14--|-16--12--12---16--------|------19---17-16---14---|
B|-12-14-14-------------|-------12-14---------------|------------------------|------------------------|
G|----------------------|---------------------------|------------------------|------------------------|
D|----------------------|---------------------------|------------------------|------------------------|
A|----------------------|---------------------------|------------------------|------------------------|
E|----------------------|---------------------------|------------------------|------------------------|


E|------16--14--14---16--12--|-12----------|----------14-16-14--12--11--12--|-12--------------|
B|-12------------------------|-------------|--------------------------------|-------12--12----|
G|---------------------------|-------------|--------------------------------|-----------------|
D|---------------------------|-------------|--------------------------------|-----------------|
A|---------------------------|-------------|--------------------------------|-----------------|
E|---------------------------|-------------|--------------------------------|-----------------|


E|------16--14--14---16--12--|-12----------|----------14-16-14--12--11--12--|-12---------------------------|
B|---------------------------|-------------|--------------------------------|------------------------------|
G|---------------------------|-------------|--------------------------------|------------------------9--11-|
D|---------------------------|-------------|--------------------------------|------------------9--11-------|
A|---------------------------|-------------|--------------------------------|------------9--11-------------|
E|---------------------------|-------------|--------------------------------|------------------------------|


E|-------------------------------|-------------------------------|---------------------------------|
B|-------12--9-------------------|--------------------12---12-10-|-12------------------------------|
G|-13-----------11-9---11-13-----|-11---11-13-9---9--------------|-----------9---8--9-----8--9--11-|
D|-------------------------------|-------------------------------|---------------------11----------|
A|-------------------------------|-------------------------------|---------------------------------|
E|-------------------------------|-------------------------------|---------------------------------|


E|------------------------------------------|------16--14--14---16--12--|-12----12-14-12--7---------|
B|-9--12-10-9-----9--10-9-----9--------9----|---------------------------|-------12-14-12--9---7--5--|
G|-------------11----------11----11-13------|---------------------------|---------------------------|
D|------------------------------------------|---------------------------|---------------------------|
A|------------------------------------------|---------------------------|---------------------------|
E|------------------------------------------|---------------------------|---------------------------|


E|-7------------------------12--------|-17-19-19-----|--------|--------|--------|--------|
B|-7--9--7---7--------9--10-----10-9--|--------------|--------|--------|--------|--------|
G|------------------------------------|--------------|--------|--------|--------|--------|
D|------------------------------------|--------------|--------|--------|--------|--------|
A|------------------------------------|--------------|--------|--------|--------|--------|
E|------------------------------------|--------------|--------|--------|--------|--------|


E|--------|--------|--------|--------|--------|--------|--------|--------|--------|
B|--------|--------|--------|--------|--------|--------|--------|--------|--------|
G|--------|--------|--------|--------|--------|--------|--------|--------|--------|
D|--------|--------|--------|--------|--------|--------|--------|--------|--------|
A|--------|--------|--------|--------|--------|--------|--------|--------|--------|
E|--------|--------|--------|--------|--------|--------|--------|--------|--------|


E|--------|--------|--------|------------------------------|-----------------------------|
B|--------|--------|--------|----------12--12--10--9-------|-----------------------------|
G|--------|--------|--------|--------------------------11--|-13-------9---9---11-13------|
D|--------|--------|--------|------------------------------|------11---------------------|
A|--------|--------|--------|------------------------------|-----------------------------|
E|--------|--------|--------|------------------------------|-----------------------------|


E|------------------------------|--------------------9--------|------------------------------|
B|----------12--12--10--9-------|--------------9--12----------|----------12--12--10--9-------|
G|--------------------------11--|-13----13--------------13-9--|--------------------------11--|
D|------------------------------|-----------------------------|------------------------------|
A|------------------------------|-----------------------------|------------------------------|
E|------------------------------|-----------------------------|------------------------------|


E|--------------------------------|-------------|--------------------------------|
B|--------------------------------|-------------|--------------------------------|
G|-13-------9---9---11-13-13--11--|-9-----------|------------9---9-------11-13---|
D|------11------------------------|-------------|------9--11---------11----------|
A|--------------------------------|-------------|--------------------------------|
E|--------------------------------|-------------|--------------------------------|


E|----------------|--------------------------------|------------------|-------------12--12--14--|
B|----------------|--------------------12--12--14--|-12-14-14---------|-------12-14-------------|
G|-11--9---9------|-------9---11-12-13-------------|------------------|-------------------------|
D|----------------|--------------------------------|------------------|-------------------------|
A|----------------|--------------------------------|------------------|-------------------------|
E|----------------|--------------------------------|------------------|-------------------------|


E|-14-16-12--12---16--------|-----19---19--16-14-12--14---|------16--14--14---16--12--|
B|--------------------------|-----------------------------|---------------------------|
G|--------------------------|-----------------------------|---------------------------|
D|--------------------------|-----------------------------|---------------------------|
A|--------------------------|-----------------------------|---------------------------|
E|--------------------------|-----------------------------|---------------------------|


E|-12----12-14-------------------|----------14-16-14--12--11--12--|-12----12----12----7-----|
B|-------------12-14-------------|--------------------------------|-------------12-14-7--5--|
G|-------------------11-13-9--11-|-11-----------------------------|-------------------------|
D|-------------------------------|--------------------------------|-------------------------|
A|-------------------------------|--------------------------------|-------------------------|
E|-------------------------------|--------------------------------|-------------------------|


E|-7--7------16--14--14---16--12--|-12----------12--12------|-12-14---14---14-14-14-12-11-12-9--11-|
B|-7--9---------------------------|----------14---------14--|--------------------------------------|
G|--------------------------------|-------------------------|--------------------------------------|
D|--------------------------------|-------------------------|--------------------------------------|
A|--------------------------------|-------------------------|--------------------------------------|
E|--------------------------------|-------------------------|--------------------------------------|


E|----9-------------------------------------|-----------------------------|-------------------------------|
B|-12----10-12-9--10----9-------------------|-----------------------------|-------10----------------------|
G|-------------------11----11-13-9--9--9----|-----------------9---11--13--|-13-------13-13-11--11-9---9---|
D|------------------------------------------|-------9---9--11-------------|-------------------------------|
A|------------------------------------------|-----------------------------|-------------------------------|
E|------------------------------------------|-----------------------------|-------------------------------|


E|-------------------------------------|-------------------------------|------16--14--14---16--12--|
B|-------------------------------------|-----------12--12-14-12---12---|---------------------------|
G|-9--11-11-------------9--11-13-11-9--|-----11-13---------------------|---------------------------|
D|----------------9--11----------------|-------------------------------|---------------------------|
A|-------------------------------------|-------------------------------|---------------------------|
E|-------------------------------------|-------------------------------|---------------------------|


E|-12---------12----------|-7--------------14-14-14--12--11--|-12----16--16----|------9--12-9--7--9---12--7---4---|
B|------------12-14-12-10-|-7--9--7---7----------------------|-----------------|------9--12-9--7--9---12--7---4---|
G|------------------------|----------------------------------|-----------------|----------------------------------|
D|------------------------|----------------------------------|-----------------|----------------------------------|
A|------------------------|----------------------------------|-----------------|----------------------------------|
E|------------------------|----------------------------------|-----------------|----------------------------------|


E|-------------------------------------------|---------------------------|-------------------------------12------|
B|-------------------------------------------|---------12--12--12---12---|--------10-------10------------12------|
G|-9--11-9--6--9--9--6--4--9---9---9--9------|---------11--11--11---11---|--------9--------9-----11---11---------|
D|-9--11-9--6--9--9--6--4--11--11--11-9------|-9---9---------------------|-9--11--------11-----------------------|
A|---------------------------------------12--|---------------------------|---------------------------------------|
E|-------------------------------------------|---------------------------|---------------------------------------|


E|-----16-16-16----16------------|--------|-------------------------------|-----------------------------|
B|-17--17-17-17-17----------17---|--------|-9-----------------------------|-----------------------------|
G|-------------------------------|--------|----11-9--11-11----8--11-9--8--|-----------------------------|
D|-------------------------------|--------|-------------------------------|-11-9--7---------------------|
A|-------------------------------|--------|-------------------------------|----------6--9--7--6---7-----|
E|-------------------------------|--------|-------------------------------|-----------------------------|


E|--------------------|
B|--------------------|
G|----------4--4------|
D|-------2------------|
A|----2---------------|
E|-0------------------|





Track 6: Untitled

E|---------------------------|--------|--------------------------------|-----------------|
B|---------------------------|--------|--------------------------------|-----------------|
G|---------------------------|--------|--------------------------------|-----------------|
D|---------------------------|--------|----------1--2--1---------------|-----------------|
A|------7---6---6----7-------|--------|--------------------4---2---4---|-4-----2---2-----|
E|-----------------------9---|-9------|--------------------------------|-----------------|


E|---------------------------|--------|--------------------------------|-------0---0-----|
B|---------------------------|--------|--------------------------------|-----------------|
G|---------------------------|--------|--------------------------------|-----------------|
D|---------------------------|--------|----------1--2--1---------------|-----------------|
A|------7---6---6----7-------|--------|--------------------4---2---4---|-4-----2---2-----|
E|-----------------------9---|-9------|--------------------------------|-----------0-----|


E|--------------------------------|--------------------------|--------------|-------------------------------------------|
B|--------------------------------|--------------------------|--------------|-12----------------------------------------|
G|--------------------------------|--------------------------|--------------|-----9--11-11-9--11-13-13--11-9------------|
D|------------------------9-------|-9----11------------------|--------------|---------------------------------11-9------|
A|----------7---7---9--11-----11--|------------9--11-9---7---|-7--9--9------|---------------------------------------11--|
E|--------------------------------|--------------------------|--------------|-------------------------------------------|


E|---------------------------|-----------------------|-----------------------|-----------------|
B|---------------------------|-----------------------|-----------------------|-----------------|
G|------9---8---8----9-------|-------8---8---8-------|---------------8---9---|-11----13--13----|
D|-9---------------------11--|-11----------------11--|-9-----9---11----------|-----------------|
A|---------------------------|-----------------------|-----------------------|-----------------|
E|---------------------------|-----------------------|-----------------------|-----------------|


E|------------------------------|-----------------------------|------------------------------|
B|------------------------------|-----------------------------|------------------------------|
G|------------------------------|-----------------------------|------------------------------|
D|----------9---9---7---6-------|-----------------------------|----------9---9---7---6-------|
A|--------------------------9---|-11-------7---7---9--11------|--------------------------9---|
E|------------------------------|------9----------------------|------------------------------|


E|--------------------|------------------------------|------------------------------|
B|--------------------|------------------------------|------------------------------|
G|--------------------|------------------------------|------------------------------|
D|--------------------|----------9---9---7---6-------|------------------------------|
A|-11-----11-9--7-----|--------------------------9---|-11-------7---7---9---9---11--|
E|-----------------7--|-9----------------------------|------9-----------------------|


E|--------|--------|--------|--------|--------|--------|--------|--------|------12--11--11---12------|
B|--------|--------|--------|--------|--------|--------|--------|--------|-----------------------14--|
G|--------|--------|--------|--------|--------|--------|--------|--------|---------------------------|
D|--------|--------|--------|--------|--------|--------|--------|--------|---------------------------|
A|--------|--------|--------|--------|--------|--------|--------|--------|---------------------------|
E|--------|--------|--------|--------|--------|--------|--------|--------|---------------------------|


E|-------------|----------11-12-11--9-------9---|-----------------|------12--11--11---12------|
B|-14----------|------------------------12------|-14----12--12----|-----------------------14--|
G|-------------|--------------------------------|-----------------|---------------------------|
D|-------------|--------------------------------|-----------------|---------------------------|
A|-------------|--------------------------------|-----------------|---------------------------|
E|-------------|--------------------------------|-----------------|---------------------------|


E|-------------|----------11-12-11--9-------9---|--------------------------14-12-------|
B|-14----------|------------------------12------|-12-------10--9--10-9-----------14-12-|
G|-------------|--------------------------------|-----------------------11-------------|
D|-------------|--------------------------------|--------------------------------------|
A|-------------|--------------------------------|--------------------------------------|
E|-------------|--------------------------------|--------------------------------------|


E|----------------------------------------|-------------------------------|--------------------|
B|----------------------------------------|-------------------------------|--------------------|
G|----------------6--6--9--9--9--9--6--9--|-11-11-11-11-13-13-9--9--9-----|--------------------|
D|----------9--9--------------------------|-------------------------------|-9----------9---11--|
A|----------------------------------------|-------------------------------|--------------------|
E|----------------------------------------|-------------------------------|--------------------|


E|--------------------|------12--11--11---12------|--------|----------------------------------------|
B|--------------------|-----------------------14--|-14-----|------12-10-9---10-9--------10-12-------|
G|--------------------|---------------------------|--------|----------------------11-13-------13-11-|
D|-11-------9---9-----|---------------------------|--------|----------------------------------------|
A|--------------------|---------------------------|--------|----------------------------------------|
E|--------------------|---------------------------|--------|----------------------------------------|


E|-------------------------------------------|--------|--------|--------|--------|
B|-------------------------12----------------|--------|--------|--------|--------|
G|-11-9-----9-----9-----9--------------------|--------|--------|--------|--------|
D|----9-----9-----9-----9----------9--11-11--|--------|--------|--------|--------|
A|-------------------------------------------|--------|--------|--------|--------|
E|-----------------------------7-------------|--------|--------|--------|--------|


E|--------|--------|--------|--------|--------|--------|--------|--------|--------|
B|--------|--------|--------|--------|--------|--------|--------|--------|--------|
G|--------|--------|--------|--------|--------|--------|--------|--------|--------|
D|--------|--------|--------|--------|--------|--------|--------|--------|--------|
A|--------|--------|--------|--------|--------|--------|--------|--------|--------|
E|--------|--------|--------|--------|--------|--------|--------|--------|--------|


E|--------|--------|--------|------------------------------|-----------------------------|
B|--------|--------|--------|------------------------------|-----------------------------|
G|--------|--------|--------|------------------------------|-----------------------------|
D|--------|--------|--------|----------9---9---7---6-------|-----------------------------|
A|--------|--------|--------|--------------------------9---|-11-------7---7---9--11------|
E|--------|--------|--------|------------------------------|------9----------------------|


E|------------------------------|------------------|------------------------------|
B|------------------------------|------------------|------------------------------|
G|------------------------------|------------13-11-|-9----------------------------|
D|----------9---9---7---6-------|------------------|----------9---9---7---6-------|
A|--------------------------9---|-11---------------|--------------------------9---|
E|------------------------------|------------------|------------------------------|


E|--------------------------------|-------------|--------|--------|--------|--------|
B|--------------------------------|-------------|--------|--------|--------|--------|
G|--------------------------------|-------------|--------|--------|--------|--------|
D|--------------------------------|-------------|--------|--------|--------|--------|
A|-11-------7---7---9--11-11--9---|-7-----------|--------|--------|--------|--------|
E|------9-------------------------|-------------|--------|--------|--------|--------|


E|--------|--------|--------|---------------------------|-------------|--------------------------------|
B|--------|--------|--------|---------------------------|-------------|--------------------------------|
G|--------|--------|--------|------9---8---8----9-------|-------------|----------8--9--8---------------|
D|--------|--------|--------|-----------------------11--|-11----------|--------------------11--9---11--|
A|--------|--------|--------|---------------------------|-------------|--------------------------------|
E|--------|--------|--------|---------------------------|-------------|--------------------------------|


E|-----------------|---------------------------|-------------|--------------------------------|
B|-----------------|---------------------------|-------------|--------------------------------|
G|-----------------|------9---8---8----9-------|-------------|----------8--9--8---------------|
D|-11----9---9-----|-----------------------11--|-11----------|--------------------11--9---11--|
A|-----------------|---------------------------|-------------|--------------------------------|
E|-----------------|---------------------------|-------------|--------------------------------|


E|--------------------------|--------|--------|--------|-------------|------12--11--11---12------|
B|--------------------------|--------|--------|--------|-------------|-----------------------14--|
G|-------9---9----------9---|--------|--------|--------|-------------|---------------------------|
D|-11-------------9--11-----|--------|--------|--------|-------------|---------------------------|
A|--------------------------|-7------|--------|-2------|-------------|---------------------------|
E|--------------------------|--------|-5------|--------|-5-----0-----|---------------------------|


E|--------|----------11-12-11--9-------9---|-------12--12----|------------------------------|
B|-14-----|------------------------12------|-14--------------|------------------------------|
G|--------|--------------------------------|-----------------|------------------------------|
D|--------|--------------------------------|-----------------|------------------------------|
A|--------|--------------------------------|-----------------|-7-----7----7--7--------7--7--|
E|--------|--------------------------------|-----------------|------------------7--9--------|


E|------------------------------|--------|-----------------------------|--------|---------------------------|
B|------------------------------|--------|-----------------------------|--------|---------------------------|
G|------------------------------|--------|-----------------------------|-9------|-----------13-13-13-11-9---|
D|------------------------------|--------|-9--11-11-11-11-9------9-----|--------|---------------------------|
A|-9--11---11--9---9----9---11--|-9------|-------------------11--------|--------|---------------------------|
E|------------------------------|--------|-----------------------------|--------|---------------------------|


E|-------------------------------|-----------------------------|--------|
B|-----------------12------------|-12-9------------------------|--------|
G|-9--11---11---11----11-9--9----|-------11-9------------------|--------|
D|-------------------------------|-------------11-9------9-----|--------|
A|-------------------------------|-------------------11--------|--------|
E|-------------------------------|-----------------------------|--------|