Menu:

 

Search:

 

joe satriani - until we say goodbye:

 



Title: Until We Say Goodbye
Artist: 
Album: Engines Of Creations
Author: Joe Satriani


Track 1: gtr 1

E|----------------------------------|--------------------------------|----------------------------------|
B|----------------------------------|-----5--------------------------|----------------------------------|
G|--------------5------5--5-----7---|-7------------7----5--7---9-----|--------------5------5--5-----7---|
D|-----------7------7--------7------|-----------------------------7--|-7---------7------7--------7------|
A|----------------------------------|--------------------------------|----------------------------------|
E|----------------------------------|--------------------------------|----------------------------------|


E|--------------------|----------------------------------|--------------------------------|
B|-----5--------------|---------------------------5------|-----5----------------8--10-----|
G|-7------------------|--------------5------5--5-----7---|-7-----------------9------------|
D|--------------------|-----------7------7---------------|--------------------------------|
A|--------------------|----------------------------------|--------------------------------|
E|--------------------|----------------------------------|--------------------------------|


E|--------------------|-------------------------------|----------------------------------|
B|-13-10----10-10-----|-10---10-13-10-8--8--------10--|----------------------------------|
G|--------------------|-------------------------------|--------------5------5--5-----7---|
D|--------------------|-------------------------------|-----------7------7--------7------|
A|--------------------|-------------------------------|----------------------------------|
E|--------------------|-------------------------------|----------------------------------|


E|--------------------------------|----------------------------------|-----------------|
B|-----5--------------------------|----------------------------------|-----------------|
G|-7------------7----5--7---9-----|-----------4---4-4-4--4-----------|-----------------|
D|-----------------------------7--|-7------------------------5---2---|-2---5----5------|
A|--------------------------------|----------------------------------|-----------------|
E|--------------------------------|----------------------------------|-----------------|


E|----------------------------------|-------------------------------8--|--------------------|
B|---------------------------5------|-----5----------------8--10-------|----10----10-10-----|
G|--------------5------5--5-----7---|-7-----------------9--------------|--------------------|
D|-5---------7------7---------------|----------------------------------|--------------------|
A|----------------------------------|----------------------------------|--------------------|
E|----------------------------------|----------------------------------|--------------------|


E|---------------------------|---------------------------------|-----------------------------------|
B|-10--------8-------8-------|-8--10---10----------------------|-----------------------------------|
G|-------9-------9-------9---|-----------------9---9-------7---|-7---9--------9---10--9--10-9--7---|
D|---------------------------|---------------------------------|-----------------------------------|
A|---------------------------|---------------------------------|-----------------------------------|
E|---------------------------|---------------------------------|-----------------------------------|


E|------------------------------|--------------------------------------|---------------------------|
B|------------------5-----------|--------------------------------------|---------------------------|
G|-9----7--5----9-----------7---|-7---9-------12--12--10--9--10-9--7---|-9---------9---9-------7---|
D|------------------------------|--------------------------------------|---------------------------|
A|------------------------------|--------------------------------------|---------------------------|
E|------------------------------|--------------------------------------|---------------------------|


E|------------------------------|-----------------|--------|----------15--15--13-----12-----|
B|------------------------------|-----------------|--------|--------------------------------|
G|-7---9------------------------|-7-----7-----6---|--------|--------------------------------|
D|------------------7---7---7---|-----------------|-7------|--------------------------------|
A|------------------------------|-----------------|--------|--------------------------------|
E|------------------------------|-----------------|--------|--------------------------------|


E|-10--------7--7--7--5--3---|-3--5----5------|-5------|---------------------7--8--7--7--|
B|---------------------------|----------------|--------|-5--5----------------10-10-10-10-|
G|---------------------------|----------------|--------|-5--5----------------7--9--7--7--|
D|---------------------------|----------------|--------|---------------------------------|
A|---------------------------|----------------|--------|---------------------------------|
E|---------------------------|----------------|--------|---------------------------------|


E|-7--8--7--8----------10----10-10-10-10-10-|-10-10----10----7-----7--7--8-----8-----8--7--8--|
B|-10-10-10-10---------10----10-10-10-10-10-|-10-10----10----10----10-10-10----10----10-10-10-|
G|-7--9--7--9----------9-----9--9--9--9--9--|-9--9-----9--------7--7--7--9-----9-----9--7--9--|
D|------------------------------------------|-------------------------------------------------|
A|------------------------------------------|-------------------------------------------------|
E|------------------------------------------|-------------------------------------------------|


E|-------20--1619--16-------------|------------------------------------------|-----------------------------|
B|-------------------17-----------|------------------------------------------|-----------------------------|
G|---------------------18---------|-----10--10-9--7---5--7----7--7--7--9--10-|-9----7------7--7---5---7----|
D|-----------------------19-------|------------------------------------------|----------10-----------------|
A|--------------------------------|------------------------------------------|-----------------------------|
E|-------------------------17-17--|------------------------------------------|-----------------------------|


E|--------------------------------10-12-13-10-12----10----------15---12|------------------------------------------------|
B|-------------------101110-101113---------------13----11-13-10----13--|-13---------------------------------------------|
G|-----9-109---9-1012--------------------------------------------------|---1412-9---------------------------------10-7--|
D|-----------12--------------------------------------------------------|-----------10-----------------------------------|
A|---------------------------------------------------------------------|-------------1210-8--7--8--10-12-10-------------|
E|---------------------------------------------------------------------|------------------------------------------------|


E|--------------------------------------|-------------------------------|----10-13-10-12-10--------------------------------|
B|----------------------10------10---10-|-15---13-----------------------|-10----------------13-10----13-10-----------------|
G|-9--9--9--9--------10----12-----------|-----------14-14-12-14-14---12-|-------------------------12-------------12--------|
D|-------------10-12--------------------|-------------------------------|----------------------------------12-10----101210-|
A|--------------------------------------|-------------------------------|--------------------------------------------------|
E|--------------------------------------|-------------------------------|--------------------------------------------------|


E|-------------------------------------------------|-------------------------------------------------------------|
B|-------------------------------------------------|---------------------------------------------------101110--10|
G|-121412-10-12-10-9--10-9-109-7--5--7--9--9----7--|-7---------------------------7-9---129-109---9-1012------12--|
D|-10-----8-----8--7--8--7-----------------7-------|-7---------7-----7-8-107-8-10--------------12----------------|
A|-101210-8--10-8--7--8--7-8-7-5--3--5--7--7----5--|-5---7-8-10--8-10--------------------------------------------|
E|-------------------------------------------------|-------------------------------------------------------------|


E|-----101210--1012131210--10------15--12--------------------------|----------------------------------8--------|
B|-1013------13----------13--131110--12--13------------------------|---------------------------9--9------10-9--|
G|-----------------------------------------14129-------------------|----------7--9----7---7--------------------|
D|------------------------------------------------1012-------------|-------7------------10---------------------|
A|-----------------------------------------------------10--8-108-7-|-7--8--------------------------------------|
E|-----------------------------------------------------------------|-------------------------------------------|


E|-----------------------------------------------------------------|--------------------------10-15--15--13--|
B|-8-----9--8-----9--8---------------------------------------------|-------13--------10-10-13----------------|
G|----7-----------------10-7--12-10--------------------------------|----------12-12--------------------------|
D|----------------------------------12-10--------------------------|----10-----------------------------------|
A|----------------------------------------12-10-8-----8--10--8--10-|-12--------------------------------------|
E|-------------------------------------------------10--------------|-----------------------------------------|


E|--------------------------10-15---18-15--|-17-14--------------------------------------------|
B|-------13--------10-10-13--------------15|------15------------------------------------------|
G|----------12-12--------------------------|--------16------12--------------------------------|
D|----10-----------------------------------|----------1715-----14----14-12--14-10----12-10-7--|
A|-12--------------------------------------|--------------------------------------------------|
E|-----------------------------------------|--------------------------------------------------|


E|----------------------------------------|-------------------5-----5--5---5---5---|
B|----------------------------------------|-------------------5-----5--5---5---5---|
G|----------------------------------------|-5--5--------------7-----7--7---7---7---|
D|-8--7--------------5--7--5----5--14-----|-5--5-----------------------------------|
A|-------10-12-10-8-----------------------|----------------------------------------|
E|------------------------------------15--|----------------------------------------|


E|----------------------------------------|------------------------------------|-----------------------------|
B|-5-----------------5-----5--5---5---5---|-5--5----------------5--5---5---5---|-5---5-------5---5-----------|
G|-5--5--------------4-----4--4---4---4---|-4--5----------------7--7---7---7---|-7---7---5---5------4--4-----|
D|----------------------------------------|------------------------------------|-----------------------------|
A|----------------------------------------|------------------------------------|-----------------------------|
E|----------------------------------------|------------------------------------|-----------------------------|


E|--------------------|----------------------------------|--------------------------------|
B|--------------------|-------------------------5--------|-------------5------------------|
G|-4------------------|-5------5--5-----7---7------------|-7----5--7----------------------|
D|-----------------7--|-----7--------7-------------------|----------------7--7---------7--|
A|--------------------|----------------------------------|--------------------------------|
E|--------------------|----------------------------------|--------------------------------|


E|----------------------------------|--------------------|----------------------------------|
B|-------------------------5--------|--------------------|--------------5----------5--------|
G|-5------5--5-----7---7------------|--------------------|-5------5--5-----7---7------------|
D|-----7--------7-------------------|-----------------7--|-----7----------------------------|
A|----------------------------------|--------------------|----------------------------------|
E|----------------------------------|--------------------|----------------------------------|


E|------------------------------------|-----------101210-10-----------|------------------------------------|
B|---------8--10-----13-10----10-10---|-------10------------131513----|------------------------------------|
G|------9-----------------------------|-------------------------------|-12-1412----------------------------|
D|------------------------------------|-------------------------------|-----------121412--14--10---10---7--|
A|------------------------------------|-------------------------------|------------------------------------|
E|------------------------------------|-------------------------------|------------------------------------|


E|------------------------------|-----------------------------------|---------------------------------|
B|------------------------------|-----------------------------------|-----5---------------------------|
G|-9---9-------7---7---9--------|-9---10--9--10-9--7---9----7--5----|-9-----------7---7---9-------12--|
D|------------------------------|-----------------------------------|---------------------------------|
A|------------------------------|-----------------------------------|---------------------------------|
E|------------------------------|-----------------------------------|---------------------------------|


E|--------------------------------|------------------------------|-----------------------|
B|--------------------------------|------------------------------|-----------------------|
G|-12--10--9--10-9--7---9---------|-9---9-------7---7---9--------|-----------------7-----|
D|--------------------------------|------------------------------|-----7---7---7---------|
A|--------------------------------|------------------------------|-----------------------|
E|--------------------------------|------------------------------|-----------------------|


E|-----------------|-5---------------------------------------------------|-----10---10-8--10--10-10------|
B|-----------------|----8--5---------------------------------------------|-------------------------------|
G|-7-----6---------|----------7--5-----7-----5-------------------5-------|-------------------------------|
D|-----------7-----|----------------7-----7-----7--5-----5--7------------|-------------------------------|
A|-----------------|----------------------------------7------------------|-------------------------------|
E|-----------------|-----------------------------------------------------|-------------------------------|


E|----7-7-7---7--5------5--------------|---------------------------------|-----------------------------------|
B|------------------8--------8--5------|-----5---------------------------|-----------------------------------|
G|-------------------------------------|-9-----------7---7---9-------12--|-12--10--9--10-9--7---9----9-------|
D|-------------------------------------|---------------------------------|-----------------------------------|
A|-------------------------------------|---------------------------------|-----------------------------------|
E|-------------------------------------|---------------------------------|-----------------------------------|


E|------------------------------|-----------------------|-----------------|----------------15--|
B|------------------------------|-----------------------|-----------------|--------------------|
G|-9---9-------7---7---9--------|-----------------7-----|-7-----6---------|--------------------|
D|------------------------------|-----7---7---7---------|-----------7-----|--------------------|
A|------------------------------|-----------------------|-----------------|--------------------|
E|------------------------------|-----------------------|-----------------|--------------------|


E|-15--13-----12-----10----|-----7--7--7--5--3---3--5----5----|-------5-----|-----------------|
B|-------------------------|----------------------------------|-------------|-----------------|
G|-------------------------|----------------------------------|-------------|-----------------|
D|-------------------------|----------------------------------|-------------|-----------------|
A|-------------------------|----------------------------------|-------------|-----------------|
E|-------------------------|----------------------------------|-------------|-----------------|


E|--------|--------|--------|--------|
B|--------|--------|--------|--------|
G|--------|--------|--------|--------|
D|--------|--------|--------|--------|
A|--------|--------|--------|--------|
E|--------|--------|--------|--------|





Track 2: gtr 2

E|--------|--------|--------|--------|--------|--------|--------|--------|--------|
B|--------|--------|--------|--------|--------|--------|--------|--------|--------|
G|--------|--------|--------|--------|--------|--------|--------|--------|--------|
D|--------|--------|--------|--------|--------|--------|--------|--------|--------|
A|--------|--------|--------|--------|--------|--------|--------|--------|--------|
E|--------|--------|--------|--------|--------|--------|--------|--------|--------|


E|--------|--------|--------|--------|--------|--------|--------|--------|--------|
B|--------|--------|--------|--------|--------|--------|--------|--------|--------|
G|--------|--------|--------|--------|--------|--------|--------|--------|--------|
D|--------|--------|--------|--------|--------|--------|--------|--------|--------|
A|--------|--------|--------|--------|--------|--------|--------|--------|--------|
E|--------|--------|--------|--------|--------|--------|--------|--------|--------|


E|--------|--------|--------|--------|--------|--------|--------|--------|--------|
B|--------|--------|--------|--------|--------|--------|--------|--------|--------|
G|--------|--------|--------|--------|--------|--------|--------|--------|--------|
D|--------|--------|--------|--------|--------|--------|--------|--------|--------|
A|--------|--------|--------|--------|--------|--------|--------|--------|--------|
E|--------|--------|--------|--------|--------|--------|--------|--------|--------|


E|--------|------------------------------------|------------------------------------|
B|--------|------------------------------------|------------------------------------|
G|--------|------------------------------------|------------------------------------|
D|--------|------------------------------------|------------------------------------|
A|--------|------------------------------------|------------------------------------|
E|--------|-5--5------3---5--3--5--5-----------|-5--5------3---5--3--5--5-----------|


E|------------------------------------|------------------------------------|--------|
B|------------------------------------|------------------------------------|--------|
G|------------------------------------|------------------------------------|--------|
D|------------------------------------|------------------------------------|--------|
A|------------------------------------|------------------------------------|--------|
E|-5--5------3---5--3--5--5-----------|-5--5------3---5--3--5--5-----------|--------|


E|--------|--------|--------|--------|--------|--------|--------|--------|--------|
B|--------|--------|--------|--------|--------|--------|--------|--------|--------|
G|--------|--------|--------|--------|--------|--------|--------|--------|--------|
D|--------|--------|--------|--------|--------|--------|--------|--------|--------|
A|--------|--------|--------|--------|--------|--------|--------|--------|--------|
E|--------|--------|--------|--------|--------|--------|--------|--------|--------|


E|--------|--------|--------|--------|--------|--------|------------------------------------|
B|--------|--------|--------|--------|--------|--------|------------------------------------|
G|--------|--------|--------|--------|--------|--------|------------------------------------|
D|--------|--------|--------|--------|--------|--------|------------------------------------|
A|--------|--------|--------|--------|--------|--------|------------------------------------|
E|--------|--------|--------|--------|--------|--------|-5--5------3---5--3--5--5-----------|


E|------------------------------------|------------------------------------|------------------------------------|
B|------------------------------------|------------------------------------|------------------------------------|
G|------------------------------------|------------------------------------|------------------------------------|
D|------------------------------------|------------------------------------|------------------------------------|
A|------------------------------------|------------------------------------|------------------------------------|
E|-5--5------3---5--3--5--5-----------|-5--5------3---5--3--5--5-----------|-5--5------3---5--3--5--5-----------|


E|-------------|--------|--------|--------|--------|--------|--------|--------|--------|
B|-------------|--------|--------|--------|--------|--------|--------|--------|--------|
G|-------------|--------|--------|--------|--------|--------|--------|--------|--------|
D|-------------|--------|--------|--------|--------|--------|--------|--------|--------|
A|-------------|--------|--------|--------|--------|--------|--------|--------|--------|
E|-------------|--------|--------|--------|--------|--------|--------|--------|--------|


E|--------|--------|--------|--------|--------|--------|--------|--------|--------|
B|--------|--------|--------|--------|--------|--------|--------|--------|--------|
G|--------|--------|--------|--------|--------|--------|--------|--------|--------|
D|--------|--------|--------|--------|--------|--------|--------|--------|--------|
A|--------|--------|--------|--------|--------|--------|--------|--------|--------|
E|--------|--------|--------|--------|--------|--------|--------|--------|--------|


E|--------|--------|--------|--------|--------|--------|--------|--------|--------|
B|--------|--------|--------|--------|--------|--------|--------|--------|--------|
G|--------|--------|--------|--------|--------|--------|--------|--------|--------|
D|--------|--------|--------|--------|--------|--------|--------|--------|--------|
A|--------|--------|--------|--------|--------|--------|--------|--------|--------|
E|--------|--------|--------|--------|--------|--------|--------|--------|--------|


E|--------|--------|--------|--------|--------|--------|
B|--------|--------|--------|--------|--------|--------|
G|--------|--------|--------|--------|--------|--------|
D|--------|--------|--------|--------|--------|--------|
A|--------|--------|--------|--------|--------|--------|
E|--------|--------|--------|--------|--------|--------|





Track 3: gtr 3

E|--------|--------|--------|--------|--------|--------|--------|--------|--------|
B|--------|--------|--------|--------|--------|--------|--------|--------|--------|
G|--------|--------|--------|--------|--------|--------|--------|--------|--------|
D|--------|--------|--------|--------|--------|--------|--------|--------|--------|
A|--------|--------|--------|--------|--------|--------|--------|--------|--------|
E|--------|--------|--------|--------|--------|--------|--------|--------|--------|


E|--------|--------|--------|--------|--------|--------|--------|--------|--------|
B|--------|--------|--------|--------|--------|--------|--------|--------|--------|
G|--------|--------|--------|--------|--------|--------|--------|--------|--------|
D|--------|--------|--------|--------|--------|--------|--------|--------|--------|
A|--------|--------|--------|--------|--------|--------|--------|--------|--------|
E|--------|--------|--------|--------|--------|--------|--------|--------|--------|


E|--------|--------|--------|--------|--------|--------|--------|--------|--------|
B|--------|--------|--------|--------|--------|--------|--------|--------|--------|
G|--------|--------|--------|--------|--------|--------|--------|--------|--------|
D|--------|--------|--------|--------|--------|--------|--------|--------|--------|
A|--------|--------|--------|--------|--------|--------|--------|--------|--------|
E|--------|--------|--------|--------|--------|--------|--------|--------|--------|


E|--------|--------|--------|--------|--------|--------|--------|--------|--------|
B|--------|--------|--------|--------|--------|--------|--------|--------|--------|
G|--------|--------|--------|--------|--------|--------|--------|--------|--------|
D|--------|--------|--------|--------|--------|--------|--------|--------|--------|
A|--------|--------|--------|--------|--------|--------|--------|--------|--------|
E|--------|--------|--------|--------|--------|--------|--------|--------|--------|


E|--------|--------|--------|--------|--------|--------|--------|--------|--------|
B|--------|--------|--------|--------|--------|--------|--------|--------|--------|
G|--------|--------|--------|--------|--------|--------|--------|--------|--------|
D|--------|--------|--------|--------|--------|--------|--------|--------|--------|
A|--------|--------|--------|--------|--------|--------|--------|--------|--------|
E|--------|--------|--------|--------|--------|--------|--------|--------|--------|


E|--------|--------|--------|--------|--------|--------|--------|--------|--------|
B|--------|--------|--------|--------|--------|--------|--------|--------|--------|
G|--------|--------|--------|--------|--------|--------|--------|--------|--------|
D|--------|--------|--------|--------|--------|--------|--------|--------|--------|
A|--------|--------|--------|--------|--------|--------|--------|--------|--------|
E|--------|--------|--------|--------|--------|--------|--------|--------|--------|


E|--------|--------|--------|--------|--------|--------|--------|--------|--------|
B|--------|--------|--------|--------|--------|--------|--------|--------|--------|
G|--------|--------|--------|--------|--------|--------|--------|--------|--------|
D|--------|--------|--------|--------|--------|--------|--------|--------|--------|
A|--------|--------|--------|--------|--------|--------|--------|--------|--------|
E|--------|--------|--------|--------|--------|--------|--------|--------|--------|


E|--------|--------|--------|--------|--------|--------|--------|--------|--------|
B|--------|--------|--------|--------|--------|--------|--------|--------|--------|
G|--------|--------|--------|--------|--------|--------|--------|--------|--------|
D|--------|--------|--------|--------|--------|--------|--------|--------|--------|
A|--------|--------|--------|--------|--------|--------|--------|--------|--------|
E|--------|--------|--------|--------|--------|--------|--------|--------|--------|


E|--------|--------|--------|--------|--------|--------|--------|--------|---------------17------|
B|--------|--------|--------|--------|--------|--------|--------|--------|-----------17--17--17--|
G|--------|--------|--------|--------|--------|--------|--------|--------|-----------17------17--|
D|--------|--------|--------|--------|--------|--------|--------|--------|-----------------------|
A|--------|--------|--------|--------|--------|--------|--------|--------|-----------------------|
E|--------|--------|--------|--------|--------|--------|--------|--------|-----------------------|


E|---------------15------|---------------17------|---------------15------|-------------|
B|-----------17--17--17--|-----------17--17--17--|-----------17--17--17--|-------------|
G|-----------16------16--|-----------14------14--|-----------------------|-------------|
D|-----------------------|-----------------------|-----------17------17--|-------------|
A|-----------------------|-----------------------|-----------------------|-------------|
E|-----------------------|-----------------------|-----------------------|-------------|





Track 4: Bass

G|----------------------|----------------------|----------------------|----------------------|
D|----------------------|----------------------|----------------------|----------------------|
A|----------------------|----------------------|----------------------|----------------------|
E|-1--1--1--------------|----------------------|-1--1--1--------------|----------------------|
B|----------------------|-1--1--1--------------|----------------------|-1--1--1--------------|


G|----------------------|----------------------|----------------------|----------------------|
D|----------------------|----------------------|----------------------|----------------------|
A|----------------------|----------------------|-0--0--0--------------|----------------------|
E|-1--1--1--------------|-0--0--0--------------|----------------------|-3--3--3--------------|
B|----------------------|----------------------|----------------------|----------------------|


G|----------------------|----------------------|----------------------|----------------------|
D|----------------------|----------------------|----------------------|----------------------|
A|----------------------|----------------------|----------------------|----------------------|
E|-1--1--1--------------|----------------------|-1--1--1--------------|----------------------|
B|----------------------|-1--1--1--------------|----------------------|-1--1--1--------------|


G|----------------------|----------------------|----------------------|----------------------|
D|----------------------|----------------------|----------------------|----------------------|
A|----------------------|----------------------|-0--0--0--------------|----------------------|
E|-1--1--1--------------|-0--0--0--------------|----------------------|-3--3--3--------------|
B|----------------------|----------------------|----------------------|----------------------|


G|----------------------|----------------------|----------------------|----------------------|
D|----------------------|----------------------|----------------------|----------------------|
A|----------------------|----------------------|----------------------|----------------------|
E|-1--1--1--------------|-3--3--3--------------|-1--1--1--------------|-3--3--3--------------|
B|----------------------|----------------------|----------------------|----------------------|


G|----------------------|----------------------|--------|-------------|----------------------|
D|----------------------|----------------------|--------|-------------|----------------------|
A|----------------------|----------------------|-0------|-0------2----|-3--3--3--------------|
E|-1--1--1--------------|-3--3--3--------------|--------|-------------|----------------------|
B|----------------------|----------------------|--------|-------------|----------------------|


G|----------------------|--------|--------|--------------------|--------------------|
D|----------------------|--------|--------|--------------------|--------------------|
A|----------------------|--------|--------|-0--0---------------|-0--0---------------|
E|-3--3--3--------------|--------|--------|--------------------|--------------------|
B|----------------------|-3------|-3------|--------------------|--------------------|


G|--------------------------------|-------------------------|-------------|-------------|
D|--------------------------------|-------------------------|-------------|-------------|
A|-0--0---------------------------|-0--0--------------------|-------------|-------------|
E|---------3---5--3--5--5---------|---------3---5--3--1-----|-------6-----|-8-----3-----|
B|--------------------------------|-------------------------|-3-----------|-------------|


G|-------------|------------------------|-------------|-------------|-------------|
D|-------------|------------------------|-------------|-------------|-------------|
A|-------------|------------------------|-------------|-------------|-------------|
E|-------6-----|-------8---8---10--8----|-------6-----|-8-----3-----|-------6-----|
B|-3-----------|-6----------------------|-3-----------|-------------|-3-----------|


G|------------------------|-------------|-------------|-------------|------------------------|
D|------------------------|-------------|-------------|-------------|------------------------|
A|------------------------|-------------|-------------|-------------|------------------------|
E|------------------------|-------6-----|-8-----3-----|-------6-----|-------8---8---10--8----|
B|-1----3----5----6---5---|-3-----------|-------------|-3-----------|-6----------------------|


G|-------------|-------------|-------------|------------------------|-------------------------------------|
D|-------------|-------------|-------------|------------------------|-------------------------------------|
A|-------------|-------------|-------------|------------------------|-0--0--------------------------------|
E|-------6-----|-8-----3-----|-------6-----|-------8---8---10--8----|---------3---5--3--5--5-----------5--|
B|-3-----------|-------------|-3-----------|-6----------------------|-------------------------------------|


G|-------------------------------------|-------------------------------------|--------------------------------|
D|-------------------------------------|-------------------------------------|--------------------------------|
A|-0--0--------------------------------|-0--0--------------------------------|-0--0---------------------------|
E|---------3---5--3--5--5-----------5--|---------3---5--3--5--5-----------5--|---------3---5--3--5--5---------|
B|-------------------------------------|-------------------------------------|--------------------------------|


G|-------------------|--------------------------|--------------------------|--------------------------|
D|-------------------|--------------------------|--------------------------|--------------------------|
A|-------------------|--------------------------|--------------------------|--------------------------|
E|-------1--1--1-----|--------------------------|--------------1--1--1-----|--------------------------|
B|-------------------|--------------1--1--1-----|--------------------------|--------------1--1--1-----|


G|--------------------------|--------------------------|--------------------------|
D|--------------------------|--------------------------|--------------------------|
A|--------------------------|--------------------------|--------------0--0--0-----|
E|--------------1--1--1-----|--------------0--0--0-----|--------------------------|
B|--------------------------|--------------------------|--------------------------|


G|--------------------------|--------------------------|--------------------------|
D|--------------------------|--------------------------|--------------------------|
A|--------------------------|--------------------------|--------------------------|
E|--------------3--3--3-----|--------------1--1--1-----|--------------3--3--3-----|
B|--------------------------|--------------------------|--------------------------|


G|--------------------------|--------------------------|--------------------------|
D|--------------------------|--------------------------|--------------------------|
A|--------------------------|--------------------------|--------------------------|
E|--------------1--1--1-----|--------------3--3--3-----|--------------1--1--1-----|
B|--------------------------|--------------------------|--------------------------|


G|--------------------------|--------------------|-------------|-------------------|
D|--------------------------|--------------------|-------------|-------------------|
A|--------------------------|--------------0-----|-------0-----|-------------------|
E|--------------3--3--3-----|--------------------|-------------|-------1--1--1-----|
B|--------------------------|--------------------|-------------|-------------------|


G|--------------------------|--------------------------|--------------------------|
D|--------------------------|--------------------------|--------------------------|
A|--------------------------|--------------------------|--------------------------|
E|--------------3--3--3-----|--------------1--1--1-----|--------------3--3--3-----|
B|--------------------------|--------------------------|--------------------------|


G|--------------------------|--------------------------|--------------------|-------------|
D|--------------------------|--------------------------|--------------------|-------------|
A|--------------------------|--------------------------|--------------0-----|-------0-----|
E|--------------1--1--1-----|--------------3--3--3-----|--------------------|-------------|
B|--------------------------|--------------------------|--------------------|-------------|


G|---------------------|------------------------|--------------------|-------------|
D|---------------------|------------------------|--------------------|-------------|
A|------2----3---3-----|------------------------|--------------------|-------------|
E|---------------------|--------------3---3-----|--------------------|-------------|
B|---------------------|------------------------|--------------3-----|-------3-----|


G|--------|--------|--------|--------|--------|
D|--------|--------|--------|--------|--------|
A|--------|--------|--------|--------|--------|
E|--------|--------|--------|--------|--------|
B|--------|--------|--------|--------|--------|