Menu:

 

Search:

 

joe satriani - turkey man intro:

 



Title: Turkey Man (Intro)
Artist: 
Album: Engines Of Creation [Bonus CD: Additional Creations]
Author: Joe Satriani


Track 1: Clean

E|----------------------------17-------------------|----------------------------12-------------------|
B|----------------------17-15-------17-------------|----------------------12-10-------12-------------|
G|----------------14-14----------14-------14-------|----------------9--9-----------9--------9--------|
D|----------14-12----------------------12-------14-|----------9--7-----------------------7--------9--|
A|----12-12----------------------------------12----|----7--7-----------------------------------7-----|
E|-10----------------------------------------------|-5-----------------------------------------------|


E|----------------------------14-------------------|----------------------------9--------------------|
B|----------------------14-12-------14-------------|----------------------9--7--------9--------------|
G|----------------11-11----------11-------11-------|----------------6--6-----------6--------6--------|
D|----------12-9-----------------------9--------12-|----------7--4-----------------------4--------7--|
A|----9--9-----------------------------------9-----|----4--4-----------------------------------4-----|
E|-7-----------------------------------------------|-2-----------------------------------------------|


E|----------------------------10-------------------|----------------------------17-------------------|
B|----------------------10-8--------10-------------|----------------------17-15-------17-------------|
G|----------------7--7-----------7--------7--------|----------------14-14----------14-------14-------|
D|----------7--5-----------------------5--------7--|----------14-12----------------------12-------14-|
A|----5--5-----------------------------------5-----|----12-12----------------------------------12----|
E|-3-----------------------------------------------|-10----------------------------------------------|


E|-------------------------------------------------|-------------------------------------------------|
B|----------------------19----------------------14-|-------------------------------------------------|
G|----------------16-16-------------------11-11----|----------------7-----6-----7-----6-----7-----6--|
D|----------17-14-------------------12-9-----------|----------7--5-----7-----5-----7-----5-----7-----|
A|----14-14-------------------9--9-----------------|----5--5-----------------------------------------|
E|-12----------------------7-----------------------|-3-----------------------------------------------|


E|-------------------------------------------------|-------------------------------------------------|
B|-------------------------------------------------|----------------------------------------------19-|
G|----------------7-----6-----7-----6-----7-----6--|----------------7-----6-----------------16-16----|
D|----------7--5-----7-----5-----7-----5-----7-----|----------7--5-----7--------------17-14----------|
A|----5--5-----------------------------------------|----5--5--------------------14-14----------------|
E|-3-----------------------------------------------|-3-----------------------12----------------------|


E|----17------------------------------------|
B|-15-------17------------------------------|
G|-------14-------14----------------11-11---|
D|-------------12-------14-------0----------|
A|-------------------12-------12------------|
E|-------------------------10---------------|





Track 2: Untitled

G|--------|--------|--------|--------|--------|--------|--------|--------|--------|
D|--------|--------|--------|--------|--------|--------|--------|--------|--------|
A|--------|--------|--------|--------|--------|--------|--------|--------|--------|
E|--------|--------|--------|--------|--------|--------|--------|--------|--------|


G|--------|--------|
D|--------|--------|
A|--------|--------|
E|--------|--------|