Menu:

 

Search:

 

joe satriani - thinking of you:

 



Title: Thinking Of You
Artist: 
Album: Time Machine
Author: Joe Satriani


Track 1: Gtr. 1

E|--------|--------|---------------------------------|-----------------------------|
B|--------|--------|-7-----------5---5---------------|-----------------------------|
G|--------|--------|---------4---6---6---7---6---7---|-7--9---7--7---6---7----6----|
D|--------|--------|-----7-------7---7---7---7---7---|-7------7--7---7---7----7----|
A|--------|--------|---------------------------------|-----------------------------|
E|--------|--------|---------------------------------|-----------------------------|


E|---------------------------------|-------------------------|---------------------------------|
B|-7-----------5---5---------------|-------------------------|-7-----------5---5---------------|
G|---------4---6---6---7---6---7---|-7--9---7--7---6---------|---------4---6---6---7---6---7---|
D|-----7-------7---7---7---7---7---|-7------7--7---7---7-----|-----7-------7---7---7---7---7---|
A|---------------------------------|-------------------------|---------------------------------|
E|---------------------------------|-------------------------|---------------------------------|


E|-----------------------------|------------------------|-----7---7--12---------|---------------------------------|
B|-----------------------------|------------------------|-----------------7-----|-7-----------5---5---------------|
G|-7--9---7--7---6---7----6----|-4-------------4---4----|-----------------------|---------4---6---6---7---6---7---|
D|-7------7--7---7---7----7----|-7-----7---7---7---7----|-----------------------|-----7-------7---7---7---7---7---|
A|-----------------------------|------------------------|-----------------------|---------------------------------|
E|-----------------------------|------------------------|-----------------------|---------------------------------|


E|-----------------------------|---------------------------------|-------------------------|
B|-----------------------------|-7-----------5---5---------------|-------------------------|
G|-7--9---7--7---6---7----6----|---------4---6---6---7---6---7---|-7--9---7--7---6---------|
D|-7------7--7---7---7----7----|-----7-------7---7---7---7---7---|-7------7--7---7---7-----|
A|-----------------------------|---------------------------------|-------------------------|
E|-----------------------------|---------------------------------|-------------------------|


E|---------------------------------|-----------------------------|------------------------|
B|-7-----------5---5---------------|-----------------------------|------------------------|
G|---------4---6---6---7---6---7---|-7--9---7--7---6---7----6----|-4-------------4---4----|
D|-----7-------7---7---7---7---7---|-7------7--7---7---7----7----|-7-----7---7---7---7----|
A|---------------------------------|-----------------------------|------------------------|
E|---------------------------------|-----------------------------|------------------------|


E|-----7---7--12---------|---------------------------------|-----------------------------|
B|-----------------7-----|-7-----------5---5---------------|-----------------------------|
G|-----------------------|---------4---6---6---7---6---7---|-7--9---7--7---6---7----6----|
D|-----------------------|-----7-------7---7---7---7---7---|-7------7--7---7---7----7----|
A|-----------------------|---------------------------------|-----------------------------|
E|-----------------------|---------------------------------|-----------------------------|


E|---------------------------------|-------------------------|---------------------------------|
B|-7-----------5---5---------------|-------------------------|-7-----------5---5---------------|
G|---------4---6---6---7---6---7---|-7--9---7--7---6---------|---------4---6---6---7---6---7---|
D|-----7-------7---7---7---7---7---|-7------7--7---7---7-----|-----7-------7---7---7---7---7---|
A|---------------------------------|-------------------------|---------------------------------|
E|---------------------------------|-------------------------|---------------------------------|


E|-----------------------------|------------------------|--------|------------------------|
B|-----------------------------|-8-----8---8---8----7---|-7------|-8-----8---8---8----7---|
G|-7--9---7--7---6---7----9----|-9-----9---9------------|--------|-9-----9---9---9----7---|
D|-7------7--7---7---7----7----|-7-----7---7---7----7---|-7------|------------------------|
A|-----------------------------|------------------------|--------|------------------------|
E|-----------------------------|------------------------|--------|------------------------|


E|--------------------|------------------------|----------------------|------------------------|
B|-7---7----7---7-----|-5-----5---5---5----3---|-3---3----3-----3-----|------------------------|
G|-7---7----7---7-----|-6-----6---6---6----4---|-4---2----2--4--2-----|-5-----5---5---5----4---|
D|--------------------|------------------------|----------------------|-7-----7---7---7----7---|
A|--------------------|------------------------|----------------------|------------------------|
E|--------------------|------------------------|----------------------|------------------------|


E|--------------------|------------------------|--------------------|--------|--------|
B|--------------------|------------------------|--------------------|--------|--------|
G|-4---4----4---4-----|-3-----3---3---3----3---|-3---2----0---2-----|--------|--------|
D|-7---5----5---5-----|-5-----5---5---5----5---|-5---4----2---4-----|--------|--------|
A|--------------------|------------------------|--------------------|--------|--------|
E|--------------------|------------------------|--------------------|--------|--------|


E|--------|--------|--------|--------|--------|--------|--------|---------------------------------|
B|--------|--------|--------|--------|--------|--------|--------|-7-----------5---5---------------|
G|--------|--------|--------|--------|--------|--------|--------|---------4---6---6---7---6---7---|
D|--------|--------|--------|--------|--------|--------|--------|-----7-------7---7---7---7---7---|
A|--------|--------|--------|--------|--------|--------|--------|---------------------------------|
E|--------|--------|--------|--------|--------|--------|--------|---------------------------------|


E|-----------------------------|---------------------------------|-------------------------|
B|-----------------------------|-7-----------5---5---------------|-------------------------|
G|-7--9---7--7---6---7----6----|---------4---6---6---7---6---7---|-7--9---7--7---6---------|
D|-7------7--7---7---7----7----|-----7-------7---7---7---7---7---|-7------7--7---7---7-----|
A|-----------------------------|---------------------------------|-------------------------|
E|-----------------------------|---------------------------------|-------------------------|


E|---------------------------------|-----------------------------|------------------------|
B|-7-----------5---5---------------|-----------------------------|------------------------|
G|---------4---6---6---7---6---7---|-7--9---7--7---6---7----6----|-4-------------4---4----|
D|-----7-------7---7---7---7---7---|-7------7--7---7---7----7----|-7-----7---7---7---7----|
A|---------------------------------|-----------------------------|------------------------|
E|---------------------------------|-----------------------------|------------------------|


E|-----7---7--12---------|---------------------------------|-----------------------------|
B|-----------------7-----|-7-----------5---5---------------|-----------------------------|
G|-----------------------|---------4---6---6---7---6---7---|-7--9---7--7---6---7----6----|
D|-----------------------|-----7-------7---7---7---7---7---|-7------7--7---7---7----7----|
A|-----------------------|---------------------------------|-----------------------------|
E|-----------------------|---------------------------------|-----------------------------|


E|---------------------------------|-------------------------|---------------------------------|
B|-7-----------5---5---------------|-------------------------|-7-----------5---5---------------|
G|---------4---6---6---7---6---7---|-7--9---7--7---6---------|---------4---6---6---7---6---7---|
D|-----7-------7---7---7---7---7---|-7------7--7---7---7-----|-----7-------7---7---7---7---7---|
A|---------------------------------|-------------------------|---------------------------------|
E|---------------------------------|-------------------------|---------------------------------|


E|-----------------------------|------------------------|-----7---7--12---------|---------------------------------|
B|-----------------------------|------------------------|-----------------7-----|-7-----------5---5---------------|
G|-7--9---7--7---6---7----6----|-4-------------4---4----|-----------------------|---------4---6---6---7---6---7---|
D|-7------7--7---7---7----7----|-7-----7---7---7---7----|-----------------------|-----7-------7---7---7---7---7---|
A|-----------------------------|------------------------|-----------------------|---------------------------------|
E|-----------------------------|------------------------|-----------------------|---------------------------------|


E|-----------------------------|---------------------------------|-------------------------|
B|-----------------------------|-7-----------5---5---------------|-------------------------|
G|-7--9---7--7---6---7----6----|---------4---6---6---7---6---7---|-7--9---7--7---6---------|
D|-7------7--7---7---7----7----|-----7-------7---7---7---7---7---|-7------7--7---7---7-----|
A|-----------------------------|---------------------------------|-------------------------|
E|-----------------------------|---------------------------------|-------------------------|


E|---------------------------------|-----------------------------|------------------------|
B|-7-----------5---5---------------|-----------------------------|------------------------|
G|---------4---6---6---7---6---7---|-7--9---7--7---6---7----6----|-4-------------4---4----|
D|-----7-------7---7---7---7---7---|-7------7--7---7---7----7----|-7-----7---7---7---7----|
A|---------------------------------|-----------------------------|------------------------|
E|---------------------------------|-----------------------------|------------------------|


E|-----7---7--12---------|---------------------------------|-----------------------------|
B|-----------------7-----|-7-----------5---5---------------|-----------------------------|
G|-----------------------|---------4---6---6---7---6---7---|-7--9---7--7---6---7----6----|
D|-----------------------|-----7-------7---7---7---7---7---|-7------7--7---7---7----7----|
A|-----------------------|---------------------------------|-----------------------------|
E|-----------------------|---------------------------------|-----------------------------|


E|---------------------------------|-------------------------|---------------------------------|
B|-7-----------5---5---------------|-------------------------|-7-----------5---5---------------|
G|---------4---6---6---7---6---7---|-7--9---7--7---6---------|---------4---6---6---7---6---7---|
D|-----7-------7---7---7---7---7---|-7------7--7---7---7-----|-----7-------7---7---7---7---7---|
A|---------------------------------|-------------------------|---------------------------------|
E|---------------------------------|-------------------------|---------------------------------|


E|-----------------------------|------------------------|-----7---7--12---------|---------------------------------|
B|-----------------------------|------------------------|-----------------7-----|-7-----------5---5---------------|
G|-7--9---7--7---6---7----6----|-4-------------4---4----|-----------------------|---------4---6---6---7---6---7---|
D|-7------7--7---7---7----7----|-7-----7---7---7---7----|-----------------------|-----7-------7---7---7---7---7---|
A|-----------------------------|------------------------|-----------------------|---------------------------------|
E|-----------------------------|------------------------|-----------------------|---------------------------------|


E|-----------------------------|---------------------------------|-------------------------|
B|-----------------------------|-7-----------5---5---------------|-------------------------|
G|-7--9---7--7---6---7----6----|---------4---6---6---7---6---7---|-7--9---7--7---6---------|
D|-7------7--7---7---7----7----|-----7-------7---7---7---7---7---|-7------7--7---7---7-----|
A|-----------------------------|---------------------------------|-------------------------|
E|-----------------------------|---------------------------------|-------------------------|


E|---------------------------------|-----------------------------|------------------------|
B|-7-----------5---5---------------|-----------------------------|------------------------|
G|---------4---6---6---7---6---7---|-7--9---7--7---6---7----6----|-4-------------4---4----|
D|-----7-------7---7---7---7---7---|-7------7--7---7---7----7----|-7-----7---7---7---7----|
A|---------------------------------|-----------------------------|------------------------|
E|---------------------------------|-----------------------------|------------------------|


E|-----7---7--12---------|--------|
B|-----------------7-----|--------|
G|-----------------------|--------|
D|-----------------------|--------|
A|-----------------------|--------|
E|-----------------------|--------|





Track 2: Gtr. 2

E|--------|--------|--------|--------|--------|--------|--------|--------|--------|
B|--------|--------|--------|--------|--------|--------|--------|--------|--------|
G|--------|--------|--------|--------|--------|--------|--------|--------|--------|
D|--------|--------|--------|--------|--------|--------|--------|--------|--------|
A|--------|--------|--------|--------|--------|--------|--------|--------|--------|
E|--------|--------|--------|--------|--------|--------|--------|--------|--------|


E|--------|-17-----|-17----------14-14-14--12--10--12--|-14-14---14--12--12----|-12------------------|
B|--------|--------|-----------------------------------|-----------------------|---------------------|
G|--------|--------|-----------------------------------|-----------------------|-----------14--------|
D|--------|--------|-----------------------------------|-----------------------|---------------------|
A|--------|--------|-----------------------------------|-----------------------|---------------------|
E|--------|--------|-----------------------------------|-----------------------|---------------------|


E|-17-----|-17--------------|--------|--------|-17-----|-17----------14-14-14--12--10--12--|
B|--------|-----------------|--------|--------|--------|-----------------------------------|
G|--------|-----------------|--------|--------|--------|-----------------------------------|
D|--------|-----------------|--------|--------|--------|-----------------------------------|
A|--------|-----------------|--------|--------|--------|-----------------------------------|
E|--------|-----------------|--------|--------|--------|-----------------------------------|


E|-14-14---14--12--12----|-12------------------|-17-----|-17--------------|--------|
B|-----------------------|---------------------|--------|-----------------|--------|
G|-----------------------|-----------14--------|--------|-----------------|--------|
D|-----------------------|---------------------|--------|-----------------|--------|
A|-----------------------|---------------------|--------|-----------------|--------|
E|-----------------------|---------------------|--------|-----------------|--------|


E|--------|-12----14--14--12---12--|-12-------12--------|------------------------|
B|--------|------------------------|-----15-------15----|-14----15--15--14---12--|
G|--------|------------------------|--------------------|------------------------|
D|--------|------------------------|--------------------|------------------------|
A|--------|------------------------|--------------------|------------------------|
E|--------|------------------------|--------------------|------------------------|


E|--------------------|------------------------|--------------------|------------------------|
B|-12-------12--------|-------12--12-----------|--------------------|------------------------|
G|-----14-------14----|-14------------14---14--|-14--12---14--12----|-12----14--14--12---12--|
D|--------------------|------------------------|--------------------|------------------------|
A|--------------------|------------------------|--------------------|------------------------|
E|--------------------|------------------------|--------------------|------------------------|


E|--------------------|------------------------|------------------------|---------------------------|
B|--------------------|------------------------|------------------------|---------------------------|
G|-12--11-------11----|----------7-------5-----|------7---5-------7-----|---------7---7-------5-----|
D|----------14--------|------------------------|------------------------|-----8---------------------|
A|--------------------|------------------------|------------------------|---------------------------|
E|--------------------|------------------------|------------------------|---------------------------|


E|--------------------|------------------------|------------------------|---------------------------|
B|----------6---------|------------------------|------------------------|---------------------------|
G|-5---7--------7-----|----------7-------5-----|------7---5-------7-----|---------7---7-------5-----|
D|--------------------|------------------------|------------------------|-----8---------------------|
A|--------------------|------------------------|------------------------|---------------------------|
E|--------------------|------------------------|------------------------|---------------------------|


E|------------------------|--------|--------|--------|--------|--------|--------|--------|
B|------------------------|--------|--------|--------|--------|--------|--------|--------|
G|-5---7----5---7-----5---|-7------|--------|--------|--------|--------|--------|--------|
D|------------------------|--------|--------|--------|--------|--------|--------|--------|
A|------------------------|--------|--------|--------|--------|--------|--------|--------|
E|------------------------|--------|--------|--------|--------|--------|--------|--------|


E|--------|--------|--------|--------|--------|--------|--------|--------|--------|
B|--------|--------|--------|--------|--------|--------|--------|--------|--------|
G|--------|--------|--------|--------|--------|--------|--------|--------|--------|
D|--------|--------|--------|--------|--------|--------|--------|--------|--------|
A|--------|--------|--------|--------|--------|--------|--------|--------|--------|
E|--------|--------|--------|--------|--------|--------|--------|--------|--------|


E|--------|--------|--------|--------|--------|--------|--------|--------|--------|
B|--------|--------|--------|--------|--------|--------|--------|--------|--------|
G|--------|--------|--------|--------|--------|--------|--------|--------|--------|
D|--------|--------|--------|--------|--------|--------|--------|--------|--------|
A|--------|--------|--------|--------|--------|--------|--------|--------|--------|
E|--------|--------|--------|--------|--------|--------|--------|--------|--------|


E|--------|--------|--------|--------|--------|--------|--------|--------|--------|
B|--------|--------|--------|--------|--------|--------|--------|--------|--------|
G|--------|--------|--------|--------|--------|--------|--------|--------|--------|
D|--------|--------|--------|--------|--------|--------|--------|--------|--------|
A|--------|--------|--------|--------|--------|--------|--------|--------|--------|
E|--------|--------|--------|--------|--------|--------|--------|--------|--------|


E|--------|--------|--------|--------|--------|--------|--------|--------|
B|--------|--------|--------|--------|--------|--------|--------|--------|
G|--------|--------|--------|--------|--------|--------|--------|--------|
D|--------|--------|--------|--------|--------|--------|--------|--------|
A|--------|--------|--------|--------|--------|--------|--------|--------|
E|--------|--------|--------|--------|--------|--------|--------|--------|





Track 3: Gtr. 3

E|--------|--------|--------|--------|--------|--------|--------|--------|--------|
B|--------|--------|--------|--------|--------|--------|--------|--------|--------|
G|--------|--------|--------|--------|--------|--------|--------|--------|--------|
D|--------|--------|--------|--------|--------|--------|--------|--------|--------|
A|--------|--------|--------|--------|--------|--------|--------|--------|--------|
E|--------|--------|--------|--------|--------|--------|--------|--------|--------|


E|--------|--------|--------|--------|--------|--------|--------|--------|--------|
B|--------|--------|--------|--------|--------|--------|--------|--------|--------|
G|--------|--------|--------|--------|--------|--------|--------|--------|--------|
D|--------|--------|--------|--------|--------|--------|--------|--------|--------|
A|--------|--------|--------|--------|--------|--------|--------|--------|--------|
E|--------|--------|--------|--------|--------|--------|--------|--------|--------|


E|--------|--------|--------|--------|--------|--------|--------|--------|--------|
B|--------|--------|--------|--------|--------|--------|--------|--------|--------|
G|--------|--------|--------|--------|--------|--------|--------|--------|--------|
D|--------|--------|--------|--------|--------|--------|--------|--------|--------|
A|--------|--------|--------|--------|--------|--------|--------|--------|--------|
E|--------|--------|--------|--------|--------|--------|--------|--------|--------|


E|--------|--------|--------|--------|--------|--------|--------|-20--20--20-----|
B|--------|--------|--------|--------|--------|--------|--------|----------------|
G|--------|--------|--------|--------|--------|--------|--------|----------------|
D|--------|--------|--------|--------|--------|--------|--------|----------------|
A|--------|--------|--------|--------|--------|--------|--------|----------------|
E|--------|--------|--------|--------|--------|--------|--------|----------------|


E|--------------13-10----10----|-10-----------10-------------------10-------|---10-------------------------------------|
B|--------------------13----13-|----13-13--13----13-10-----13--13-----13-10-|-----1310---------------------------------|
G|-----------------------------|--------------------------------------------|-12------12121210-------------------------|
D|-----------------------------|--------------------------------------------|-----------------1210--------10-12---12---|
A|-----------------------------|--------------------------------------------|---------------------1210-----------------|
E|-----------------------------|--------------------------------------------|-------------------------13---------------|


E|----------18-18-18----18-17-|-15-17-1717171720--20--20--17--17------|-----------17-13-----------------------------------------------|
B|----------------------------|---------------------------------------|-----------------17-13-----------------------------------------|
G|----------------------------|---------------------------------------|-----------------------15-14----------14-------12--------------|
D|----------------------------|---------------------------------------|-----------------------------15-14-12----12-10-------12--------|
A|----------------------------|---------------------------------------|--------------------------------------------------10----10-----|
E|----------------------------|---------------------------------------|-----------------------------------------------------------13--|


E|-----------------------------|--------|--------|--------|--------|--------|--------|
B|-----------------------------|--------|--------|--------|--------|--------|--------|
G|-----------------------------|--------|--------|--------|--------|--------|--------|
D|-10-12---12--10--12----1215--|-12-----|--------|--------|--------|--------|--------|
A|-----------------------------|--------|--------|--------|--------|--------|--------|
E|-----------------------------|--------|--------|--------|--------|--------|--------|


E|--------|--------|------------------------|-17---------17--17--19-19-19--------|
B|--------|--------|---------------17-19-17-|------19----------------------------|
G|--------|--------|------------------------|------------------------------------|
D|--------|--------|------------------------|------------------------------------|
A|--------|--------|------------------------|------------------------------------|
E|--------|--------|------------------------|------------------------------------|


E|-----19--21--19--17---17------|-14-14-12----12-24-12--12--------|-17-------------------------------------|
B|------------------------------|----------15---------------------|----------------------------------------|
G|------------------------------|---------------------------------|----16-16-14----------------------------|
D|------------------------------|---------------------------------|-------------16----14----14---16--------|
A|------------------------------|---------------------------------|----------------------------------------|
E|------------------------------|---------------------------------|----------------------------------------|


E|--------------------------------|-------------7-5-3-2--3--5--3--2-----|---------------------------------------------|
B|--------------------------------|----------------------------------5--|-3--2--3--5--3--2----------------------------|
G|-16-16---16--18--18-16-14--14---|-14----------------------------------|-------------------4--2--4--2--4--2--2--4----|
D|--------------------------------|-------------------------------------|---------------------------------------------|
A|--------------------------------|-------------------------------------|---------------------------------------------|
E|--------------------------------|-------------------------------------|---------------------------------------------|


E|--------------------|-242224222422242224222422242224222122212221192119------------|
B|--------------------|-------------------------------------------------22202220----|
G|-4-----4------------|-------------------------------------------------------------|
D|--------------------|-------------------------------------------------------------|
A|--------------------|-------------------------------------------------------------|
E|--------------------|-------------------------------------------------------------|


E|---------------------------------------|---------------------------|-----1717--17-17-15----------------------|
B|---------------------------------------|-14-14---14--15--15----15--|-----------------------17-17---17-17-----|
G|----4-2-0------------------------------|---------------------------|-----------------------------------------|
D|-----------4--2--0---------------------|---------------------------|-----------------------------------------|
A|--------------------2--0--2---0---0----|---------------------------|-----------------------------------------|
E|---------------------------------------|---------------------------|-----------------------------------------|


E|-22-22---22--22-22-22----|-22----19-17-15-14-15-17-15-14----------------------|-----------------------------------------------|
B|-------------------------|-------------------------------17-15-14-12----------|-----------------------------------------------|
G|-------------------------|-------------------------------------------14-12-11-|-12111211--------------------------------------|
D|-------------------------|----------------------------------------------------|---------14-12-14-12-11-12-1112119-7---7--9----|
A|-------------------------|----------------------------------------------------|-----------------------------------------------|
E|-------------------------|----------------------------------------------------|-----------------------------------------------|


E|--------------7--------------|------------------------------|--------|--------|--------|
B|-----------------7-----------|------------------------------|--------|--------|--------|
G|--------------------7--------|------------------------------|--------|--------|--------|
D|-9---------------------7-----|----------5------4--3---------|--------|--------|--------|
A|--------------------------7--|----5--5----4-3---------------|--------|--------|--------|
E|-----------------------------|-5----------------------------|--------|--------|--------|


E|--------|--------|--------|--------|--------|--------|--------|--------|--------|
B|--------|--------|--------|--------|--------|--------|--------|--------|--------|
G|--------|--------|--------|--------|--------|--------|--------|--------|--------|
D|--------|--------|--------|--------|--------|--------|--------|--------|--------|
A|--------|--------|--------|--------|--------|--------|--------|--------|--------|
E|--------|--------|--------|--------|--------|--------|--------|--------|--------|


E|--------|--------|--------|--------|
B|--------|--------|--------|--------|
G|--------|--------|--------|--------|
D|--------|--------|--------|--------|
A|--------|--------|--------|--------|
E|--------|--------|--------|--------|





Track 4: Gtr. 4

E|--------|--------|--------|--------|--------|--------|--------|--------|--------|
B|--------|--------|--------|--------|--------|--------|--------|--------|--------|
G|--------|--------|--------|--------|--------|--------|--------|--------|--------|
D|--------|--------|--------|--------|--------|--------|--------|--------|--------|
A|--------|--------|--------|--------|--------|--------|--------|--------|--------|
E|--------|--------|--------|--------|--------|--------|--------|--------|--------|


E|--------|--------|--------|--------|--------|--------|--------|--------|--------|
B|--------|--------|--------|--------|--------|--------|--------|--------|--------|
G|--------|--------|--------|--------|--------|--------|--------|--------|--------|
D|--------|--------|--------|--------|--------|--------|--------|--------|--------|
A|--------|--------|--------|--------|--------|--------|--------|--------|--------|
E|--------|--------|--------|--------|--------|--------|--------|--------|--------|


E|--------|--------|--------|--------|--------|--------|--------|--------|--------|
B|--------|--------|--------|--------|--------|--------|--------|--------|--------|
G|--------|--------|--------|--------|--------|--------|--------|--------|--------|
D|--------|--------|--------|--------|--------|--------|--------|--------|--------|
A|--------|--------|--------|--------|--------|--------|--------|--------|--------|
E|--------|--------|--------|--------|--------|--------|--------|--------|--------|


E|--------|--------|--------|--------|--------|--------|--------|---------------------------|
B|--------|--------|--------|--------|--------|--------|--------|-------------10------8-----|
G|--------|--------|--------|--------|--------|--------|--------|---------7-----------------|
D|--------|--------|--------|--------|--------|--------|--------|-----8---------------------|
A|--------|--------|--------|--------|--------|--------|--------|---------------------------|
E|--------|--------|--------|--------|--------|--------|--------|---------------------------|


E|---------------------------|---------------------------|----------8---------|---------------------------|
B|---------10--8-------10----|-------------10------8-----|-8---10-------10----|-------------10------8-----|
G|-----7---------------------|---------7-----------------|--------------------|---------7-----------------|
D|-0-------------------------|-0---8---------------------|--------------------|-----8---------------------|
A|---------------------------|---------------------------|--------------------|---------------------------|
E|---------------------------|---------------------------|--------------------|---------------------------|


E|---------------------------|---------------------------|------------------------|
B|---------10--8-------10----|-------------10------8-----|-8---10---8---10----8---|
G|-----7---------------------|---------7-----------------|------------------------|
D|-0-------------------------|-0---8---------------------|------------------------|
A|---------------------------|---------------------------|------------------------|
E|---------------------------|---------------------------|------------------------|


E|--------|--------|--------|--------|--------|--------|--------|--------|--------|
B|-10-----|--------|--------|--------|--------|--------|--------|--------|--------|
G|--------|--------|--------|--------|--------|--------|--------|--------|--------|
D|--------|--------|--------|--------|--------|--------|--------|--------|--------|
A|--------|--------|--------|--------|--------|--------|--------|--------|--------|
E|--------|--------|--------|--------|--------|--------|--------|--------|--------|


E|--------|--------|--------|--------|--------|--------|--------|--------|--------|
B|--------|--------|--------|--------|--------|--------|--------|--------|--------|
G|--------|--------|--------|--------|--------|--------|--------|--------|--------|
D|--------|--------|--------|--------|--------|--------|--------|--------|--------|
A|--------|--------|--------|--------|--------|--------|--------|--------|--------|
E|--------|--------|--------|--------|--------|--------|--------|--------|--------|


E|--------|--------|--------|--------|--------|--------|--------|-17-----|-17----------14-14-14--12--10--12--|
B|--------|--------|--------|--------|--------|--------|--------|--------|-----------------------------------|
G|--------|--------|--------|--------|--------|--------|--------|--------|-----------------------------------|
D|--------|--------|--------|--------|--------|--------|--------|--------|-----------------------------------|
A|--------|--------|--------|--------|--------|--------|--------|--------|-----------------------------------|
E|--------|--------|--------|--------|--------|--------|--------|--------|-----------------------------------|


E|-14-14---14--12--12----|-12------------------|-17-----|-17--------------|--------|
B|-----------------------|---------------------|--------|-----------------|--------|
G|-----------------------|-----------14--------|--------|-----------------|--------|
D|-----------------------|---------------------|--------|-----------------|--------|
A|-----------------------|---------------------|--------|-----------------|--------|
E|-----------------------|---------------------|--------|-----------------|--------|


E|--------|-17-----|-17----------14-14-14--12--10--12--|-14-14---14--12--12----|-12------------------|
B|--------|--------|-----------------------------------|-----------------------|---------------------|
G|--------|--------|-----------------------------------|-----------------------|-----------14--------|
D|--------|--------|-----------------------------------|-----------------------|---------------------|
A|--------|--------|-----------------------------------|-----------------------|---------------------|
E|--------|--------|-----------------------------------|-----------------------|---------------------|


E|-17-----|-17--------------|--------|--------|--------|
B|--------|-----------------|--------|--------|--------|
G|--------|-----------------|--------|--------|--------|
D|--------|-----------------|--------|--------|--------|
A|--------|-----------------|--------|--------|--------|
E|--------|-----------------|--------|--------|--------|





Track 5: Bass

G|--------|--------|---------------4-------4---|-4--6---4--4-------4------------|---------------4-------4---|
D|--------|--------|-------------------7-------|---------------7--------7---6---|-------------------7-------|
A|--------|--------|-------0---0---------------|--------------------------------|-------0---0---------------|
E|--------|--------|-5-------------------------|--------------------------------|-5-------------------------|


G|-4--6---4--4-------------|---------------4-------4---|-4--6---4--4-------4---------|
D|---------------7---------|-------------------7-------|---------------7--------7----|
A|-------------------------|-------0---0---------------|-----------------------------|
E|-------------------4-----|-5-------------------------|-----------------------------|


G|------------------------|-----5---5-----------------|---------------4-------4---|
D|------------------------|------------4--------------|-------------------7-------|
A|------------------------|-----------------5----5----|-------0---0---------------|
E|-5-----4---4---5---5----|-5-------------------------|-5-------------------------|


G|-4--6---4--4-------4------------|---------------4-------4---|-4--6---4--4-------------|
D|---------------7--------7---6---|-------------------7-------|---------------7---------|
A|--------------------------------|-------0---0---------------|-------------------------|
E|--------------------------------|-5-------------------------|-------------------4-----|


G|---------------4-------4---|-4--6---4--4-------4---------|------------------------|
D|-------------------7-------|---------------7--------7----|------------------------|
A|-------0---0---------------|-----------------------------|------------------------|
E|-5-------------------------|-----------------------------|-5-----4---4---5---5----|


G|-----5---5-----------------|---------------4-------4---|-4--6---4--4-------4------------|
D|------------4--------------|-------------------7-------|---------------7--------7---6---|
A|-----------------5----5----|-------0---0---------------|--------------------------------|
E|-5-------------------------|-5-------------------------|--------------------------------|


G|---------------4-------4---|-4--6---4--4-------------|---------------4-------4---|
D|-------------------7-------|---------------7---------|-------------------7-------|
A|-------0---0---------------|-------------------------|-------0---0---------------|
E|-5-------------------------|-------------------4-----|-5-------------------------|


G|-4--6---4--4-------4----6-------|-----------7--------|--------|---------------------------------|
D|---------------7----------------|-0-----0--------7---|-0------|---------------------------------|
A|----------------------------0---|--------------------|--------|---------------------------------|
E|--------------------------------|--------------------|--------|-0---0---0---0---0---0---0---0---|


G|---------------------------------|---------------------------------|---------------------------------|
D|---------------------------------|---------------------------------|---------------------------------|
A|---------------------------------|---------------------------------|---------------------------------|
E|-0---0---0---0---0---0---0---0---|-0---0---0---0---0---0---0---0---|-0---0---0---0---0---0---0---0---|


G|---------------------------------|---------------------------------|---------------------------------|
D|---------------------------------|---------------------------------|---------------------------------|
A|---------------------------------|---------------------------------|---------------------------------|
E|-0---0---0---0---0---0---0---0---|-0---0---0---0---0---0---0---0---|-0---0---0---0---0---0---0---0---|


G|---------------------------------|--------------------|--------------------|--------|
D|---------------------------------|--------------------|--------------------|--------|
A|-----------------------------0---|-5-----5----5---5---|-5-----5----5---0---|-5------|
E|-0---0---0---0---0---0---0-------|--------------------|--------------------|--------|


G|--------------------|--------------------|--------------------|--------|--------|
D|----------------7---|--------------------|--------------------|--------|--------|
A|-5-----5----5-------|-5-----5----5---0---|-5-----5----5---0---|-5------|--------|
E|--------------------|--------------------|--------------------|--------|-0------|


G|--------|---------------4-------4---|-4--6---4--4-------4------------|---------------4-------4---|
D|--------|-------------------7-------|---------------7--------7---6---|-------------------7-------|
A|--------|-------0---0---------------|--------------------------------|-------0---0---------------|
E|-0------|-5-------------------------|--------------------------------|-5-------------------------|


G|-4--6---4--4-------------|---------------4-------4---|-4--6---4--4-------4---------|
D|---------------7---------|-------------------7-------|---------------7--------7----|
A|-------------------------|-------0---0---------------|-----------------------------|
E|-------------------4-----|-5-------------------------|-----------------------------|


G|------------------------|-----5---5-----------------|---------------4-------4---|
D|------------------------|------------4--------------|-------------------7-------|
A|------------------------|-----------------5----5----|-------0---0---------------|
E|-5-----4---4---5---5----|-5-------------------------|-5-------------------------|


G|-4--6---4--4-------4------------|---------------4-------4---|-4--6---4--4-------------|
D|---------------7--------7---6---|-------------------7-------|---------------7---------|
A|--------------------------------|-------0---0---------------|-------------------------|
E|--------------------------------|-5-------------------------|-------------------4-----|


G|---------------4-------4---|-4--6---4--4-------4---------|------------------------|
D|-------------------7-------|---------------7--------7----|------------------------|
A|-------0---0---------------|-----------------------------|------------------------|
E|-5-------------------------|-----------------------------|-5-----4---4---5---5----|


G|-----5---5-----------------|---------------4-------4---|-4--6---4--4-------4------------|
D|------------4--------------|-------------------7-------|---------------7--------7---6---|
A|-----------------5----5----|-------0---0---------------|--------------------------------|
E|-5-------------------------|-5-------------------------|--------------------------------|


G|---------------4-------4---|-4--6---4--4-------------|---------------4-------4---|
D|-------------------7-------|---------------7---------|-------------------7-------|
A|-------0---0---------------|-------------------------|-------0---0---------------|
E|-5-------------------------|-------------------4-----|-5-------------------------|


G|-4--6---4--4-------4---------|------------------------|-----5---5-----------------|
D|---------------7--------7----|------------------------|------------4--------------|
A|-----------------------------|------------------------|-----------------5----5----|
E|-----------------------------|-5-----4---4---5---5----|-5-------------------------|


G|---------------4-------4---|-4--6---4--4-------4------------|---------------4-------4---|
D|-------------------7-------|---------------7--------7---6---|-------------------7-------|
A|-------0---0---------------|--------------------------------|-------0---0---------------|
E|-5-------------------------|--------------------------------|-5-------------------------|


G|-4--6---4--4-------------|---------------4-------4---|-4--6---4--4-------4---------|
D|---------------7---------|-------------------7-------|---------------7--------7----|
A|-------------------------|-------0---0---------------|-----------------------------|
E|-------------------4-----|-5-------------------------|-----------------------------|


G|------------------------|-----5---5-----------------|---------------4-------4---|
D|------------------------|------------4--------------|-------------------7-------|
A|------------------------|-----------------5----5----|-------0---0---------------|
E|-5-----4---4---5---5----|-5-------------------------|-5-------------------------|


G|-4--6---4--4-------4------------|---------------4-------4---|-4--6---4--4-------------|
D|---------------7--------7---6---|-------------------7-------|---------------7---------|
A|--------------------------------|-------0---0---------------|-------------------------|
E|--------------------------------|-5-------------------------|-------------------4-----|


G|---------------4-------4---|-4--6---4--4-------4---------|------------------------|
D|-------------------7-------|---------------7--------7----|------------------------|
A|-------0---0---------------|-----------------------------|------------------------|
E|-5-------------------------|-----------------------------|-5-----4---4---5---5----|


G|-----5---5-----------------|--------|
D|------------4--------------|--------|
A|-----------------5----5----|--------|
E|-5-------------------------|--------|