Menu:

 

Search:

 

joe satriani - the traveler:

 



Title: The Traveler
Artist: 
Album: Strange Beautiful Music
Author: Joe Satriani


Track 1: Distorted Electric

E|--------|--------|--------|--------|--------|--------|--------|--------|---------------------------|
B|--------|--------|--------|--------|--------|--------|--------|--------|---------------------------|
G|--------|--------|--------|--------|--------|--------|--------|--------|---------------------------|
D|--------|--------|--------|--------|--------|--------|--------|--------|----------9---9----7-------|
A|--------|--------|--------|--------|--------|--------|--------|--------|---------------------------|
E|--------|--------|--------|--------|--------|--------|--------|--------|---------------------------|


E|--------------------|-----------------------------|--------------------|-----------------------|
B|--------------------|-----------------------------|--------------------|-----------------------|
G|--------------------|-----------------------------|--------------------|-----------------------|
D|--------------------|-----------------------------|--------------------|---------------7-------|
A|-----------12---9---|-7---9-------9---9-----------|-----------5--------|-----------9-----------|
E|--------------------|-----------------------7--5--|-7-----7------------|-----------------------|


E|--------------------------------|----------------|-----------------------|--------------------|
B|--------------------------------|----------------|-----------------------|--------------------|
G|--------------------------------|----------------|-------------------9---|-9-----9---11-------|
D|-9----7-------6---6-------------|----------------|---------------9-------|--------------------|
A|--------------------------9--7--|-9------9----9--|-----------9-----------|--------------------|
E|--------------------------------|----------------|-----------------------|--------------------|


E|------------------------------|------------------------|---------------------------|
B|------------------------------|------------------------|---------------------------|
G|--------------------------9---|-11----9----------------|---------------------------|
D|----------9-------9---12------|-----------12--11-------|-11---9---11--11--9--------|
A|------------------------------|------------------------|---------------------------|
E|------------------------------|------------------------|---------------------------|


E|------------------------------|------------------------------|----------------|---------------------|
B|------------------------------|------------------------------|----------------|---------------------|
G|------------------------------|------------------------------|----------------|---------------------|
D|---------7---9---9---11-------|-11---9---7---9---11--9---7---|-9------9---2---|-2----2----2-----2---|
A|-----9------------------------|------------------------------|----------------|---------------------|
E|------------------------------|------------------------------|----------------|---------------------|


E|----------14--14----|-14----16--17--16--14--|-12--14---14--14----|-14----14--14-------|
B|--------------------|-----------------------|--------------------|--------------------|
G|--------------------|-----------------------|--------------------|--------------------|
D|--------------------|-----------------------|--------------------|--------------------|
A|--------------------|-----------------------|--------------------|--------------------|
E|--------------------|-----------------------|--------------------|--------------------|


E|--------|-14--16--17---10---12---|-12---12-10----------------------------------|
B|--------|------------------------|------------12-10----------------------------|
G|--------|------------------------|------------------11-9--9--7-----9-----7-----|
D|--------|------------------------|------------------------------9-----9-----9--|
A|--------|------------------------|---------------------------------------------|
E|--------|------------------------|---------------------------------------------|


E|------------------------|-19----19----19--|-19----19---17---16---|-16--16---14-12-14----|
B|------------------------|-----------------|----------------------|----------------------|
G|------------------------|-----------------|----------------------|----------------------|
D|-7----------------------|-----------------|----------------------|----------------------|
A|----9--7--5-------------|-----------------|----------------------|----------------------|
E|------------------------|-----------------|----------------------|----------------------|


E|-14----------|----------------|-----------------------|----------------|-------------|
B|-------------|----------------|-----------------------|----------------|-------------|
G|-------------|-16-----16--16--|-16----14--13--11--9---|-9--11---11-----|-11-----16---|
D|-------------|----------------|-----------------------|----------------|-------------|
A|-------------|----------------|-----------------------|----------------|-------------|
E|-------------|----------------|-----------------------|----------------|-------------|


E|---------------------------------|---------------------------------|---------------------------------|
B|---------------------------------|---------------------------------|---------------------------------|
G|---------------------------------|---------------------------------|---------------------------------|
D|-------------4---4---------------|-------------2---2---------------|-------------4---4---------------|
A|-----4---5---------------4---5---|-----4---5---------------4---5---|-----4---5---------------4---5---|
E|-7-------------------5-----------|-3-------------------5-----------|-7-------------------5-----------|


E|---------------------------------|---------------------------------|---------------------------------|
B|---------------------------------|---------------------------------|---------------------------------|
G|---------------------------------|-------------11--11--------------|-------------9---9---------------|
D|-------------2---2---------------|-----11--12--------------11--12--|-----11--12--------------11--12--|
A|-----4---5---------------4---5---|---------------------12----------|-10------------------12----------|
E|-3-------------------5-----------|-7-------------------------------|---------------------------------|


E|---------------------------------|---------------------------|---------------------------|
B|---------------------------------|---------------------------|---------------------------|
G|-------------11--11--------------|-------------9---9----9----|----------9---11--11---14--|
D|-----11--12--------------11--12--|-----11--12----------------|---------------------------|
A|-14------------------12----------|-10------------------------|---------------------------|
E|---------------------------------|---------------------------|---------------------------|


E|---------------------------|--------------------------|---------------------|------------------------|
B|---------------------------|--------------------------|---------------------|-12---12---12--10-------|
G|----------13--11--9---11---|-11----7------------------|---------------------|------------------------|
D|---------------------------|-----------9--7--9----9---|-9--------------9----|------------------------|
A|---------------------------|--------------------------|---------------------|------------------------|
E|---------------------------|--------------------------|---------------------|------------------------|


E|----------------------------------------|-----------------|---------------------------------|
B|-----9----7-----7-----------------------|-----------------|---------------------------------|
G|-------------9--------------9--7--9--7--|-6----6-----6----|-4---------------------------6---|
D|----------------------------------------|-----------------|-------------12----------9-------|
A|----------------------------------------|-----------------|---------------------9-----------|
E|----------------------------------------|-----------------|---------------------------------|


E|------------------------------|---------------------------|------------------------|
B|------------------------------|---------------------------|------------------------|
G|-7---6---7---6-------9--------|----------7---7---9---6----|-6----4-----------------|
D|------------------------------|---------------------------|----------4---4----2----|
A|------------------------------|---------------------------|------------------------|
E|------------------------------|---------------------------|------------------------|


E|------------------------|-----------------|-----------------------------------|-------------|
B|------------------------|-----------------|-----------------------------------|-------------|
G|------------------------|-----------------|-----------------------------------|-------------|
D|----------2---4----4----|-7----7----------|-----7---7---7---9---11------9--7--|-9----9------|
A|------------------------|-----------------|-----------------------------------|-------------|
E|------------------------|-----------------|-----------------------------------|-------------|


E|-----------------------|-19-----19--19--|-19----19--17--15------|-14-----|-14----------|
B|-----------------------|----------------|-----------------------|--------|-------------|
G|-----------------------|----------------|-----------------------|--------|-------------|
D|-9-----9---4---15------|----------------|-----------------------|--------|-------------|
A|-----------------------|----------------|-----------------------|--------|-------------|
E|-----------------------|----------------|-----------------------|--------|-------------|


E|-19--19---19--19-------19--|-19----17--19------22-19-|-19----19--------------------|
B|---------------------------|-------------------------|-----------22-19----19----22-|
G|---------------------------|-------------------------|-----------------21----19----|
D|---------------------------|-------------------------|-----------------------------|
A|---------------------------|-------------------------|-----------------------------|
E|---------------------------|-------------------------|-----------------------------|


E|--------------------------------------|-19---19----19--19--|-19----14--16--16--14------|
B|--------------------------------------|--------------------|-----------------------17--|
G|-21-21-19----19-----------------------|--------------------|---------------------------|
D|----------21----21-19-----------------|--------------------|---------------------------|
A|----------------------21-19-17--------|--------------------|---------------------------|
E|--------------------------------------|--------------------|---------------------------|


E|-14--------------|-----------------|-19--19----19---19--19--|-19----14--17--16------14-12-|
B|-------14--14----|-14----12--12----|------------------------|-----------------------------|
G|-----------------|-----------------|------------------------|-----------------------------|
D|-----------------|-----------------|------------------------|-----------------------------|
A|-----------------|-----------------|------------------------|-----------------------------|
E|-----------------|-----------------|------------------------|-----------------------------|


E|-14-----14---14-|--------------------|---------------------------------|---------------------------------|
B|----------------|-7-----7---7--------|---------------------------------|---------------------------------|
G|----------------|--------------------|---------------------------------|---------------------------------|
D|----------------|---------------14---|-------------4---4---------------|-------------2---2---------------|
A|----------------|--------------------|-----4---5---------------4---5---|-----4---5---------------4---5---|
E|----------------|--------------------|-7-------------------5-----------|-3-------------------5-----------|


E|---------------------------------|---------------------------------|---------------------------------|
B|---------------------------------|---------------------------------|---------------------------------|
G|---------------------------------|---------------------------------|---------------------------------|
D|-------------4---4---------------|-------------2---2---------------|-------------4---4---------------|
A|-----4---5---------------4---5---|-----4---5---------------4---5---|-----4---5---------------4---5---|
E|-7-------------------5-----------|-3-------------------5-----------|-7-------------------5-----------|


E|---------------------------------|---------------------------------|------------------------------|
B|---------------------------------|---------------------------------|------------------------------|
G|---------------------------------|---------------------------------|------------------------------|
D|-------------2---2---------------|-------------4---4---------------|-------------2---2------------|
A|-----4---5---------------4---5---|-----4---5---------------4---5---|-----4---5--------------------|
E|-3-------------------5-----------|-7-------------------5-----------|-3-------------------5---12---|


E|----7-----7--9--10-7-----7--9--7-9-7---7--------------|----7--------------------------------------------|
B|-7-----10-------------10-------------10---7--10-7-----|-7-----10----------------------------------------|
G|---------------------------------------------------9--|----------9--9--7--9-----7-----------------------|
D|------------------------------------------------------|----------------------9-----9--9-----------------|
A|------------------------------------------------------|----------------------------------9--7--5--7--5--|
E|------------------------------------------------------|-------------------------------------------------|


E|-------------------------------|--------------------------------------------------7-----|
B|-------------------------------|-------------------------------------7---------7-----10-|
G|-6----4--6--4-----4------------|----4-----6--7--9--7--6--9--6--7--9---------9-----------|
D|---------------7-----7---------|-4-----9------------------------------------------------|
A|-------------------------------|--------------------------------------------------------|
E|-------------------------------|--------------------------------------------------------|


E|-7-----10----10---7-------7---|----9--7--------9--10-7--9-----7-------------|-----10--12-13--14-14-12-----12-------12-|
B|----7-----------------10------|-7--------10-7--------------10----8--12--12--|-12----------------------14-----12-15----|
G|------------------------------|---------------------------------------------|-----------------------------------------|
D|------------------------------|---------------------------------------------|-----------------------------------------|
A|------------------------------|---------------------------------------------|-----------------------------------------|
E|------------------------------|---------------------------------------------|-----------------------------------------|


E|-14-17--14-14-17-17--17--------|---------------------------|------------------------|
B|-------------------------------|---------------------------|------------------------|
G|-------------------------------|---------------------------|------------------------|
D|-------------------------------|----------7---9-------9----|-9---7---9--------------|
A|-------------------------------|------------------9--------|--------------7----5----|
E|--------------------------14---|---------------------------|------------------------|


E|---------------------------|-----------------------|------------------------|----------------------------|
B|---------------------------|-----------------------|------------------------|----------------------------|
G|---------------------------|-----------------------|------------------------|-7-----9---9----9---7---9---|
D|---------------------------|-----------------------|-----------7---9--------|----------------------------|
A|-4----2---2---2----2---2---|-----------5---5---7---|------7-----------------|----------------------------|
E|---------------------------|-----------------------|------------------------|----------------------------|


E|---------------------|------------------------------|--------------------------------|
B|-7-----7---7----7----|-7---7------------------------|-----7---9---10--10----9--10-9--|
G|---------------------|----------7-----------9---7---|-9------------------------------|
D|---------------------|------------------------------|--------------------------------|
A|---------------------|------------------9-----------|--------------------------------|
E|---------------------|------------------------------|--------------------------------|


E|---------------------------|---------------------------------------------|--------------------------------|
B|-7---9---10--9---7---5-----|-5---7---7-------7-------7-------------------|--------------------------------|
G|---------------------------|-------------9-------9-------7---9--7--6-----|--------------------------------|
D|---------------------------|------------------------------------------7--|-----7--9--9----9--9---9--------|
A|---------------------------|---------------------------------------------|-9--------------------------9---|
E|---------------------------|---------------------------------------------|--------------------------------|


E|------------------------------|-----------------------------------|-----------------------|
B|------------------------------|-10--12------14--14--12------10-12-|-10-12---12--12--12----|
G|------------------------------|-----------------------------------|-----------------------|
D|---------7---7---7----7---7---|-7---9-------11--11--9-------7--9--|-7--9----9-------------|
A|-----9------------------------|-----------------------------------|-----------------------|
E|------------------------------|-----------------------------------|-----------------------|


E|-------------|-19-----19--19--|-19----14--16--16--14------|-14----14----------|--------------------|
B|-------------|----------------|-----------------------17--|-------------------|--------------------|
G|-------------|----------------|---------------------------|-------------16-14-|-16----16--16-------|
D|-------------|----------------|---------------------------|-------------------|--------------------|
A|-2-----------|----------------|---------------------------|-------------------|--------------------|
E|-------------|----------------|---------------------------|-------------------|--------------------|


E|-----------------|-----------------------------|--------------------|-------------|
B|-------------15--|-----------------------------|--------------------|-------------|
G|-16----16--------|-16----14--13-14-13-11--9----|-11-----------------|-------------|
D|-----------------|-----------------------------|------12--11--11----|-11-----11---|
A|-----------------|-----------------------------|--------------------|-------------|
E|-----------------|-----------------------------|--------------------|-------------|


E|-19---19----19--19--|-19----14--16--16--14------|-----------------|--------------------|
B|--------------------|-----------------------17--|-19----19--19----|-19----19-----------|
G|--------------------|---------------------------|-----------------|--------------------|
D|--------------------|---------------------------|-----------------|--------------------|
A|--------------------|---------------------------|-----------------|--------------------|
E|--------------------|---------------------------|-----------------|------------14--14--|


E|-----------------|---------------------------|---------------------|--------------------|
B|-------------15--|-----------------------15--|---------------------|--------------------|
G|-16----16--------|-16--------14------14------|-16----16--16---16---|-4-----4---9--------|
D|-----------------|-------16------16----------|---------------------|--------------------|
A|-----------------|---------------------------|---------------------|--------------------|
E|-----------------|---------------------------|---------------------|---------------14---|


E|---------------------------------|---------------------------------|---------------------------------|
B|---------------------------------|---------------------------------|---------------------------------|
G|---------------------------------|---------------------------------|---------------------------------|
D|-------------4---4---------------|-------------2---2---------------|-------------4---4---------------|
A|-----4---5---------------4---5---|-----4---5---------------4---5---|-----4---5---------------4---5---|
E|-7-------------------5-----------|-3-------------------5-----------|-7-------------------5-----------|


E|---------------------------------|---------------------------------|---------------------------------|
B|---------------------------------|---------------------------------|---------------------------------|
G|---------------------------------|---------------------------------|---------------------------------|
D|-------------2---2---------------|-------------4---4---------------|-------------2---2---------------|
A|-----4---5---------------4---5---|-----4---5---------------4---5---|-----4---5---------------4---5---|
E|-3-------------------5-----------|-7-------------------5-----------|-3-------------------5-----------|


E|---------------------------------|------------------------------|---------------------------------|
B|---------------------------------|------------------------------|---------------------------------|
G|---------------------------------|------------------------------|-------------11--11--------------|
D|-------------4---4---------------|-------------2---2-------12---|-----11--12--------------11--12--|
A|-----4---5---------------4---5---|-----4---5--------------------|-14------------------12----------|
E|-7-------------------5-----------|-3-------------------5--------|---------------------------------|


E|---------------------------------|---------------------------------|------------------------------|
B|---------------------------------|---------------------------------|---------------------10--12---|
G|-------------9---9---------------|-------------11--11--------------|-------------9---11-----------|
D|-----11--12--------------11--12--|-----11--12--------------11--12--|-----11--12-------------------|
A|-10------------------12----------|-14------------------12----------|-10---------------------------|
E|---------------------------------|---------------------------------|------------------------------|


E|---------------------------------|---------------------------------|----------------------------------------|
B|---------------------------------|---------------------------------|----------------------------------------|
G|-------------11--11--------------|-------------9---9---------------|-------------11--11---------------------|
D|-----11--12--------------11--12--|-----11--12--------------11--12--|-----11--12-----------------11-12-11----|
A|-14------------------12----------|-10------------------12----------|-14------------------12--14----------14-|
E|---------------------------------|---------------------------------|----------------------------------------|


E|--------------------------------------10-12----12-|---------------------|--------12-14-17-12-14----12-------12-14-10-12-|
B|-----------------------------11-12-14-------15----|-12---12---12---12---|-12--15----------------15----12-14-------------|
G|-----------11-12-11----11-12----------------------|---------------------|-----------------------------------------------|
D|-11--12-14----------14----------------------------|---------------------|-----------------------------------------------|
A|--------------------------------------------------|---------------------|-----------------------------------------------|
E|--------------------------------------------------|---------------------|-----------------------------------------------|


E|-------10-12-------------------------------------|-7--9--7-----7---------------------------------|
B|-10-12-------10-12-------10-12-------------7--10-|----------10-----10-7--10-7--------------------|
G|-------------------9--11-------9--11-7--9--------|-----------------------------10-9--7-----9-----|
D|-------------------------------------------------|--------------------------------------9-----9--|
A|-------------------------------------------------|-----------------------------------------------|
E|-------------------------------------------------|-----------------------------------------------|


E|-----------------------------7---------7--9--|-10-7--9-----7--9--10-7--9--10-7--10-7--10-7--10-|
B|-----------------10-7-----7-----10-10--------|----------10-------------------------------------|
G|-7-----7--9--9---------9---------------------|-------------------------------------------------|
D|----9----------------------------------------|-------------------------------------------------|
A|---------------------------------------------|-------------------------------------------------|
E|---------------------------------------------|-------------------------------------------------|


E|-7--9--7-----------------------------------7-----------7--------|-------7--------------7-------------------------------|
B|----------10-7--8--10-8--7--------10-7-------7-107--------10-7--|----7-----10-7-----7-----7--9-------------------------|
G|----------------------------10-7--------9----------9------------|-9--------------9--------------10-9--7----------------|
D|----------------------------------------------------------------|----------------------------------------9--7----------|
A|----------------------------------------------------------------|----------------------------------------------7--5----|
E|----------------------------------------------------------------|------------------------------------------------------|


E|---------------------------------|---------------------------------|---------------------------------|
B|---------------------------------|---------------------------------|---------------------------------|
G|-------------11--11--------------|-------------9---9---------------|---------------------------------|
D|-----11--12--------------11--12--|-----11--12------------------11--|-------------4---4---------------|
A|-14------------------12----------|-10------------------12--14------|-----4---5---------------4---5---|
E|---------------------------------|---------------------------------|-7-------------------5-----------|


E|------------------------------|---------------------------------|---------------------------------|
B|------------------------------|---------------------------------|---------------------------------|
G|------------------------------|-4---4---4---4-------2-----------|---------------------2-------4---|
D|-------------2---2------------|-4---4---4---4-------2-------5---|-5---5---5---5-------2-------4---|
A|-----4---5--------------------|-2---2---2---2-------0-------5---|-5---5---5---5-------0-------2---|
E|-3-------------------5---17---|-----------------------------3---|-3---3---3---3-------------------|


E|---------------------------------|-----------------------------9---|-9---9---9---9---9-----|
B|-----------------------------3---|-3---3---3---3---------------7---|-7---7---7---7---7-----|
G|-4---4---4---4-------2-------0---|-0---0---0---0-------4-----------|-----------------------|
D|-4---4---4---4-------2-------0---|-0---0---0---0-------2-------9---|-9---9---9---9---9-----|
A|-2---2---2---2-------0-----------|---------------------0-----------|-----------------------|
E|-----------------------------3---|-3---3---3---3-------------------|-----------------------|


E|-9-----9-----|-9------|-----------------|--------|--------|--------|
B|-7-----7-----|-7------|-----------------|--------|--------|--------|
G|-------------|--------|-----------------|--------|--------|--------|
D|-9-----9-----|-9------|-9-----9---------|--------|--------|--------|
A|-------------|--------|-----------------|--------|--------|--------|
E|-------------|--------|-----------------|--------|--------|--------|





Track 2: Clean Electric

E|--------|--------|--------|--------|--------|--------|--------|--------|--------|
B|--------|--------|--------|--------|--------|--------|--------|--------|--------|
G|--------|--------|--------|--------|--------|--------|--------|--------|--------|
D|--------|--------|--------|--------|--------|--------|--------|--------|--------|
A|--------|--------|--------|--------|--------|--------|--------|--------|--------|
E|--------|--------|--------|--------|--------|--------|--------|--------|--------|


E|--------|--------|--------|--------|--------|--------|--------|--------|--------|
B|--------|--------|--------|--------|--------|--------|--------|--------|--------|
G|--------|--------|--------|--------|--------|--------|--------|--------|--------|
D|--------|--------|--------|--------|--------|--------|--------|--------|--------|
A|--------|--------|--------|--------|--------|--------|--------|--------|--------|
E|--------|--------|--------|--------|--------|--------|--------|--------|--------|


E|--------|--------|--------|--------|--------|--------|--------|--------|--------|
B|--------|--------|--------|--------|--------|--------|--------|--------|--------|
G|--------|--------|--------|--------|--------|--------|--------|--------|--------|
D|--------|--------|--------|--------|--------|--------|--------|--------|--------|
A|--------|--------|--------|--------|--------|--------|--------|--------|--------|
E|--------|--------|--------|--------|--------|--------|--------|--------|--------|


E|--------|--------|--------|--------|--------|--------|--------|--------|--------|
B|--------|--------|--------|--------|--------|--------|--------|--------|--------|
G|--------|--------|--------|--------|--------|--------|--------|--------|--------|
D|--------|--------|--------|--------|--------|--------|--------|--------|--------|
A|--------|--------|--------|--------|--------|--------|--------|--------|--------|
E|--------|--------|--------|--------|--------|--------|--------|--------|--------|


E|--------|--------|--------|--------|---------------------------------|---------------------------------|
B|--------|--------|--------|--------|---------------------------------|---------------------------------|
G|--------|--------|--------|--------|---------------------------------|---------------------------------|
D|--------|--------|--------|--------|-------------4---4---------------|-------------2---2---------------|
A|--------|--------|--------|--------|-----4---5---------------4---5---|-----4---5---------------4---5---|
E|--------|--------|--------|--------|-7-------------------5-----------|-3-------------------5-----------|


E|---------------------------------|---------------------------------|---------------------------------|
B|---------------------------------|---------------------------------|---------------------------------|
G|---------------------------------|---------------------------------|---------------------------------|
D|-------------4---4---------------|-------------2---2---------------|-------------4---4---------------|
A|-----4---5---------------4---5---|-----4---5---------------4---5---|-----4---5---------------4---5---|
E|-7-------------------5-----------|-3-------------------5-----------|-7-------------------5-----------|


E|---------------------------------|---------------------------------|---------------------------|
B|---------------------------------|---------------------------------|---------------------------|
G|---------------------------------|---------------------------------|---------------------------|
D|-------------2---2---------------|-------------4---4---------------|-------------2---2---------|
A|-----4---5---------------4---5---|-----4---5---------------4---5---|-----4---5-----------------|
E|-3-------------------5-----------|-7-------------------5-----------|-3-------------------------|


E|--------|--------|--------|--------|--------|--------|--------|--------|--------|
B|--------|--------|--------|--------|--------|--------|--------|--------|--------|
G|--------|--------|--------|--------|--------|--------|--------|--------|--------|
D|--------|--------|--------|--------|--------|--------|--------|--------|--------|
A|--------|--------|--------|--------|--------|--------|--------|--------|--------|
E|--------|--------|--------|--------|--------|--------|--------|--------|--------|


E|--------|--------|--------|--------|--------|--------|--------|--------|--------|
B|--------|--------|--------|--------|--------|--------|--------|--------|--------|
G|--------|--------|--------|--------|--------|--------|--------|--------|--------|
D|--------|--------|--------|--------|--------|--------|--------|--------|--------|
A|--------|--------|--------|--------|--------|--------|--------|--------|--------|
E|--------|--------|--------|--------|--------|--------|--------|--------|--------|


E|--------|--------|--------|--------|--------|--------|--------|--------|--------|
B|--------|--------|--------|--------|--------|--------|--------|--------|--------|
G|--------|--------|--------|--------|--------|--------|--------|--------|--------|
D|--------|--------|--------|--------|--------|--------|--------|--------|--------|
A|--------|--------|--------|--------|--------|--------|--------|--------|--------|
E|--------|--------|--------|--------|--------|--------|--------|--------|--------|


E|--------|--------|--------|--------|--------|---------------------------------|---------------------------------|
B|--------|--------|--------|--------|--------|---------------------------------|---------------------------------|
G|--------|--------|--------|--------|--------|---------------------------------|---------------------------------|
D|--------|--------|--------|--------|--------|-------------4---4---------------|-------------2---2---------------|
A|--------|--------|--------|--------|--------|-----4---5---------------4---5---|-----4---5---------------4---5---|
E|--------|--------|--------|--------|--------|-7-------------------5-----------|-3-------------------5-----------|


E|---------------------------------|---------------------------------|---------------------------------|
B|---------------------------------|---------------------------------|---------------------------------|
G|---------------------------------|---------------------------------|---------------------------------|
D|-------------4---4---------------|-------------2---2---------------|-------------4---4---------------|
A|-----4---5---------------4---5---|-----4---5---------------4---5---|-----4---5---------------4---5---|
E|-7-------------------5-----------|-3-------------------5-----------|-7-------------------5-----------|


E|---------------------------------|---------------------------------|---------------------------|
B|---------------------------------|---------------------------------|---------------------------|
G|---------------------------------|---------------------------------|---------------------------|
D|-------------2---2---------------|-------------4---4---------------|-------------2---2---------|
A|-----4---5---------------4---5---|-----4---5---------------4---5---|-----4---5-----------------|
E|-3-------------------5-----------|-7-------------------5-----------|-3-------------------------|


E|--------|--------|--------|--------|--------|--------|--------|--------|--------|
B|--------|--------|--------|--------|--------|--------|--------|--------|--------|
G|--------|--------|--------|--------|--------|--------|--------|--------|--------|
D|--------|--------|--------|--------|--------|--------|--------|--------|--------|
A|--------|--------|--------|--------|--------|--------|--------|--------|--------|
E|--------|--------|--------|--------|--------|--------|--------|--------|--------|


E|--------|--------|--------|--------|--------|--------|--------|--------|--------|
B|--------|--------|--------|--------|--------|--------|--------|--------|--------|
G|--------|--------|--------|--------|--------|--------|--------|--------|--------|
D|--------|--------|--------|--------|--------|--------|--------|--------|--------|
A|--------|--------|--------|--------|--------|--------|--------|--------|--------|
E|--------|--------|--------|--------|--------|--------|--------|--------|--------|


E|--------|--------|--------|--------|--------|--------|--------|--------|--------|
B|--------|--------|--------|--------|--------|--------|--------|--------|--------|
G|--------|--------|--------|--------|--------|--------|--------|--------|--------|
D|--------|--------|--------|--------|--------|--------|--------|--------|--------|
A|--------|--------|--------|--------|--------|--------|--------|--------|--------|
E|--------|--------|--------|--------|--------|--------|--------|--------|--------|


E|--------|--------|--------|--------|--------|--------|--------|--------|--------|
B|--------|--------|--------|--------|--------|--------|--------|--------|--------|
G|--------|--------|--------|--------|--------|--------|--------|--------|--------|
D|--------|--------|--------|--------|--------|--------|--------|--------|--------|
A|--------|--------|--------|--------|--------|--------|--------|--------|--------|
E|--------|--------|--------|--------|--------|--------|--------|--------|--------|


E|--------|--------|--------|--------|---------------------------------|---------------------------------|
B|--------|--------|--------|--------|---------------------------------|---------------------------------|
G|--------|--------|--------|--------|---------------------------------|---------------------------------|
D|--------|--------|--------|--------|-------------4---4---------------|-------------2---2---------------|
A|--------|--------|--------|--------|-----4---5---------------4---5---|-----4---5---------------4---5---|
E|--------|--------|--------|--------|-7-------------------5-----------|-3-------------------5-----------|


E|---------------------------------|---------------------------------|---------------------------------|
B|---------------------------------|---------------------------------|---------------------------------|
G|---------------------------------|---------------------------------|---------------------------------|
D|-------------4---4---------------|-------------2---2---------------|-------------4---4---------------|
A|-----4---5---------------4---5---|-----4---5---------------4---5---|-----4---5---------------4---5---|
E|-7-------------------5-----------|-3-------------------5-----------|-7-------------------5-----------|


E|---------------------------------|---------------------------------|---------------------------|
B|---------------------------------|---------------------------------|---------------------------|
G|---------------------------------|---------------------------------|---------------------------|
D|-------------2---2---------------|-------------4---4---------------|-------------2---2---------|
A|-----4---5---------------4---5---|-----4---5---------------4---5---|-----4---5-----------------|
E|-3-------------------5-----------|-7-------------------5-----------|-3-------------------------|


E|--------|--------|--------|--------|--------|--------|--------|--------|--------|
B|--------|--------|--------|--------|--------|--------|--------|--------|--------|
G|--------|--------|--------|--------|--------|--------|--------|--------|--------|
D|--------|--------|--------|--------|--------|--------|--------|--------|--------|
A|--------|--------|--------|--------|--------|--------|--------|--------|--------|
E|--------|--------|--------|--------|--------|--------|--------|--------|--------|


E|--------|--------|--------|--------|--------|--------|--------|--------|--------|
B|--------|--------|--------|--------|--------|--------|--------|--------|--------|
G|--------|--------|--------|--------|--------|--------|--------|--------|--------|
D|--------|--------|--------|--------|--------|--------|--------|--------|--------|
A|--------|--------|--------|--------|--------|--------|--------|--------|--------|
E|--------|--------|--------|--------|--------|--------|--------|--------|--------|


E|--------|--------|--------|--------|--------|--------|--------|--------|--------|
B|--------|--------|--------|--------|--------|--------|--------|--------|--------|
G|--------|--------|--------|--------|--------|--------|--------|--------|--------|
D|--------|--------|--------|--------|--------|--------|--------|--------|--------|
A|--------|--------|--------|--------|--------|--------|--------|--------|--------|
E|--------|--------|--------|--------|--------|--------|--------|--------|--------|


E|--------|--------|--------|--------|
B|--------|--------|--------|--------|
G|--------|--------|--------|--------|
D|--------|--------|--------|--------|
A|--------|--------|--------|--------|
E|--------|--------|--------|--------|





Track 3: Baritone guitar arrranged for standard guitar

 B|--------|--------|--------|--------|--------|--------|--------|--------|--------|
F#|--------|--------|--------|--------|--------|--------|--------|--------|--------|
 D|--------|--------|--------|--------|--------|--------|--------|--------|--------|
 A|--------|--------|--------|--------|--------|--------|--------|--------|--------|
 E|--------|--------|--------|--------|--------|--------|--------|--------|--------|
 B|--------|--------|--------|--------|--------|--------|--------|--------|--------|


 B|--------|--------|--------|--------|--------|--------|--------|--------|--------|
F#|--------|--------|--------|--------|--------|--------|--------|--------|--------|
 D|--------|--------|--------|--------|--------|--------|--------|--------|--------|
 A|--------|--------|--------|--------|--------|--------|--------|--------|--------|
 E|--------|--------|--------|--------|--------|--------|--------|--------|--------|
 B|--------|--------|--------|--------|--------|--------|--------|--------|--------|


 B|--------|--------|--------|--------|--------|--------|--------|--------|--------|
F#|--------|--------|--------|--------|--------|--------|--------|--------|--------|
 D|--------|--------|--------|--------|--------|--------|--------|--------|--------|
 A|--------|--------|--------|--------|--------|--------|--------|--------|--------|
 E|--------|--------|--------|--------|--------|--------|--------|--------|--------|
 B|--------|--------|--------|--------|--------|--------|--------|--------|--------|


 B|--------|--------|--------|--------|--------|--------|--------|--------|--------|
F#|--------|--------|--------|--------|--------|--------|--------|--------|--------|
 D|--------|--------|--------|--------|--------|--------|--------|--------|--------|
 A|--------|--------|--------|--------|--------|--------|--------|--------|--------|
 E|--------|--------|--------|--------|--------|--------|--------|--------|--------|
 B|--------|--------|--------|--------|--------|--------|--------|--------|--------|


 B|--------|--------|--------|--------|--------|--------|--------|--------|--------|
F#|--------|--------|--------|--------|--------|--------|--------|--------|--------|
 D|--------|--------|--------|--------|--------|--------|--------|--------|--------|
 A|--------|--------|--------|--------|--------|--------|--------|--------|--------|
 E|--------|--------|--------|--------|--------|--------|--------|--------|--------|
 B|--------|--------|--------|--------|--------|--------|--------|--------|--------|


 B|--------|--------|--------|--------|--------|--------|--------|--------|--------|
F#|--------|--------|--------|--------|--------|--------|--------|--------|--------|
 D|--------|--------|--------|--------|--------|--------|--------|--------|--------|
 A|--------|--------|--------|--------|--------|--------|--------|--------|--------|
 E|--------|--------|--------|--------|--------|--------|--------|--------|--------|
 B|--------|--------|--------|--------|--------|--------|--------|--------|--------|


 B|--------|--------|--------|--------|--------|--------|--------|--------|--------|
F#|--------|--------|--------|--------|--------|--------|--------|--------|--------|
 D|--------|--------|--------|--------|--------|--------|--------|--------|--------|
 A|--------|--------|--------|--------|--------|--------|--------|--------|--------|
 E|--------|--------|--------|--------|--------|--------|--------|--------|--------|
 B|--------|--------|--------|--------|--------|--------|--------|--------|--------|


 B|--------|--------|--------|--------|--------|--------|--------|--------|--------|
F#|--------|--------|--------|--------|--------|--------|--------|--------|--------|
 D|--------|--------|--------|--------|--------|--------|--------|--------|--------|
 A|--------|--------|--------|--------|--------|--------|--------|--------|--------|
 E|--------|--------|--------|--------|--------|--------|--------|--------|--------|
 B|--------|--------|--------|--------|--------|--------|--------|--------|--------|


 B|--------|--------|--------|--------|--------|--------|--------|--------|--------|
F#|--------|--------|--------|--------|--------|--------|--------|--------|--------|
 D|--------|--------|--------|--------|--------|--------|--------|--------|--------|
 A|--------|--------|--------|--------|--------|--------|--------|--------|--------|
 E|--------|--------|--------|--------|--------|--------|--------|--------|--------|
 B|--------|--------|--------|--------|--------|--------|--------|--------|--------|


 B|--------|--------|--------|--------|--------|--------|--------|--------|--------|
F#|--------|--------|--------|--------|--------|--------|--------|--------|--------|
 D|--------|--------|--------|--------|--------|--------|--------|--------|--------|
 A|--------|--------|--------|--------|--------|--------|--------|--------|--------|
 E|--------|--------|--------|--------|--------|--------|--------|--------|--------|
 B|--------|--------|--------|--------|--------|--------|--------|--------|--------|


 B|--------|--------|--------|--------|--------|--------|--------|--------|--------|
F#|--------|--------|--------|--------|--------|--------|--------|--------|--------|
 D|--------|--------|--------|--------|--------|--------|--------|--------|--------|
 A|--------|--------|--------|--------|--------|--------|--------|--------|--------|
 E|--------|--------|--------|--------|--------|--------|--------|--------|--------|
 B|--------|--------|--------|--------|--------|--------|--------|--------|--------|


 B|--------|--------|--------|--------|--------|--------|--------|--------|--------|
F#|--------|--------|--------|--------|--------|--------|--------|--------|--------|
 D|--------|--------|--------|--------|--------|--------|--------|--------|--------|
 A|--------|--------|--------|--------|--------|--------|--------|--------|--------|
 E|--------|--------|--------|--------|--------|--------|--------|--------|--------|
 B|--------|--------|--------|--------|--------|--------|--------|--------|--------|


 B|--------|--------|--------|--------|--------|--------|--------|--------|--------|
F#|--------|--------|--------|--------|--------|--------|--------|--------|--------|
 D|--------|--------|--------|--------|--------|--------|--------|--------|--------|
 A|--------|--------|--------|--------|--------|--------|--------|--------|--------|
 E|--------|--------|--------|--------|--------|--------|--------|--------|--------|
 B|--------|--------|--------|--------|--------|--------|--------|--------|--------|


 B|--------|--------|--------|--------|--------|--------|--------|--------|--------|
F#|--------|--------|--------|--------|--------|--------|--------|--------|--------|
 D|--------|--------|--------|--------|--------|--------|--------|--------|--------|
 A|--------|--------|--------|--------|--------|--------|--------|--------|--------|
 E|--------|--------|--------|--------|--------|--------|--------|--------|--------|
 B|--------|--------|--------|--------|--------|--------|--------|--------|--------|


 B|--------|--------|--------|--------|--------|--------|--------|--------|--------|
F#|--------|--------|--------|--------|--------|--------|--------|--------|--------|
 D|--------|--------|--------|--------|--------|--------|--------|--------|--------|
 A|--------|--------|--------|--------|--------|--------|--------|--------|--------|
 E|--------|--------|--------|--------|--------|--------|--------|--------|--------|
 B|--------|--------|--------|--------|--------|--------|--------|--------|--------|


 B|--------|--------|--------|--------|--------|--------|--------|--------|--------|
F#|--------|--------|--------|--------|--------|--------|--------|--------|--------|
 D|--------|--------|--------|--------|--------|--------|--------|--------|--------|
 A|--------|--------|--------|--------|--------|--------|--------|--------|--------|
 E|--------|--------|--------|--------|--------|--------|--------|--------|--------|
 B|--------|--------|--------|--------|--------|--------|--------|--------|--------|


 B|--------|--------|--------|--------|--------|--------|--------|--------|---------------------------------|
F#|--------|--------|--------|--------|--------|--------|--------|--------|---------------------------------|
 D|--------|--------|--------|--------|--------|--------|--------|--------|-9---9---9---9-------7-------5---|
 A|--------|--------|--------|--------|--------|--------|--------|--------|-9---9---9---9-------7-------5---|
 E|--------|--------|--------|--------|--------|--------|--------|--------|-7---7---7---7-------5-------3---|
 B|--------|--------|--------|--------|--------|--------|--------|--------|---------------------------------|


 B|---------------------------------|---------------------------------|---------------------------------|
F#|---------------------------------|---------------------------------|---------------------------------|
 D|-5---5---5---5-------7-------9---|-9---9---9---9-------7-------5---|-5---5---5---5-------7-------9---|
 A|-5---5---5---5-------7-------9---|-9---9---9---9-------7-------5---|-5---5---5---5-------7-------9---|
 E|-3---3---3---3-------5-------7---|-7---7---7---7-------5-------3---|-3---3---3---3-------5-------7---|
 B|---------------------------------|---------------------------------|---------------------------------|


 B|---------------------------------|---------------------------------|---------------------------------|
F#|---------------------------------|---------------------------------|---------------------------------|
 D|-9---9---9---9-------7-------5---|-5---5---5---5-------7-------9---|-9---9---9---9-------7-------5---|
 A|-9---9---9---9-------7-------5---|-5---5---5---5-------7-------9---|-9---9---9---9-------7-------5---|
 E|-7---7---7---7-------5-------3---|-3---3---3---3-------5-------7---|-7---7---7---7-------5-------3---|
 B|---------------------------------|---------------------------------|---------------------------------|


 B|---------------------------------|---------------------------------|---------------------------------|
F#|---------------------------------|---------------------------------|---------------------------------|
 D|-5---5---5---5-------7-------9---|-9---9---9---9-------9-------9---|-9---9---9---9-------9-------9---|
 A|-5---5---5---5-------7-------9---|-9---9---9---9-------9-------9---|-9---9---9---9-------9-------9---|
 E|-3---3---3---3-------5-------7---|-7---7---7---7-------7-------7---|-7---7---7---7-------7-------7---|
 B|---------------------------------|---------------------------------|---------------------------------|


 B|---------------------------------|--------------------|--------------------|--------|
F#|---------------------------------|--------------------|--------------------|-4------|
 D|-9---9---9---9-------7-------5---|----------4---4-----|-4--------------0---|--------|
 A|-9---9---9---9-------7-------5---|-4---5--------------|------------2-------|--------|
 E|-7---7---7---7-------5-------3---|--------------------|--------------------|--------|
 B|---------------------------------|--------------------|-------0------------|--------|


 B|-------------|
F#|-4-----------|
 D|-------------|
 A|-------------|
 E|-------------|
 B|-------------|





Track 4: Baritone guitar arrranged for standard guitar

 B|--------|--------|--------|--------|--------|--------|--------|--------|--------|
F#|--------|--------|--------|--------|--------|--------|--------|--------|--------|
 D|--------|--------|--------|--------|--------|--------|--------|--------|--------|
 A|--------|--------|--------|--------|--------|--------|--------|--------|--------|
 E|--------|--------|--------|--------|--------|--------|--------|--------|--------|
 B|--------|--------|--------|--------|--------|--------|--------|--------|--------|


 B|--------|--------|--------|--------|--------|--------|--------|--------|--------|
F#|--------|--------|--------|--------|--------|--------|--------|--------|--------|
 D|--------|--------|--------|--------|--------|--------|--------|--------|--------|
 A|--------|--------|--------|--------|--------|--------|--------|--------|--------|
 E|--------|--------|--------|--------|--------|--------|--------|--------|--------|
 B|--------|--------|--------|--------|--------|--------|--------|--------|--------|


 B|--------|--------|--------|--------|--------|--------|--------|--------|--------|
F#|--------|--------|--------|--------|--------|--------|--------|--------|--------|
 D|--------|--------|--------|--------|--------|--------|--------|--------|--------|
 A|--------|--------|--------|--------|--------|--------|--------|--------|--------|
 E|--------|--------|--------|--------|--------|--------|--------|--------|--------|
 B|--------|--------|--------|--------|--------|--------|--------|--------|--------|


 B|--------|--------|--------|--------|--------|--------|--------|--------|--------|
F#|--------|--------|--------|--------|--------|--------|--------|--------|--------|
 D|--------|--------|--------|--------|--------|--------|--------|--------|--------|
 A|--------|--------|--------|--------|--------|--------|--------|--------|--------|
 E|--------|--------|--------|--------|--------|--------|--------|--------|--------|
 B|--------|--------|--------|--------|--------|--------|--------|--------|--------|


 B|--------|--------|--------|--------|--------|--------|--------|--------|--------|
F#|--------|--------|--------|--------|--------|--------|--------|--------|--------|
 D|--------|--------|--------|--------|--------|--------|--------|--------|--------|
 A|--------|--------|--------|--------|--------|--------|--------|--------|--------|
 E|--------|--------|--------|--------|--------|--------|--------|--------|--------|
 B|--------|--------|--------|--------|--------|--------|--------|--------|--------|


 B|--------|--------|--------|--------|--------|--------|--------|--------|--------|
F#|--------|--------|--------|--------|--------|--------|--------|--------|--------|
 D|--------|--------|--------|--------|--------|--------|--------|--------|--------|
 A|--------|--------|--------|--------|--------|--------|--------|--------|--------|
 E|--------|--------|--------|--------|--------|--------|--------|--------|--------|
 B|--------|--------|--------|--------|--------|--------|--------|--------|--------|


 B|--------|--------|--------|--------|--------|--------|--------|--------|--------|
F#|--------|--------|--------|--------|--------|--------|--------|--------|--------|
 D|--------|--------|--------|--------|--------|--------|--------|--------|--------|
 A|--------|--------|--------|--------|--------|--------|--------|--------|--------|
 E|--------|--------|--------|--------|--------|--------|--------|--------|--------|
 B|--------|--------|--------|--------|--------|--------|--------|--------|--------|


 B|--------|--------|--------|--------|--------|--------|--------|--------|--------|
F#|--------|--------|--------|--------|--------|--------|--------|--------|--------|
 D|--------|--------|--------|--------|--------|--------|--------|--------|--------|
 A|--------|--------|--------|--------|--------|--------|--------|--------|--------|
 E|--------|--------|--------|--------|--------|--------|--------|--------|--------|
 B|--------|--------|--------|--------|--------|--------|--------|--------|--------|


 B|--------|--------|--------|--------|--------|--------|--------|--------|--------|
F#|--------|--------|--------|--------|--------|--------|--------|--------|--------|
 D|--------|--------|--------|--------|--------|--------|--------|--------|--------|
 A|--------|--------|--------|--------|--------|--------|--------|--------|--------|
 E|--------|--------|--------|--------|--------|--------|--------|--------|--------|
 B|--------|--------|--------|--------|--------|--------|--------|--------|--------|


 B|--------|--------|--------|--------|--------|--------|--------|--------|--------|
F#|--------|--------|--------|--------|--------|--------|--------|--------|--------|
 D|--------|--------|--------|--------|--------|--------|--------|--------|--------|
 A|--------|--------|--------|--------|--------|--------|--------|--------|--------|
 E|--------|--------|--------|--------|--------|--------|--------|--------|--------|
 B|--------|--------|--------|--------|--------|--------|--------|--------|--------|


 B|--------|--------|--------|--------|--------|--------|--------|--------|--------|
F#|--------|--------|--------|--------|--------|--------|--------|--------|--------|
 D|--------|--------|--------|--------|--------|--------|--------|--------|--------|
 A|--------|--------|--------|--------|--------|--------|--------|--------|--------|
 E|--------|--------|--------|--------|--------|--------|--------|--------|--------|
 B|--------|--------|--------|--------|--------|--------|--------|--------|--------|


 B|--------|--------|--------|--------|--------|--------|--------|--------|--------|
F#|--------|--------|--------|--------|--------|--------|--------|--------|--------|
 D|--------|--------|--------|--------|--------|--------|--------|--------|--------|
 A|--------|--------|--------|--------|--------|--------|--------|--------|--------|
 E|--------|--------|--------|--------|--------|--------|--------|--------|--------|
 B|--------|--------|--------|--------|--------|--------|--------|--------|--------|


 B|--------|--------|--------|--------|--------|--------|--------|--------|--------|
F#|--------|--------|--------|--------|--------|--------|--------|--------|--------|
 D|--------|--------|--------|--------|--------|--------|--------|--------|--------|
 A|--------|--------|--------|--------|--------|--------|--------|--------|--------|
 E|--------|--------|--------|--------|--------|--------|--------|--------|--------|
 B|--------|--------|--------|--------|--------|--------|--------|--------|--------|


 B|--------|--------|--------|--------|--------|--------|--------|--------|--------|
F#|--------|--------|--------|--------|--------|--------|--------|--------|--------|
 D|--------|--------|--------|--------|--------|--------|--------|--------|--------|
 A|--------|--------|--------|--------|--------|--------|--------|--------|--------|
 E|--------|--------|--------|--------|--------|--------|--------|--------|--------|
 B|--------|--------|--------|--------|--------|--------|--------|--------|--------|


 B|--------|--------|--------|--------|--------|--------|--------|--------|--------|
F#|--------|--------|--------|--------|--------|--------|--------|--------|--------|
 D|--------|--------|--------|--------|--------|--------|--------|--------|--------|
 A|--------|--------|--------|--------|--------|--------|--------|--------|--------|
 E|--------|--------|--------|--------|--------|--------|--------|--------|--------|
 B|--------|--------|--------|--------|--------|--------|--------|--------|--------|


 B|--------|--------|--------|--------|--------|--------|--------|--------|--------|
F#|--------|--------|--------|--------|--------|--------|--------|--------|--------|
 D|--------|--------|--------|--------|--------|--------|--------|--------|--------|
 A|--------|--------|--------|--------|--------|--------|--------|--------|--------|
 E|--------|--------|--------|--------|--------|--------|--------|--------|--------|
 B|--------|--------|--------|--------|--------|--------|--------|--------|--------|


 B|--------|--------|--------|--------|--------|--------|--------|--------|--------|
F#|--------|--------|--------|--------|--------|--------|--------|--------|--------|
 D|--------|--------|--------|--------|--------|--------|--------|--------|--------|
 A|--------|--------|--------|--------|--------|--------|--------|--------|--------|
 E|--------|--------|--------|--------|--------|--------|--------|--------|--------|
 B|--------|--------|--------|--------|--------|--------|--------|--------|--------|


 B|--------|--------|--------|--------|--------|--------|--------|--------|--------|
F#|--------|--------|--------|--------|--------|--------|--------|--------|--------|
 D|--------|--------|--------|--------|--------|--------|--------|--------|--------|
 A|--------|--------|--------|--------|--------|--------|--------|--------|--------|
 E|--------|--------|--------|--------|--------|--------|--------|--------|--------|
 B|--------|--------|--------|--------|--------|--------|--------|--------|--------|


 B|--------|---------------------------------|-2------|-2------------------|-----------2-----|
F#|--------|---------------------------------|-0------|-0------------------|-----------0-----|
 D|--------|-5---5---5---5-------7-----------|-0------|-0------------------|-----------0-----|
 A|--------|-5---5---5---5-------7-----------|-2------|-2------------------|-----------2-----|
 E|--------|-3---3---3---3-------5-----------|-2------|-2------------------|-----------2-----|
 B|--------|-----------------------------0---|-0------|-0-----2---3----2---|-0---------0-----|





Track 5: Untitled

 B|--------|--------|--------|--------|--------|--------|--------|--------|--------|
F#|--------|--------|--------|--------|--------|--------|--------|--------|--------|
 D|--------|--------|--------|--------|--------|--------|--------|--------|--------|
 A|--------|--------|--------|--------|--------|--------|--------|--------|--------|
 E|--------|--------|--------|--------|--------|--------|--------|--------|--------|
 B|--------|--------|--------|--------|--------|--------|--------|--------|--------|


 B|--------|--------|--------|--------|--------|--------|--------|--------|--------|
F#|--------|--------|--------|--------|--------|--------|--------|--------|--------|
 D|--------|--------|--------|--------|--------|--------|--------|--------|--------|
 A|--------|--------|--------|--------|--------|--------|--------|--------|--------|
 E|--------|--------|--------|--------|--------|--------|--------|--------|--------|
 B|--------|--------|--------|--------|--------|--------|--------|--------|--------|


 B|--------|--------|--------|--------|--------|--------|--------|--------|--------|
F#|--------|--------|--------|--------|--------|--------|--------|--------|--------|
 D|--------|--------|--------|--------|--------|--------|--------|--------|--------|
 A|--------|--------|--------|--------|--------|--------|--------|--------|--------|
 E|--------|--------|--------|--------|--------|--------|--------|--------|--------|
 B|--------|--------|--------|--------|--------|--------|--------|--------|--------|


 B|--------|--------|--------|--------|--------|--------|--------|--------|--------|
F#|--------|--------|--------|--------|--------|--------|--------|--------|--------|
 D|--------|--------|--------|--------|--------|--------|--------|--------|--------|
 A|--------|--------|--------|--------|--------|--------|--------|--------|--------|
 E|--------|--------|--------|--------|--------|--------|--------|--------|--------|
 B|--------|--------|--------|--------|--------|--------|--------|--------|--------|


 B|--------|--------|--------|--------|--------|--------|--------|--------|--------|
F#|--------|--------|--------|--------|--------|--------|--------|--------|--------|
 D|--------|--------|--------|--------|--------|--------|--------|--------|--------|
 A|--------|--------|--------|--------|--------|--------|--------|--------|--------|
 E|--------|--------|--------|--------|--------|--------|--------|--------|--------|
 B|--------|--------|--------|--------|--------|--------|--------|--------|--------|


 B|--------|--------|--------|--------|--------|--------|--------|--------|--------|
F#|--------|--------|--------|--------|--------|--------|--------|--------|--------|
 D|--------|--------|--------|--------|--------|--------|--------|--------|--------|
 A|--------|--------|--------|--------|--------|--------|--------|--------|--------|
 E|--------|--------|--------|--------|--------|--------|--------|--------|--------|
 B|--------|--------|--------|--------|--------|--------|--------|--------|--------|


 B|--------|--------|--------|--------|--------|--------|--------|--------|--------|
F#|--------|--------|--------|--------|--------|--------|--------|--------|--------|
 D|--------|--------|--------|--------|--------|--------|--------|--------|--------|
 A|--------|--------|--------|--------|--------|--------|--------|--------|--------|
 E|--------|--------|--------|--------|--------|--------|--------|--------|--------|
 B|--------|--------|--------|--------|--------|--------|--------|--------|--------|


 B|--------|--------|--------|--------|--------|--------|--------|--------|--------|
F#|--------|--------|--------|--------|--------|--------|--------|--------|--------|
 D|--------|--------|--------|--------|--------|--------|--------|--------|--------|
 A|--------|--------|--------|--------|--------|--------|--------|--------|--------|
 E|--------|--------|--------|--------|--------|--------|--------|--------|--------|
 B|--------|--------|--------|--------|--------|--------|--------|--------|--------|


 B|--------|--------|--------|--------|--------|--------|--------|--------|--------|
F#|--------|--------|--------|--------|--------|--------|--------|--------|--------|
 D|--------|--------|--------|--------|--------|--------|--------|--------|--------|
 A|--------|--------|--------|--------|--------|--------|--------|--------|--------|
 E|--------|--------|--------|--------|--------|--------|--------|--------|--------|
 B|--------|--------|--------|--------|--------|--------|--------|--------|--------|


 B|--------|--------|--------|--------|--------|--------|--------|--------|--------|
F#|--------|--------|--------|--------|--------|--------|--------|--------|--------|
 D|--------|--------|--------|--------|--------|--------|--------|--------|--------|
 A|--------|--------|--------|--------|--------|--------|--------|--------|--------|
 E|--------|--------|--------|--------|--------|--------|--------|--------|--------|
 B|--------|--------|--------|--------|--------|--------|--------|--------|--------|


 B|--------|--------|--------|--------|--------|--------|--------|--------|--------|
F#|--------|--------|--------|--------|--------|--------|--------|--------|--------|
 D|--------|--------|--------|--------|--------|--------|--------|--------|--------|
 A|--------|--------|--------|--------|--------|--------|--------|--------|--------|
 E|--------|--------|--------|--------|--------|--------|--------|--------|--------|
 B|--------|--------|--------|--------|--------|--------|--------|--------|--------|


 B|--------|--------|--------|--------|--------|--------|--------|--------|--------|
F#|--------|--------|--------|--------|--------|--------|--------|--------|--------|
 D|--------|--------|--------|--------|--------|--------|--------|--------|--------|
 A|--------|--------|--------|--------|--------|--------|--------|--------|--------|
 E|--------|--------|--------|--------|--------|--------|--------|--------|--------|
 B|--------|--------|--------|--------|--------|--------|--------|--------|--------|


 B|--------|--------|--------|--------|--------|--------|--------|--------|--------|
F#|--------|--------|--------|--------|--------|--------|--------|--------|--------|
 D|--------|--------|--------|--------|--------|--------|--------|--------|--------|
 A|--------|--------|--------|--------|--------|--------|--------|--------|--------|
 E|--------|--------|--------|--------|--------|--------|--------|--------|--------|
 B|--------|--------|--------|--------|--------|--------|--------|--------|--------|


 B|--------|--------|--------|--------|--------|--------|--------|--------|--------|
F#|--------|--------|--------|--------|--------|--------|--------|--------|--------|
 D|--------|--------|--------|--------|--------|--------|--------|--------|--------|
 A|--------|--------|--------|--------|--------|--------|--------|--------|--------|
 E|--------|--------|--------|--------|--------|--------|--------|--------|--------|
 B|--------|--------|--------|--------|--------|--------|--------|--------|--------|


 B|--------|--------|--------|--------|--------|--------|--------|--------|--------|
F#|--------|--------|--------|--------|--------|--------|--------|--------|--------|
 D|--------|--------|--------|--------|--------|--------|--------|--------|--------|
 A|--------|--------|--------|--------|--------|--------|--------|--------|--------|
 E|--------|--------|--------|--------|--------|--------|--------|--------|--------|
 B|--------|--------|--------|--------|--------|--------|--------|--------|--------|


 B|--------|--------|--------|--------|--------|--------|--------|--------|--------|
F#|--------|--------|--------|--------|--------|--------|--------|--------|--------|
 D|--------|--------|--------|--------|--------|--------|--------|--------|--------|
 A|--------|--------|--------|--------|--------|--------|--------|--------|--------|
 E|--------|--------|--------|--------|--------|--------|--------|--------|--------|
 B|--------|--------|--------|--------|--------|--------|--------|--------|--------|


 B|--------|--------|--------|--------|--------|--------|--------|--------|--------|
F#|--------|--------|--------|--------|--------|--------|--------|--------|--------|
 D|--------|--------|--------|--------|--------|--------|--------|--------|--------|
 A|--------|--------|--------|--------|--------|--------|--------|--------|--------|
 E|--------|--------|--------|--------|--------|--------|--------|--------|--------|
 B|--------|--------|--------|--------|--------|--------|--------|--------|--------|


 B|--------|--------|--------|--------|--------|--------|--------|--------|--------|
F#|--------|--------|--------|--------|--------|--------|--------|--------|--------|
 D|--------|--------|--------|--------|--------|--------|--------|--------|--------|
 A|--------|--------|--------|--------|--------|--------|--------|--------|--------|
 E|--------|--------|--------|--------|--------|--------|--------|--------|--------|
 B|--------|--------|--------|--------|--------|--------|--------|--------|--------|


 B|--------|--------|--------|--------|--------|
F#|--------|--------|--------|--------|--------|
 D|--------|--------|--------|--------|--------|
 A|--------|--------|--------|--------|--------|
 E|--------|--------|--------|--------|--------|
 B|--------|--------|--------|--------|--------|