Menu:

 

Search:

 

joe satriani - the power cosmic 2000 part ii:

 



Title: The Power Cosmic 2000 ( Part 2 )
Artist: 
Album: Engines Of Creation
Author: Joe Satriani


Track 1: Guitar 1 ( Arpeggios )

E|--------|--------|--------|--------|--------|--------------------|-------13---------------------------------|
B|--------|--------|--------|--------|--------|--------------------|----11----11------------------------------|
G|--------|--------|--------|--------|--------|--------------------|-8-----------8----------------------------|
D|--------|--------|--------|--------|--------|-----------------12-|----------------12---------------------15-|
A|--------|--------|--------|--------|--------|--------------10----|-------------------10---------------13----|
E|--------|--------|--------|--------|--------|-----------8--------|----------------------8----------11-------|


E|-------17---------------------------------|-------13----------------------|--------------------|
B|----15----15------------------------------|----11----11-------------------|--------------------|
G|-12----------12---------------------------|-8-----------8-----------------|--------------------|
D|----------------15---------------------12-|----------------12-------------|-----------------12-|
A|-------------------13---------------10----|-------------------10----------|--------------10----|
E|----------------------11---------8--------|----------------------8--------|-----------8--------|


E|-------13---------------------------------|-------17---------------------------------|
B|----11----11------------------------------|----15----15------------------------------|
G|-8-----------8----------------------------|-12----------12---------------------------|
D|----------------12---------------------15-|----------------15---------------------12-|
A|-------------------10---------------13----|-------------------13---------------10----|
E|----------------------8----------11-------|----------------------11---------8--------|


E|-------13----------------------|--------------------|-------13---------------------------------|
B|----11----11-------------------|--------------------|----11----11------------------------------|
G|-8-----------8-----------------|--------------------|-8-----------8----------------------------|
D|----------------12-------------|-----------------12-|----------------12---------------------8--|
A|-------------------10----------|--------------10----|-------------------10---------------6-----|
E|----------------------8--------|-----------8--------|----------------------8----------4--------|


E|-------10---------------------------------|-------18---------------------------------|
B|----8-----8-------------------------------|----16----16------------------------------|
G|-5-----------5----------------------------|-13----------13---------------------------|
D|----------------8----------------------17-|----------------17---------------------13-|
A|-------------------6----------------15----|-------------------15---------------11----|
E|----------------------4----------13-------|----------------------13---------9--------|


E|-------15---------------------------------|-------13----------------------|--------------------|
B|----13----13------------------------------|----11----11-------------------|--------------------|
G|-10----------10---------------------------|-8-----------8-----------------|--------------------|
D|----------------13---------------------12-|----------------12-------------|-----------------12-|
A|-------------------11---------------10----|-------------------10----------|--------------10----|
E|----------------------9----------8--------|----------------------8--------|-----------8--------|


E|-------13----------------------|--------------------|-------13---------------------------------|
B|----11----11-------------------|--------------------|----11----11------------------------------|
G|-8-----------8-----------------|--------------------|-8-----------8----------------------------|
D|----------------12-------------|-----------------12-|----------------12---------------------15-|
A|-------------------10----------|--------------10----|-------------------10---------------13----|
E|----------------------8--------|-----------8--------|----------------------8----------11-------|


E|-------17---------------------------------|-------13----------------------|--------------------|
B|----15----15------------------------------|----11----11-------------------|--------------------|
G|-12----------12---------------------------|-8-----------8-----------------|--------------------|
D|----------------15---------------------12-|----------------12-------------|-----------------12-|
A|-------------------13---------------10----|-------------------10----------|--------------10----|
E|----------------------11---------8--------|----------------------8--------|-----------8--------|


E|-------13---------------------------------|-------17---------------------------------|
B|----11----11------------------------------|----15----15------------------------------|
G|-8-----------8----------------------------|-12----------12---------------------------|
D|----------------12---------------------15-|----------------15---------------------12-|
A|-------------------10---------------13----|-------------------13---------------10----|
E|----------------------8----------11-------|----------------------11---------8--------|


E|-------13----------------------|--------------------|-------13---------------------------------|
B|----11----11-------------------|--------------------|----11----11------------------------------|
G|-8-----------8-----------------|--------------------|-8-----------8----------------------------|
D|----------------12-------------|-----------------12-|----------------12---------------------8--|
A|-------------------10----------|--------------10----|-------------------10---------------6-----|
E|----------------------8--------|-----------8--------|----------------------8----------4--------|


E|-------10---------------------------------|-------18---------------------------------|
B|----8-----8-------------------------------|----16----16------------------------------|
G|-5-----------5----------------------------|-13----------13---------------------------|
D|----------------8----------------------17-|----------------17---------------------13-|
A|-------------------6----------------15----|-------------------15---------------11----|
E|----------------------4----------13-------|----------------------13---------9--------|


E|-------15---------------------------------|-------13----------------------|--------------------|
B|----13----13------------------------------|----11----11-------------------|--------------------|
G|-10----------10---------------------------|-8-----------8-----------------|--------------------|
D|----------------13---------------------12-|----------------12-------------|-----------------12-|
A|-------------------11---------------10----|-------------------10----------|--------------10----|
E|----------------------9----------8--------|----------------------8--------|-----------8--------|


E|-------13----------------------|--------|--------|--------|--------|--------|--------|
B|----11----11-------------------|--------|--------|--------|--------|--------|--------|
G|-8-----------8-----------------|--------|--------|--------|--------|--------|--------|
D|----------------12-------------|--------|--------|--------|--------|--------|--------|
A|-------------------10----------|--------|--------|--------|--------|--------|--------|
E|----------------------8--------|--------|--------|--------|--------|--------|--------|


E|--------|--------|--------|--------|--------|--------|--------|--------|--------|
B|--------|--------|--------|--------|--------|--------|--------|--------|--------|
G|--------|--------|--------|--------|--------|--------|--------|--------|--------|
D|--------|--------|--------|--------|--------|--------|--------|--------|--------|
A|--------|--------|--------|--------|--------|--------|--------|--------|--------|
E|--------|--------|--------|--------|--------|--------|--------|--------|--------|


E|--------|--------|--------|--------|--------|--------|--------|--------|--------|
B|--------|--------|--------|--------|--------|--------|--------|--------|--------|
G|--------|--------|--------|--------|--------|--------|--------|--------|--------|
D|--------|--------|--------|--------|--------|--------|--------|--------|--------|
A|--------|--------|--------|--------|--------|--------|--------|--------|--------|
E|--------|--------|--------|--------|--------|--------|--------|--------|--------|


E|--------|--------|--------|--------|--------|--------|--------|--------|--------|
B|--------|--------|--------|--------|--------|--------|--------|--------|--------|
G|--------|--------|--------|--------|--------|--------|--------|--------|--------|
D|--------|--------|--------|--------|--------|--------|--------|--------|--------|
A|--------|--------|--------|--------|--------|--------|--------|--------|--------|
E|--------|--------|--------|--------|--------|--------|--------|--------|--------|


E|--------|--------|--------|--------|--------|--------|--------|--------|--------|
B|--------|--------|--------|--------|--------|--------|--------|--------|--------|
G|--------|--------|--------|--------|--------|--------|--------|--------|--------|
D|--------|--------|--------|--------|--------|--------|--------|--------|--------|
A|--------|--------|--------|--------|--------|--------|--------|--------|--------|
E|--------|--------|--------|--------|--------|--------|--------|--------|--------|


E|--------|--------|--------|--------|--------|--------|--------|--------|--------|
B|--------|--------|--------|--------|--------|--------|--------|--------|--------|
G|--------|--------|--------|--------|--------|--------|--------|--------|--------|
D|--------|--------|--------|--------|--------|--------|--------|--------|--------|
A|--------|--------|--------|--------|--------|--------|--------|--------|--------|
E|--------|--------|--------|--------|--------|--------|--------|--------|--------|


E|--------|--------|--------|--------|--------------------|-------13---------------------------------|
B|--------|--------|--------|--------|--------------------|----11----11------------------------------|
G|--------|--------|--------|--------|--------------------|-8-----------8----------------------------|
D|--------|--------|--------|--------|-----------------12-|----------------12---------------------15-|
A|--------|--------|--------|--------|--------------10----|-------------------10---------------13----|
E|--------|--------|--------|--------|-----------8--------|----------------------8----------11-------|


E|-------17---------------------------------|-------13----------------------|--------------------|
B|----15----15------------------------------|----11----11-------------------|--------------------|
G|-12----------12---------------------------|-8-----------8-----------------|--------------------|
D|----------------15---------------------12-|----------------12-------------|-----------------12-|
A|-------------------13---------------10----|-------------------10----------|--------------10----|
E|----------------------11---------8--------|----------------------8--------|-----------8--------|


E|-------13---------------------------------|-------17---------------------------------|
B|----11----11------------------------------|----15----15------------------------------|
G|-8-----------8----------------------------|-12----------12---------------------------|
D|----------------12---------------------15-|----------------15---------------------12-|
A|-------------------10---------------13----|-------------------13---------------10----|
E|----------------------8----------11-------|----------------------11---------8--------|


E|-------13----------------------|--------------------|-------13---------------------------------|
B|----11----11-------------------|--------------------|----11----11------------------------------|
G|-8-----------8-----------------|--------------------|-8-----------8----------------------------|
D|----------------12-------------|-----------------12-|----------------12---------------------8--|
A|-------------------10----------|--------------10----|-------------------10---------------6-----|
E|----------------------8--------|-----------8--------|----------------------8----------4--------|


E|-------10---------------------------------|-------18---------------------------------|
B|----8-----8-------------------------------|----16----16------------------------------|
G|-5-----------5----------------------------|-13----------13---------------------------|
D|----------------8----------------------17-|----------------17---------------------13-|
A|-------------------6----------------15----|-------------------15---------------11----|
E|----------------------4----------13-------|----------------------13---------9--------|


E|-------15---------------------------------|-------13----------------------|--------------------|
B|----13----13------------------------------|----11----11-------------------|--------------------|
G|-10----------10---------------------------|-8-----------8-----------------|--------------------|
D|----------------13---------------------12-|----------------12-------------|-----------------12-|
A|-------------------11---------------10----|-------------------10----------|--------------10----|
E|----------------------9----------8--------|----------------------8--------|-----------8--------|


E|-------13----------------------|--------|----------------17------------------------|
B|----11----11-------------------|--------|-------------15----15---------------------|
G|-8-----------8-----------------|--------|----------12----------12------------------|
D|----------------12-------------|--------|-------15----------------15---------------|
A|-------------------10----------|--------|----13----------------------13------------|
E|----------------------8--------|--------|-11----------------------------11---------|


E|--------|----------------16------------------------|--------|----------------14------------------------|
B|--------|-------------14----14---------------------|--------|-------------12----12---------------------|
G|--------|----------11----------11------------------|--------|----------9-----------9-------------------|
D|--------|-------14----------------14---------------|--------|-------12----------------12---------------|
A|--------|----12----------------------12------------|--------|----10----------------------10------------|
E|--------|-10----------------------------10---------|--------|-8-----------------------------8----------|


E|--------|----------------12------------------------|--------|----------------11------------------------|
B|--------|-------------10----10---------------------|--------|-------------9-----9----------------------|
G|--------|----------7-----------7-------------------|--------|----------6-----------6-------------------|
D|--------|-------10----------------10---------------|--------|-------9-----------------9----------------|
A|--------|----8-----------------------8-------------|--------|----7-----------------------7-------------|
E|--------|-6-----------------------------6----------|--------|-5-----------------------------5----------|


E|--------|----------------9-------------------------|--------|----------------7-------------------------|
B|--------|-------------7-----7----------------------|--------|-------------5-----5----------------------|
G|--------|----------4-----------4-------------------|--------|----------2-----------2-------------------|
D|--------|-------7-----------------7----------------|--------|-------5-----------------5----------------|
A|--------|----5-----------------------5-------------|--------|----3-----------------------3-------------|
E|--------|-3-----------------------------3----------|--------|-1-----------------------------1----------|


E|--------|----------------6-------------------------|--------|----------------17------------------------|
B|--------|-------------4-----4----------------------|--------|-------------15----15---------------------|
G|--------|----------1-----------1-------------------|--------|----------12----------12------------------|
D|--------|-------4-----------------4----------------|--------|-------15----------------15---------------|
A|--------|----2-----------------------2-------------|--------|----13----------------------13------------|
E|--------|-0-----------------------------0----------|--------|-11----------------------------11---------|


E|--------|----------------16------------------------|--------|----------------14------------------------|
B|--------|-------------14----14---------------------|--------|-------------12----12---------------------|
G|--------|----------11----------11------------------|--------|----------9-----------9-------------------|
D|--------|-------14----------------14---------------|--------|-------12----------------12---------------|
A|--------|----12----------------------12------------|--------|----10----------------------10------------|
E|--------|-10----------------------------10---------|--------|-8-----------------------------8----------|


E|--------|----------------12------------------------|--------|----------------11------------------------|
B|--------|-------------10----10---------------------|--------|-------------9-----9----------------------|
G|--------|----------7-----------7-------------------|--------|----------6-----------6-------------------|
D|--------|-------10----------------10---------------|--------|-------9-----------------9----------------|
A|--------|----8-----------------------8-------------|--------|----7-----------------------7-------------|
E|--------|-6-----------------------------6----------|--------|-5-----------------------------5----------|


E|--------|----------------9-------------------------|--------|----------------7-------------------------|
B|--------|-------------7-----7----------------------|--------|-------------5-----5----------------------|
G|--------|----------4-----------4-------------------|--------|----------2-----------2-------------------|
D|--------|-------7-----------------7----------------|--------|-------5-----------------5----------------|
A|--------|----5-----------------------5-------------|--------|----3-----------------------3-------------|
E|--------|-3-----------------------------3----------|--------|-1-----------------------------1----------|


E|--------|----------------6-------------------------|--------|
B|--------|-------------4-----4----------------------|--------|
G|--------|----------1-----------1-------------------|--------|
D|--------|-------4-----------------4----------------|--------|
A|--------|----2-----------------------2-------------|--------|
E|--------|-0-----------------------------0----------|--------|





Track 2: Lead Guitar ( Chorus )

E|--------|--------|--------|--------|--------|--------|--------|--------|--------|
B|--------|--------|--------|--------|--------|--------|--------|--------|--------|
G|--------|--------|--------|--------|--------|--------|--------|--------|--------|
D|--------|--------|--------|--------|--------|--------|--------|--------|--------|
A|--------|--------|--------|--------|--------|--------|--------|--------|--------|
E|--------|--------|--------|--------|--------|--------|--------|--------|--------|


E|--------|--------|--------|--------|--------|--------|--------|--------|--------|
B|--------|--------|--------|--------|--------|--------|--------|--------|--------|
G|--------|--------|--------|--------|--------|--------|--------|--------|--------|
D|--------|--------|--------|--------|--------|--------|--------|--------|--------|
A|--------|--------|--------|--------|--------|--------|--------|--------|--------|
E|--------|--------|--------|--------|--------|--------|--------|--------|--------|


E|--------|--------|--------|--------|--------------------|------------|----------------|
B|--------|--------|--------|--------|--------------------|------------|----------------|
G|--------|--------|--------|--------|-------29---31------|-31-----31--|-31--31---------|
D|--------|--------|--------|--------|--------------------|------------|----------------|
A|--------|--------|--------|--------|--------------------|------------|----------------|
E|--------|--------|--------|--------|--------------------|------------|----------------|


E|--------|--------------------|------------|-----------------|--------|--------------------|
B|--------|--------------------|--------30--|-30--------------|--------|------------31------|
G|--------|-------29---31------|-31---------|-----------------|--------|-------29-----------|
D|--------|--------------------|------------|-----------------|--------|--------------------|
A|--------|--------------------|------------|-----------------|--------|--------------------|
E|--------|--------------------|------------|-----------------|--------|--------------------|


E|-30---------------------|---------------------------|---------------------------|
B|-----------31---30------|---------------------------|---------------------------|
G|------------------------|-31---29------27---24------|-22---20------20---19------|
D|------------------------|---------------------------|---------------------------|
A|------------------------|---------------------------|---------------------------|
E|------------------------|---------------------------|---------------------------|


E|--------------------|--------|--------|--------|--------|--------|--------|--------|
B|--------------------|--------|--------|--------|--------|--------|--------|--------|
G|-17----17--15--17---|--------|--------|--------|--------|--------|--------|--------|
D|--------------------|--------|--------|--------|--------|--------|--------|--------|
A|--------------------|--------|--------|--------|--------|--------|--------|--------|
E|--------------------|--------|--------|--------|--------|--------|--------|--------|


E|--------|--------|--------|--------|--------|--------|--------|--------|--------|
B|--------|--------|--------|--------|--------|--------|--------|--------|--------|
G|--------|--------|--------|--------|--------|--------|--------|--------|--------|
D|--------|--------|--------|--------|--------|--------|--------|--------|--------|
A|--------|--------|--------|--------|--------|--------|--------|--------|--------|
E|--------|--------|--------|--------|--------|--------|--------|--------|--------|


E|--------|--------|--------|--------|--------|--------|--------|--------|--------|
B|--------|--------|--------|--------|--------|--------|--------|--------|--------|
G|--------|--------|--------|--------|--------|--------|--------|--------|--------|
D|--------|--------|--------|--------|--------|--------|--------|--------|--------|
A|--------|--------|--------|--------|--------|--------|--------|--------|--------|
E|--------|--------|--------|--------|--------|--------|--------|--------|--------|


E|--------|--------|--------|--------|--------|--------|--------|--------|--------|
B|--------|--------|--------|--------|--------|--------|--------|--------|--------|
G|--------|--------|--------|--------|--------|--------|--------|--------|--------|
D|--------|--------|--------|--------|--------|--------|--------|--------|--------|
A|--------|--------|--------|--------|--------|--------|--------|--------|--------|
E|--------|--------|--------|--------|--------|--------|--------|--------|--------|


E|--------|--------|--------|--------|--------|--------|--------|--------|--------|
B|--------|--------|--------|--------|--------|--------|--------|--------|--------|
G|--------|--------|--------|--------|--------|--------|--------|--------|--------|
D|--------|--------|--------|--------|--------|--------|--------|--------|--------|
A|--------|--------|--------|--------|--------|--------|--------|--------|--------|
E|--------|--------|--------|--------|--------|--------|--------|--------|--------|


E|--------|--------|--------|--------|--------|--------|--------|--------|--------|
B|--------|--------|--------|--------|--------|--------|--------|--------|--------|
G|--------|--------|--------|--------|--------|--------|--------|--------|--------|
D|--------|--------|--------|--------|--------|--------|--------|--------|--------|
A|--------|--------|--------|--------|--------|--------|--------|--------|--------|
E|--------|--------|--------|--------|--------|--------|--------|--------|--------|


E|--------|--------|--------|--------|--------|--------|--------|--------|--------|
B|--------|--------|--------|--------|--------|--------|--------|--------|--------|
G|--------|--------|--------|--------|--------|--------|--------|--------|--------|
D|--------|--------|--------|--------|--------|--------|--------|--------|--------|
A|--------|--------|--------|--------|--------|--------|--------|--------|--------|
E|--------|--------|--------|--------|--------|--------|--------|--------|--------|


E|--------|--------|--------|--------|--------|--------|--------|--------|--------|
B|--------|--------|--------|--------|--------|--------|--------|--------|--------|
G|--------|--------|--------|--------|--------|--------|--------|--------|--------|
D|--------|--------|--------|--------|--------|--------|--------|--------|--------|
A|--------|--------|--------|--------|--------|--------|--------|--------|--------|
E|--------|--------|--------|--------|--------|--------|--------|--------|--------|


E|--------|--------|--------|--------|--------|--------|--------|--------|--------|
B|--------|--------|--------|--------|--------|--------|--------|--------|--------|
G|--------|--------|--------|--------|--------|--------|--------|--------|--------|
D|--------|--------|--------|--------|--------|--------|--------|--------|--------|
A|--------|--------|--------|--------|--------|--------|--------|--------|--------|
E|--------|--------|--------|--------|--------|--------|--------|--------|--------|


E|--------|--------|--------|--------|--------|--------|--------|--------|--------|
B|--------|--------|--------|--------|--------|--------|--------|--------|--------|
G|--------|--------|--------|--------|--------|--------|--------|--------|--------|
D|--------|--------|--------|--------|--------|--------|--------|--------|--------|
A|--------|--------|--------|--------|--------|--------|--------|--------|--------|
E|--------|--------|--------|--------|--------|--------|--------|--------|--------|


E|--------|--------|--------|--------|--------|--------|--------|--------|--------|
B|--------|--------|--------|--------|--------|--------|--------|--------|--------|
G|--------|--------|--------|--------|--------|--------|--------|--------|--------|
D|--------|--------|--------|--------|--------|--------|--------|--------|--------|
A|--------|--------|--------|--------|--------|--------|--------|--------|--------|
E|--------|--------|--------|--------|--------|--------|--------|--------|--------|


E|--------|--------|--------|--------|--------|--------|--------|--------|--------|
B|--------|--------|--------|--------|--------|--------|--------|--------|--------|
G|--------|--------|--------|--------|--------|--------|--------|--------|--------|
D|--------|--------|--------|--------|--------|--------|--------|--------|--------|
A|--------|--------|--------|--------|--------|--------|--------|--------|--------|
E|--------|--------|--------|--------|--------|--------|--------|--------|--------|





Track 3: Correct fret-numbers for chorus and solo

E|--------|--------|--------|--------|--------|--------|--------|--------|--------|
B|--------|--------|--------|--------|--------|--------|--------|--------|--------|
G|--------|--------|--------|--------|--------|--------|--------|--------|--------|
D|--------|--------|--------|--------|--------|--------|--------|--------|--------|
A|--------|--------|--------|--------|--------|--------|--------|--------|--------|
E|--------|--------|--------|--------|--------|--------|--------|--------|--------|


E|--------|--------|--------|--------|--------|--------|--------|--------|--------|
B|--------|--------|--------|--------|--------|--------|--------|--------|--------|
G|--------|--------|--------|--------|--------|--------|--------|--------|--------|
D|--------|--------|--------|--------|--------|--------|--------|--------|--------|
A|--------|--------|--------|--------|--------|--------|--------|--------|--------|
E|--------|--------|--------|--------|--------|--------|--------|--------|--------|


E|--------|--------|--------|--------|--------------------|------------|-------------|
B|--------|--------|--------|--------|--------------------|------------|-------------|
G|--------|--------|--------|--------|-------17---20------|-19-----20--|-20----------|
D|--------|--------|--------|--------|--------------------|------------|-------------|
A|--------|--------|--------|--------|--------------------|------------|-------------|
E|--------|--------|--------|--------|--------------------|------------|-------------|


E|--------|--------------------|------------|-----------------|--------|--------------------|
B|--------|--------------------|--------18--|-18--------------|--------|------------20------|
G|--------|-------17---20------|-19---------|-----------------|--------|-------17-----------|
D|--------|--------------------|------------|-----------------|--------|--------------------|
A|--------|--------------------|------------|-----------------|--------|--------------------|
E|--------|--------------------|------------|-----------------|--------|--------------------|


E|-18---------------------|---------------------------|---------------------------|
B|-----------20---18------|---------------------------|---------------------------|
G|------------------------|-20---17------15---12------|-10---8-------8----7-------|
D|------------------------|---------------------------|---------------------------|
A|------------------------|---------------------------|---------------------------|
E|------------------------|---------------------------|---------------------------|


E|--------------------|--------|--------|--------|--------|--------|--------|--------|
B|--------------------|--------|--------|--------|--------|--------|--------|--------|
G|-5-----5---3---5----|--------|--------|--------|--------|--------|--------|--------|
D|--------------------|--------|--------|--------|--------|--------|--------|--------|
A|--------------------|--------|--------|--------|--------|--------|--------|--------|
E|--------------------|--------|--------|--------|--------|--------|--------|--------|


E|--------|--------|--------|--------|--------|--------|--------|--------|--------|
B|--------|--------|--------|--------|--------|--------|--------|--------|--------|
G|--------|--------|--------|--------|--------|--------|--------|--------|--------|
D|--------|--------|--------|--------|--------|--------|--------|--------|--------|
A|--------|--------|--------|--------|--------|--------|--------|--------|--------|
E|--------|--------|--------|--------|--------|--------|--------|--------|--------|


E|--------|--------|--------|--------|--------|--------|--------|--------|--------|
B|--------|--------|--------|--------|--------|--------|--------|--------|--------|
G|--------|--------|--------|--------|--------|--------|--------|--------|--------|
D|--------|--------|--------|--------|--------|--------|--------|--------|--------|
A|--------|--------|--------|--------|--------|--------|--------|--------|--------|
E|--------|--------|--------|--------|--------|--------|--------|--------|--------|


E|--------|--------|--------|--------|--------|--------|--------|--------|--------|
B|--------|--------|--------|--------|--------|--------|--------|--------|--------|
G|--------|--------|--------|--------|--------|--------|--------|--------|--------|
D|--------|--------|--------|--------|--------|--------|--------|--------|--------|
A|--------|--------|--------|--------|--------|--------|--------|--------|--------|
E|--------|--------|--------|--------|--------|--------|--------|--------|--------|


E|--------|--------|--------|--------|--------|--------|--------|--------|--------|
B|--------|--------|--------|--------|--------|--------|--------|--------|--------|
G|--------|--------|--------|--------|--------|--------|--------|--------|--------|
D|--------|--------|--------|--------|--------|--------|--------|--------|--------|
A|--------|--------|--------|--------|--------|--------|--------|--------|--------|
E|--------|--------|--------|--------|--------|--------|--------|--------|--------|


E|--------|--------|--------|--------|--------|--------|--------|--------|--------|
B|--------|--------|--------|--------|--------|--------|--------|--------|--------|
G|--------|--------|--------|--------|--------|--------|--------|--------|--------|
D|--------|--------|--------|--------|--------|--------|--------|--------|--------|
A|--------|--------|--------|--------|--------|--------|--------|--------|--------|
E|--------|--------|--------|--------|--------|--------|--------|--------|--------|


E|--------|--------|--------|--------|----7--6-----7--6--------------------------------|
B|--------|--------|--------|--------|-8--------7--------7--6-----7--6-----6--5--------|
G|--------|--------|--------|--------|-------------------------8--------7--------7--6--|
D|--------|--------|--------|--------|-------------------------------------------------|
A|--------|--------|--------|--------|-------------------------------------------------|
E|--------|--------|--------|--------|-------------------------------------------------|


E|-------9-----------------------------------|--------------------|------------|-------------|
B|-------------------8--9--8--6--6--8--6--4--|--------------------|------------|-------------|
G|-5--6-----6--------------------------------|-------17---20------|-19-----20--|-20----------|
D|-------------------------------------------|--------------------|------------|-------------|
A|-------------------------------------------|--------------------|------------|-------------|
E|-------------------------------------------|--------------------|------------|-------------|


E|--------|--------------------|------------|-----------------|--------|--------------------|
B|--------|--------------------|--------18--|-18--------------|--------|------------20------|
G|--------|-------17---20------|-19---------|-----------------|--------|-------17-----------|
D|--------|--------------------|------------|-----------------|--------|--------------------|
A|--------|--------------------|------------|-----------------|--------|--------------------|
E|--------|--------------------|------------|-----------------|--------|--------------------|


E|-18---------------------|---------------------------|---------------------------|
B|-----------20---18------|---------------------------|---------------------------|
G|------------------------|-20---17------15---12------|-10---8-------8----7-------|
D|------------------------|---------------------------|---------------------------|
A|------------------------|---------------------------|---------------------------|
E|------------------------|---------------------------|---------------------------|


E|--------------------|--------|--------------------|--------|--------|--------|--------|
B|--------------------|--------|--------------------|--------|--------|--------|--------|
G|-5-----5---3---5----|--------|-5-----5---3---5----|--------|--------|--------|--------|
D|--------------------|--------|--------------------|--------|--------|--------|--------|
A|--------------------|--------|--------------------|--------|--------|--------|--------|
E|--------------------|--------|--------------------|--------|--------|--------|--------|


E|--------|--------|--------|--------|--------|--------|--------|--------|--------|
B|--------|--------|--------|--------|--------|--------|--------|--------|--------|
G|--------|--------|--------|--------|--------|--------|--------|--------|--------|
D|--------|--------|--------|--------|--------|--------|--------|--------|--------|
A|--------|--------|--------|--------|--------|--------|--------|--------|--------|
E|--------|--------|--------|--------|--------|--------|--------|--------|--------|


E|--------|--------|--------|--------|--------|--------|--------|--------|--------|
B|--------|--------|--------|--------|--------|--------|--------|--------|--------|
G|--------|--------|--------|--------|--------|--------|--------|--------|--------|
D|--------|--------|--------|--------|--------|--------|--------|--------|--------|
A|--------|--------|--------|--------|--------|--------|--------|--------|--------|
E|--------|--------|--------|--------|--------|--------|--------|--------|--------|


E|--------|--------|--------|--------|--------|--------|--------|--------|--------|
B|--------|--------|--------|--------|--------|--------|--------|--------|--------|
G|--------|--------|--------|--------|--------|--------|--------|--------|--------|
D|--------|--------|--------|--------|--------|--------|--------|--------|--------|
A|--------|--------|--------|--------|--------|--------|--------|--------|--------|
E|--------|--------|--------|--------|--------|--------|--------|--------|--------|


E|--------|--------|
B|--------|--------|
G|--------|--------|
D|--------|--------|
A|--------|--------|
E|--------|--------|





Track 4: Solo Guitar ( Guitar Synth )

E|--------|--------|--------|--------|--------|--------|--------|--------|--------|
B|--------|--------|--------|--------|--------|--------|--------|--------|--------|
G|--------|--------|--------|--------|--------|--------|--------|--------|--------|
D|--------|--------|--------|--------|--------|--------|--------|--------|--------|
A|--------|--------|--------|--------|--------|--------|--------|--------|--------|
E|--------|--------|--------|--------|--------|--------|--------|--------|--------|


E|--------|--------|--------|--------|--------|--------|--------|--------|--------|
B|--------|--------|--------|--------|--------|--------|--------|--------|--------|
G|--------|--------|--------|--------|--------|--------|--------|--------|--------|
D|--------|--------|--------|--------|--------|--------|--------|--------|--------|
A|--------|--------|--------|--------|--------|--------|--------|--------|--------|
E|--------|--------|--------|--------|--------|--------|--------|--------|--------|


E|--------|--------|--------|--------|--------|--------|--------|--------|--------|
B|--------|--------|--------|--------|--------|--------|--------|--------|--------|
G|--------|--------|--------|--------|--------|--------|--------|--------|--------|
D|--------|--------|--------|--------|--------|--------|--------|--------|--------|
A|--------|--------|--------|--------|--------|--------|--------|--------|--------|
E|--------|--------|--------|--------|--------|--------|--------|--------|--------|


E|--------|--------|--------|--------|--------|--------|--------|--------|--------|
B|--------|--------|--------|--------|--------|--------|--------|--------|--------|
G|--------|--------|--------|--------|--------|--------|--------|--------|--------|
D|--------|--------|--------|--------|--------|--------|--------|--------|--------|
A|--------|--------|--------|--------|--------|--------|--------|--------|--------|
E|--------|--------|--------|--------|--------|--------|--------|--------|--------|


E|--------|--------------------|-15-----15-15-13-11-11-|-10--8----------|------------------------------------------|
B|--------|----------------13--|-----------------------|----------------|------------------------------------------|
G|--------|--------------13----|-----------------------|----------------|---------5--7--5---7--8-----7--7-8-7-8-7--|
D|--------|------------13------|-----------------------|----------------|------------------------------------------|
A|--------|--------------------|-----------------------|----------------|------------------------------------------|
E|--------|--------------------|-----------------------|----------------|------------------------------------------|


E|------------------------------------|---------------------------------|----------------------------------|
B|-----------------13-12-13-11-13--13-|-13---15---16---15-13-12-9--9----|-9--11------11-9--8----7--7----8--|
G|-5--4-------------------------------|---------------------------------|----------------------------------|
D|-------3----------------------------|---------------------------------|----------------------------------|
A|------------------------------------|---------------------------------|----------------------------------|
E|------------------------------------|---------------------------------|----------------------------------|


E|---------------------------------|----------------------------------------|------------------------------|
B|-7--7--8-------------------------|----------------------------------------|------------------------------|
G|------------8--7--5--5--------5--|-5--8--7--8--7--5---8----12---11-11-1211|-1211--------------7-8-7-8-7--|
D|---------------------------------|----------------------------------------|-----13-----------------------|
A|---------------------------------|----------------------------------------|------------------------------|
E|---------------------------------|----------------------------------------|------------------------------|


E|----------------------------------------|---------------------------------|--------------------------------------|
B|----------------------------------------|---------------------------------|--------------------------------------|
G|-7--5---7---8---11--12--15--14---14--12-|-12---------8---9-8-8----10-11---|-11-16-15--13--11--13-13---251313-----|
D|----------------------------------------|---------------------------------|--------------------------------------|
A|----------------------------------------|---------------------------------|--------------------------------------|
E|----------------------------------------|---------------------------------|--------------------------------------|


E|--------------------------|---------------------------|---------------------------------|
B|--------------------------|---------------------------|---------------------------------|
G|-------11-13-11---11---9--|-9--11--9----8---8---------|-----8---9--9--11--12--16---15---|
D|--------------------------|---------------------------|---------------------------------|
A|--------------------------|---------------------------|---------------------------------|
E|--------------------------|---------------------------|---------------------------------|


E|---------15-------15--20---|-20---20--20-19-17-16-20--2019201915-----|-------15-14-15--17---18--|
B|---------------------------|-----------------------------------------|--------------------------|
G|-16-16---------------------|-----------------------------------------|--------------------------|
D|---------------------------|-----------------------------------------|--------------------------|
A|---------------------------|-----------------------------------------|--------------------------|
E|---------------------------|-----------------------------------------|--------------------------|


E|-1718171815----------------17--15-13-11-10-11-13-|-15--13-11-10-8--10-11-13--11-10-8--8--10-11-10-8--7-----8-7-|
B|-------------------------17----------------------|------------------------------------------------------9------|
G|-----------------------17------------------------|-------------------------------------------------------------|
D|-------------------------------------------------|-------------------------------------------------------------|
A|-------------------------------------------------|-------------------------------------------------------------|
E|-------------------------------------------------|-------------------------------------------------------------|


E|------------------------------------------------10-|-13---13---13----13-13-13--|
B|-9--8-----8--9----------------------------12-15----|---------------------------|
G|-------10------------------------10-12-13----------|---------------------------|
D|------------------------10-12-13-------------------|---------------------------|
A|---------------------------------------------------|---------------------------|
E|---------------------------------------------------|---------------------------|


E|-10------8--7--8--10-13---12--13-11-13-10-|-10--10-11--10-11-10-11-8----3--8--3--8--3--8--3--|
B|------------------------------------------|--------------------------------------------------|
G|------------------------------------------|--------------------------------------------------|
D|------------------------------------------|--------------------------------------------------|
A|------------------------------------------|--------------------------------------------------|
E|------------------------------------------|--------------------------------------------------|


E|------8--9--8--10---3--10-3--10-3--10-3------|------10-8--7--7--10--11----1123|-15--15----15---20-19-|
B|---------------------------------------------|--------------------------------|----------------------|
G|---------------------------------------------|--------------------------------|----------------------|
D|---------------------------------------------|--------------------------------|----------------------|
A|---------------------------------------------|--------------------------------|----------------------|
E|---------------------------------------------|--------------------------------|----------------------|


E|-20------------------------------30-|-30----15-27--------|-----23-25-27-25-23-25----13-11-10-1--13-|
B|---------------------------28-30----|--------------------|-----------------------------------------|
G|---------------------27-29----------|--------------------|-----------------------------------------|
D|------------26-27-29----------------|--------------------|-----------------------------------------|
A|------------------------------------|--------------------|-----------------------------------------|
E|------------------------------------|--------------------|-----------------------------------------|


E|-13----------------------------------|-----------------22-23-25-25---23---22---|
B|------5--6--8--6--5--7---8---20------|-----------11-13-------------------------|
G|-------------------------------------|-----10-12-------------------------------|
D|-------------------------------------|-----------------------------------------|
A|-------------------------------------|-----------------------------------------|
E|-------------------------------------|-----------------------------------------|


E|-23---25---25--13--27--30--30-|-30---30-29-27-25-27-31--31--31---31-|-31-31--31---31-31-31-31----31-31-29-|
B|------------------------------|-------------------------------------|-------------------------------------|
G|------------------------------|-------------------------------------|-------------------------------------|
D|------------------------------|-------------------------------------|-------------------------------------|
A|------------------------------|-------------------------------------|-------------------------------------|
E|------------------------------|-------------------------------------|-------------------------------------|


E|-31-29-28-27------30-28-27-26272625262524--23--|-23-25-23-22--------------------------27---------|
B|-----------------------------------------------|-------------25-24------------------28--30-28-27-|
G|-----------------------------------------------|-------------------25-24----------29-------------|
D|-----------------------------------------------|-------------------------------------------------|
A|-----------------------------------------------|-------------------------------------------------|
E|-----------------------------------------------|-------------------------------------------------|


E|---------------------------27-292731--2827------------|-------20-22-23-25-23-22-20-22---2019|
B|------------------------28----------------30-28-27----|-------------------------------------|
G|-29-28---------------29-------------------------------|-------------------------------------|
D|-------30-29-27---------------------------------------|-------------------------------------|
A|------------------------------------------------------|-------------------------------------|
E|------------------------------------------------------|-------------------------------------|


E|----7--8--7---------------------------------------|-------------------------------------------|
B|-------------9--8---------------------------13-12-|-13------8---7--5--7--8--7--5--7--8--------|
G|-------------------10-8--7--8--7------------------|-------------------------------------------|
D|----------------------------------10-10-----------|-------------------------------------------|
A|--------------------------------------------------|-------------------------------------------|
E|--------------------------------------------------|-------------------------------------------|


E|----------------------------------|--------------------------------------------|
B|-----4---5--7--5--4--5--8-----8---|-8--9--8--8--8--8--8--8--8--9---4--------4--|
G|----------------------------------|--------------------------------------------|
D|----------------------------------|--------------------------------------------|
A|----------------------------------|--------------------------------------------|
E|----------------------------------|--------------------------------------------|


E|------------------------------7--8--10-|-8--7--------7--8--7-------------------------|
B|-5--4---2--1----------127--8-----------|-------8--7-----------9--8----8--9--8--6--4--|
G|---------------------------------------|---------------------------------------------|
D|---------------------------------------|---------------------------------------------|
A|---------------------------------------|---------------------------------------------|
E|---------------------------------------|---------------------------------------------|


E|---------------------4--7--8--7-----------------|-------------------------------------------4-----4--|
B|-6--4-------8--6--8--------------8--6--8--6--4--|-3--4--6--4--3--4--3--------4--3--4--6--8-----8-----|
G|------------------------------------------------|----------------------6--5--------------------------|
D|------------------------------------------------|----------------------------------------------------|
A|------------------------------------------------|----------------------------------------------------|
E|------------------------------------------------|----------------------------------------------------|


E|-7--8--7--4--7--8--7--8--10-8--7--------7--------|----------7-----------------7--8-----------------|
B|----------------------------------9--8-----9--8--|----9--8-----9--8-----8--9-----------------------|
G|-------------------------------------------------|-10----------------10----------------------------|
D|-------------------------------------------------|-------------------------------------24-15-8--2--|
A|-------------------------------------------------|-------------------------------------24-15-8--2--|
E|-------------------------------------------------|-------------------------------------24-15-8--2--|


E|-2224221311108-1011132224221311108-1011132224221311108-1011132224221311108-101113|
B|---------------------------------------------------------------------------------|
G|---------------------------------------------------------------------------------|
D|---------------------------------------------------------------------------------|
A|---------------------------------------------------------------------------------|
E|---------------------------------------------------------------------------------|


E|-2224221311108-1011132224221311108-1011132224221311108-1011132224221311108-101113|
B|---------------------------------------------------------------------------------|
G|---------------------------------------------------------------------------------|
D|---------------------------------------------------------------------------------|
A|---------------------------------------------------------------------------------|
E|---------------------------------------------------------------------------------|


E|-11-13-15-161916151311------------------------------------------------|-11-13-15-161916151311------------------------------------------------|
B|----------------------1513121315161816151312--------------------------|----------------------1513121315161816151312--------------------------|
G|--------------------------------------------1312131617161312----------|--------------------------------------------1312131617161312----------|
D|------------------------------------------------------------151312----|------------------------------------------------------------151312----|
A|------------------------------------------------------------------1514|------------------------------------------------------------------1514|
E|----------------------------------------------------------------------|----------------------------------------------------------------------|


E|----19-18----19-18-------------------------------|-------21----------------------------------|
B|-20-------19-------19-18----19-18----18-17-------|-------------------8--9--8--6--6--8--6--4--|
G|-------------------------20-------19-------19-18-|-17-18----18-------------------------------|
D|-------------------------------------------------|-------------------------------------------|
A|-------------------------------------------------|-------------------------------------------|
E|-------------------------------------------------|-------------------------------------------|


E|--------------------|------------|----------------|--------|--------------------|
B|--------------------|------------|----------------|--------|--------------------|
G|-------29---31------|-31-----31--|-31--31---------|--------|-------29---31------|
D|--------------------|------------|----------------|--------|--------------------|
A|--------------------|------------|----------------|--------|--------------------|
E|--------------------|------------|----------------|--------|--------------------|


E|------------|-----------------|--------|--------------------|-30---------------------|
B|--------30--|-30--------------|--------|------------31------|-----------31---30------|
G|-31---------|-----------------|--------|-------29-----------|------------------------|
D|------------|-----------------|--------|--------------------|------------------------|
A|------------|-----------------|--------|--------------------|------------------------|
E|------------|-----------------|--------|--------------------|------------------------|


E|---------------------------|---------------------------|--------------------|--------|
B|---------------------------|---------------------------|--------------------|--------|
G|-31---29------27---24------|-22---20------20---19------|-17----17--15--17---|--------|
D|---------------------------|---------------------------|--------------------|--------|
A|---------------------------|---------------------------|--------------------|--------|
E|---------------------------|---------------------------|--------------------|--------|


E|--------------------|--------|--------|--------|--------|--------|--------|--------|
B|--------------------|--------|--------|--------|--------|--------|--------|--------|
G|-17----17--15--17---|--------|--------|--------|--------|--------|--------|--------|
D|--------------------|--------|--------|--------|--------|--------|--------|--------|
A|--------------------|--------|--------|--------|--------|--------|--------|--------|
E|--------------------|--------|--------|--------|--------|--------|--------|--------|


E|--------|--------|--------|--------|--------|--------|--------|--------|--------|
B|--------|--------|--------|--------|--------|--------|--------|--------|--------|
G|--------|--------|--------|--------|--------|--------|--------|--------|--------|
D|--------|--------|--------|--------|--------|--------|--------|--------|--------|
A|--------|--------|--------|--------|--------|--------|--------|--------|--------|
E|--------|--------|--------|--------|--------|--------|--------|--------|--------|


E|--------|--------|--------|--------|--------|--------|--------|--------|--------|
B|--------|--------|--------|--------|--------|--------|--------|--------|--------|
G|--------|--------|--------|--------|--------|--------|--------|--------|--------|
D|--------|--------|--------|--------|--------|--------|--------|--------|--------|
A|--------|--------|--------|--------|--------|--------|--------|--------|--------|
E|--------|--------|--------|--------|--------|--------|--------|--------|--------|


E|--------|--------|--------|--------|--------|--------|--------|--------|
B|--------|--------|--------|--------|--------|--------|--------|--------|
G|--------|--------|--------|--------|--------|--------|--------|--------|
D|--------|--------|--------|--------|--------|--------|--------|--------|
A|--------|--------|--------|--------|--------|--------|--------|--------|
E|--------|--------|--------|--------|--------|--------|--------|--------|





Track 5: Guitar 1 ( Arpeggios )

E|--------|--------|--------|--------|--------|--------|--------|--------|--------|
B|--------|--------|--------|--------|--------|--------|--------|--------|--------|
G|--------|--------|--------|--------|--------|--------|--------|--------|--------|
D|--------|--------|--------|--------|--------|--------|--------|--------|--------|
A|--------|--------|--------|--------|--------|--------|--------|--------|--------|
E|--------|--------|--------|--------|--------|--------|--------|--------|--------|


E|--------|--------|--------|--------|--------|--------|--------|--------|--------|
B|--------|--------|--------|--------|--------|--------|--------|--------|--------|
G|--------|--------|--------|--------|--------|--------|--------|--------|--------|
D|--------|--------|--------|--------|--------|--------|--------|--------|--------|
A|--------|--------|--------|--------|--------|--------|--------|--------|--------|
E|--------|--------|--------|--------|--------|--------|--------|--------|--------|


E|--------|--------|--------|--------|--------|--------|--------|--------|--------|
B|--------|--------|--------|--------|--------|--------|--------|--------|--------|
G|--------|--------|--------|--------|--------|--------|--------|--------|--------|
D|--------|--------|--------|--------|--------|--------|--------|--------|--------|
A|--------|--------|--------|--------|--------|--------|--------|--------|--------|
E|--------|--------|--------|--------|--------|--------|--------|--------|--------|


E|--------|--------|--------|--------|--------|--------|--------|--------|--------|
B|--------|--------|--------|--------|--------|--------|--------|--------|--------|
G|--------|--------|--------|--------|--------|--------|--------|--------|--------|
D|--------|--------|--------|--------|--------|--------|--------|--------|--------|
A|--------|--------|--------|--------|--------|--------|--------|--------|--------|
E|--------|--------|--------|--------|--------|--------|--------|--------|--------|


E|--------|--------|-15-----15-15-13-11-11-|-10--8----------|------------------------------------------|
B|--------|--------|-----------------------|----------------|------------------------------------------|
G|--------|--------|-----------------------|----------------|---------5--4--5---7--8-----7--7-8-7-8-7--|
D|--------|--------|-----------------------|----------------|------------------------------------------|
A|--------|--------|-----------------------|----------------|------------------------------------------|
E|--------|--------|-----------------------|----------------|------------------------------------------|


E|------------------------------------|---------------------------------|----------------------------------|
B|-----------------13-12-13-11-13--13-|-13---15---16---15-13-12-9--9----|-9--11------11-9--8----7--7----8--|
G|-5--4-------------------------------|---------------------------------|----------------------------------|
D|-------3----------------------------|---------------------------------|----------------------------------|
A|------------------------------------|---------------------------------|----------------------------------|
E|------------------------------------|---------------------------------|----------------------------------|


E|---------------------------------|----------------------------------------|------------------------------|
B|-7--7--8-------------------------|----------------------------------------|------------------------------|
G|------------8--7--5--5--------5--|-5--8--7--8--7--5---8----12---11-11-1211|-1211--------------7-8-7-8-7--|
D|---------------------------------|----------------------------------------|-----13-----------------------|
A|---------------------------------|----------------------------------------|------------------------------|
E|---------------------------------|----------------------------------------|------------------------------|


E|----------------------------------------|---------------------------------|--------------------------------------|
B|----------------------------------------|---------------------------------|--------------------------------------|
G|-7--5---7---8---11--12--15--14---14--12-|-12---------8---9-8-8----10-11---|-11-16-15--13--11--13-13---131313-----|
D|----------------------------------------|---------------------------------|--------------------------------------|
A|----------------------------------------|---------------------------------|--------------------------------------|
E|----------------------------------------|---------------------------------|--------------------------------------|


E|--------------------------|---------------------------|---------------------------------|
B|--------------------------|---------------------------|---------------------------------|
G|-------11-13-11---11---9--|-9--11--9----8---8---------|-----8---9--9--11--12--16---15---|
D|--------------------------|---------------------------|---------------------------------|
A|--------------------------|---------------------------|---------------------------------|
E|--------------------------|---------------------------|---------------------------------|


E|---------15-------15--20---|-20---20--20-19-17-16-20--2019201915-----|-------15-14-15--17---18--|
B|---------------------------|-----------------------------------------|--------------------------|
G|-16-16---------------------|-----------------------------------------|--------------------------|
D|---------------------------|-----------------------------------------|--------------------------|
A|---------------------------|-----------------------------------------|--------------------------|
E|---------------------------|-----------------------------------------|--------------------------|


E|-1718171815----------------17--15-13-11-10-11-13-|-15--13-11-10-8--10-11-13--11-10-8--8--10-11-10-8--7-----8-7-|
B|-------------------------17----------------------|------------------------------------------------------9------|
G|-----------------------17------------------------|-------------------------------------------------------------|
D|-------------------------------------------------|-------------------------------------------------------------|
A|-------------------------------------------------|-------------------------------------------------------------|
E|-------------------------------------------------|-------------------------------------------------------------|


E|------------------------------------------------10-|-13---13---13----13-13-13--|
B|-9--8-----8--9----------------------------12-15----|---------------------------|
G|-------10------------------------10-12-13----------|---------------------------|
D|------------------------10-12-13-------------------|---------------------------|
A|---------------------------------------------------|---------------------------|
E|---------------------------------------------------|---------------------------|


E|-10------8--7--8--10-13---12--13-11-13-10-|-10--10-11--10-11-10-11-8----0--8--0--8--0--8--0--|
B|------------------------------------------|--------------------------------------------------|
G|------------------------------------------|--------------------------------------------------|
D|------------------------------------------|--------------------------------------------------|
A|------------------------------------------|--------------------------------------------------|
E|------------------------------------------|--------------------------------------------------|


E|------8--9--8--10---0--10-0--10-0--10-0------|------10-8--7--7--10--11----1111|-15--15----15---20-19-|
B|---------------------------------------------|--------------------------------|----------------------|
G|---------------------------------------------|--------------------------------|----------------------|
D|---------------------------------------------|--------------------------------|----------------------|
A|---------------------------------------------|--------------------------------|----------------------|
E|---------------------------------------------|--------------------------------|----------------------|


E|-20------------------------------18-|-18----15-15--------|-----11-13-15-13-11-13----13-11-10-1--1--|
B|---------------------------16-18----|--------------------|-----------------------------------------|
G|---------------------15-17----------|--------------------|-----------------------------------------|
D|------------14-15-17----------------|--------------------|-----------------------------------------|
A|------------------------------------|--------------------|-----------------------------------------|
E|------------------------------------|--------------------|-----------------------------------------|


E|-1-----------------------------------|-----------------10-11-13-13---11---10---|
B|------5--6--8--6--5--7---8---8-------|-----------11-13-------------------------|
G|-------------------------------------|-----10-12-------------------------------|
D|-------------------------------------|-----------------------------------------|
A|-------------------------------------|-----------------------------------------|
E|-------------------------------------|-----------------------------------------|


E|-11---13---13--13--15--18--18-|-18---18-17-15-13-15-19--20--20---20-|-20-20--21---21-20-19-20----20-19-17-|
B|------------------------------|-------------------------------------|-------------------------------------|
G|------------------------------|-------------------------------------|-------------------------------------|
D|------------------------------|-------------------------------------|-------------------------------------|
A|------------------------------|-------------------------------------|-------------------------------------|
E|------------------------------|-------------------------------------|-------------------------------------|


E|-19-17-16-15------18-16-15-14151413141312--11--|-11-13-11-10--------------------------15---------|
B|-----------------------------------------------|-------------13-12------------------16--18-16-15-|
G|-----------------------------------------------|-------------------13-12----------17-------------|
D|-----------------------------------------------|-------------------------------------------------|
A|-----------------------------------------------|-------------------------------------------------|
E|-----------------------------------------------|-------------------------------------------------|


E|---------------------------15-171519--1615------------|-------8--10-11-13-11-10-8--10---8-7-|
B|------------------------16----------------18-16-15----|-------------------------------------|
G|-17-16---------------17-------------------------------|-------------------------------------|
D|-------18-17-15---------------------------------------|-------------------------------------|
A|------------------------------------------------------|-------------------------------------|
E|------------------------------------------------------|-------------------------------------|


E|----7--8--7---------------------------------------|-------------------------------------------|
B|-------------9--8---------------------------13-12-|-13------8---7--5--7--8--7--5--7--8--------|
G|-------------------10-8--7--8--7------------------|-------------------------------------------|
D|----------------------------------10-10-----------|-------------------------------------------|
A|--------------------------------------------------|-------------------------------------------|
E|--------------------------------------------------|-------------------------------------------|


E|----------------------------------|--------------------------------------------|
B|-----4---5--7--5--4--5--8-----8---|-8--9--8--8--8--8--8--8--8--9---4--------4--|
G|----------------------------------|--------------------------------------------|
D|----------------------------------|--------------------------------------------|
A|----------------------------------|--------------------------------------------|
E|----------------------------------|--------------------------------------------|


E|------------------------------7--8--10-|-8--7--------7--8--7-------------------------|
B|-5--4---2--1----------127--8-----------|-------8--7-----------9--8----8--9--8--6--4--|
G|---------------------------------------|---------------------------------------------|
D|---------------------------------------|---------------------------------------------|
A|---------------------------------------|---------------------------------------------|
E|---------------------------------------|---------------------------------------------|


E|---------------------4--7--8--7-----------------|-------------------------------------------4-----4--|
B|-6--4-------8--6--8--------------8--6--8--6--4--|-3--4--6--4--3--4--3--------4--3--4--6--8-----8-----|
G|------------------------------------------------|----------------------6--5--------------------------|
D|------------------------------------------------|----------------------------------------------------|
A|------------------------------------------------|----------------------------------------------------|
E|------------------------------------------------|----------------------------------------------------|


E|-7--8--7--4--7--8--7--8--10-8--7--------7--------|----------7-----------------7--8-----------------|
B|----------------------------------9--8-----9--8--|----9--8-----9--8-----8--9-----------------------|
G|-------------------------------------------------|-10----------------10----------------------------|
D|-------------------------------------------------|-------------------------------------24-15-8--2--|
A|-------------------------------------------------|-------------------------------------24-15-8--2--|
E|-------------------------------------------------|-------------------------------------24-15-8--2--|


E|-2224221311108-1011132224221311108-1011132224221311108-1011132224221311108-101113|
B|---------------------------------------------------------------------------------|
G|---------------------------------------------------------------------------------|
D|---------------------------------------------------------------------------------|
A|---------------------------------------------------------------------------------|
E|---------------------------------------------------------------------------------|


E|-2224221311108-1011132224221311108-1011132224221311108-1011132224221311108-101113|
B|---------------------------------------------------------------------------------|
G|---------------------------------------------------------------------------------|
D|---------------------------------------------------------------------------------|
A|---------------------------------------------------------------------------------|
E|---------------------------------------------------------------------------------|


E|-11-13-15-161916151311------------------------------------------------|-11-13-15-161916151311------------------------------------------------|
B|----------------------1513121315161816151312--------------------------|----------------------1513121315161816151312--------------------------|
G|--------------------------------------------1312131617161312----------|--------------------------------------------1312131617161312----------|
D|------------------------------------------------------------151312----|------------------------------------------------------------151312----|
A|------------------------------------------------------------------1514|------------------------------------------------------------------1514|
E|----------------------------------------------------------------------|----------------------------------------------------------------------|


E|--------|--------|--------|--------|--------|--------|--------|--------|--------|
B|--------|--------|--------|--------|--------|--------|--------|--------|--------|
G|--------|--------|--------|--------|--------|--------|--------|--------|--------|
D|--------|--------|--------|--------|--------|--------|--------|--------|--------|
A|--------|--------|--------|--------|--------|--------|--------|--------|--------|
E|--------|--------|--------|--------|--------|--------|--------|--------|--------|


E|--------|--------|--------|--------|--------|--------|--------|--------|--------|
B|--------|--------|--------|--------|--------|--------|--------|--------|--------|
G|--------|--------|--------|--------|--------|--------|--------|--------|--------|
D|--------|--------|--------|--------|--------|--------|--------|--------|--------|
A|--------|--------|--------|--------|--------|--------|--------|--------|--------|
E|--------|--------|--------|--------|--------|--------|--------|--------|--------|


E|--------|--------|--------|--------|--------|--------|--------|--------|--------|
B|--------|--------|--------|--------|--------|--------|--------|--------|--------|
G|--------|--------|--------|--------|--------|--------|--------|--------|--------|
D|--------|--------|--------|--------|--------|--------|--------|--------|--------|
A|--------|--------|--------|--------|--------|--------|--------|--------|--------|
E|--------|--------|--------|--------|--------|--------|--------|--------|--------|


E|--------|--------|--------|--------|--------|--------|--------|--------|--------|
B|--------|--------|--------|--------|--------|--------|--------|--------|--------|
G|--------|--------|--------|--------|--------|--------|--------|--------|--------|
D|--------|--------|--------|--------|--------|--------|--------|--------|--------|
A|--------|--------|--------|--------|--------|--------|--------|--------|--------|
E|--------|--------|--------|--------|--------|--------|--------|--------|--------|


E|--------|--------|--------|--------|--------|--------|--------|--------|--------|
B|--------|--------|--------|--------|--------|--------|--------|--------|--------|
G|--------|--------|--------|--------|--------|--------|--------|--------|--------|
D|--------|--------|--------|--------|--------|--------|--------|--------|--------|
A|--------|--------|--------|--------|--------|--------|--------|--------|--------|
E|--------|--------|--------|--------|--------|--------|--------|--------|--------|


E|--------|--------|--------|--------|--------|
B|--------|--------|--------|--------|--------|
G|--------|--------|--------|--------|--------|
D|--------|--------|--------|--------|--------|
A|--------|--------|--------|--------|--------|
E|--------|--------|--------|--------|--------|





Track 6: Guitar 1 ( Arpeggios )

E|--------|--------|--------|--------|--------|--------|--------|--------|--------|
B|--------|--------|--------|--------|--------|--------|--------|--------|--------|
G|--------|--------|--------|--------|--------|--------|--------|--------|--------|
D|--------|--------|--------|--------|--------|--------|--------|--------|--------|
A|--------|--------|--------|--------|--------|--------|--------|--------|--------|
E|--------|--------|--------|--------|--------|--------|--------|--------|--------|


E|--------|--------|--------|--------|--------|--------|--------|--------|--------|
B|--------|--------|--------|--------|--------|--------|--------|--------|--------|
G|--------|--------|--------|--------|--------|--------|--------|--------|--------|
D|--------|--------|--------|--------|--------|--------|--------|--------|--------|
A|--------|--------|--------|--------|--------|--------|--------|--------|--------|
E|--------|--------|--------|--------|--------|--------|--------|--------|--------|


E|--------|--------|--------|--------|--------|--------|--------|--------|--------|
B|--------|--------|--------|--------|--------|--------|--------|--------|--------|
G|--------|--------|--------|--------|--------|--------|--------|--------|--------|
D|--------|--------|--------|--------|--------|--------|--------|--------|--------|
A|--------|--------|--------|--------|--------|--------|--------|--------|--------|
E|--------|--------|--------|--------|--------|--------|--------|--------|--------|


E|--------|--------|--------|--------|--------|--------|--------|--------|--------|
B|--------|--------|--------|--------|--------|--------|--------|--------|--------|
G|--------|--------|--------|--------|--------|--------|--------|--------|--------|
D|--------|--------|--------|--------|--------|--------|--------|--------|--------|
A|--------|--------|--------|--------|--------|--------|--------|--------|--------|
E|--------|--------|--------|--------|--------|--------|--------|--------|--------|


E|--------|--------|--------|--------|--------|--------|--------|--------|--------|
B|--------|--------|--------|--------|--------|--------|--------|--------|--------|
G|--------|--------|--------|--------|--------|--------|--------|--------|--------|
D|--------|--------|--------|--------|--------|--------|--------|--------|--------|
A|--------|--------|--------|--------|--------|--------|--------|--------|--------|
E|--------|--------|--------|--------|--------|--------|--------|--------|--------|


E|--------|--------|--------|--------|--------|--------|--------|--------|--------|
B|--------|--------|--------|--------|--------|--------|--------|--------|--------|
G|--------|--------|--------|--------|--------|--------|--------|--------|--------|
D|--------|--------|--------|--------|--------|--------|--------|--------|--------|
A|--------|--------|--------|--------|--------|--------|--------|--------|--------|
E|--------|--------|--------|--------|--------|--------|--------|--------|--------|


E|--------|--------|--------|--------|--------|--------|--------|--------|--------|
B|--------|--------|--------|--------|--------|--------|--------|--------|--------|
G|--------|--------|--------|--------|--------|--------|--------|--------|--------|
D|--------|--------|--------|--------|--------|--------|--------|--------|--------|
A|--------|--------|--------|--------|--------|--------|--------|--------|--------|
E|--------|--------|--------|--------|--------|--------|--------|--------|--------|


E|--------|--------|--------|--------|--------|--------|--------|--------|--------|
B|--------|--------|--------|--------|--------|--------|--------|--------|--------|
G|--------|--------|--------|--------|--------|--------|--------|--------|--------|
D|--------|--------|--------|--------|--------|--------|--------|--------|--------|
A|--------|--------|--------|--------|--------|--------|--------|--------|--------|
E|--------|--------|--------|--------|--------|--------|--------|--------|--------|


E|--------|--------|--------|--------|--------|--------|--------|--------|--------|
B|--------|--------|--------|--------|--------|--------|--------|--------|--------|
G|--------|--------|--------|--------|--------|--------|--------|--------|--------|
D|--------|--------|--------|--------|--------|--------|--------|--------|--------|
A|--------|--------|--------|--------|--------|--------|--------|--------|--------|
E|--------|--------|--------|--------|--------|--------|--------|--------|--------|


E|--------|--------|--------|--------|--------|--------|--------|--------|--------|
B|--------|--------|--------|--------|--------|--------|--------|--------|--------|
G|--------|--------|--------|--------|--------|--------|--------|--------|--------|
D|--------|--------|--------|--------|--------|--------|--------|--------|--------|
A|--------|--------|--------|--------|--------|--------|--------|--------|--------|
E|--------|--------|--------|--------|--------|--------|--------|--------|--------|


E|--------|--------|--------|--------|--------|--------|--------|--------|--------|
B|--------|--------|--------|--------|--------|--------|--------|--------|--------|
G|--------|--------|--------|--------|--------|--------|--------|--------|--------|
D|--------|--------|--------|--------|--------|--------|--------|--------|--------|
A|--------|--------|--------|--------|--------|--------|--------|--------|--------|
E|--------|--------|--------|--------|--------|--------|--------|--------|--------|


E|--------|--------|--------|--------|--------|--------|--------|--------|--------|
B|--------|--------|--------|--------|--------|--------|--------|--------|--------|
G|--------|--------|--------|--------|--------|--------|--------|--------|--------|
D|--------|--------|--------|--------|--------|--------|--------|--------|--------|
A|--------|--------|--------|--------|--------|--------|--------|--------|--------|
E|--------|--------|--------|--------|--------|--------|--------|--------|--------|


E|--------|--------|--------|--------|--------|--------|--------|--------|--------|
B|--------|--------|--------|--------|--------|--------|--------|--------|--------|
G|--------|--------|--------|--------|--------|--------|--------|--------|--------|
D|--------|--------|--------|--------|--------|--------|--------|--------|--------|
A|--------|--------|--------|--------|--------|--------|--------|--------|--------|
E|--------|--------|--------|--------|--------|--------|--------|--------|--------|


E|--------|--------|--------|--------|--------|--------|--------|--------|--------|
B|--------|--------|--------|--------|--------|--------|--------|--------|--------|
G|--------|--------|--------|--------|--------|--------|--------|--------|--------|
D|--------|--------|--------|--------|--------|--------|--------|--------|--------|
A|--------|--------|--------|--------|--------|--------|--------|--------|--------|
E|--------|--------|--------|--------|--------|--------|--------|--------|--------|


E|--------|--------|--------|--------|--------|--------|--------|--------|--------|
B|--------|--------|--------|--------|--------|--------|--------|--------|--------|
G|--------|--------|--------|--------|--------|--------|--------|--------|--------|
D|--------|--------|--------|--------|--------|--------|--------|--------|--------|
A|--------|--------|--------|--------|--------|--------|--------|--------|--------|
E|--------|--------|--------|--------|--------|--------|--------|--------|--------|


E|--------|--------|--------|--------|--------|--------|
B|--------|--------|--------|--------|--------|--------|
G|--------|--------|--------|--------|--------|--------|
D|--------|--------|--------|--------|--------|--------|
A|--------|--------|--------|--------|--------|--------|
E|--------|--------|--------|--------|--------|--------|





Track 7: Guitar 1 ( Arpeggios )

E|--------|--------|--------|--------|--------|--------|--------|--------|--------|
B|--------|--------|--------|--------|--------|--------|--------|--------|--------|
G|--------|--------|--------|--------|--------|--------|--------|--------|--------|
D|--------|--------|--------|--------|--------|--------|--------|--------|--------|
A|--------|--------|--------|--------|--------|--------|--------|--------|--------|
E|--------|--------|--------|--------|--------|--------|--------|--------|--------|


E|--------|--------|--------|--------|--------|--------|--------|--------|--------|
B|--------|--------|--------|--------|--------|--------|--------|--------|--------|
G|--------|--------|--------|--------|--------|--------|--------|--------|--------|
D|--------|--------|--------|--------|--------|--------|--------|--------|--------|
A|--------|--------|--------|--------|--------|--------|--------|--------|--------|
E|--------|--------|--------|--------|--------|--------|--------|--------|--------|


E|--------|--------|--------|--------|--------|--------|--------|--------|--------|
B|--------|--------|--------|--------|--------|--------|--------|--------|--------|
G|--------|--------|--------|--------|--------|--------|--------|--------|--------|
D|--------|--------|--------|--------|--------|--------|--------|--------|--------|
A|--------|--------|--------|--------|--------|--------|--------|--------|--------|
E|--------|--------|--------|--------|--------|--------|--------|--------|--------|


E|--------|--------|--------|--------|--------|--------|--------|--------|--------|
B|--------|--------|--------|--------|--------|--------|--------|--------|--------|
G|--------|--------|--------|--------|--------|--------|--------|--------|--------|
D|--------|--------|--------|--------|--------|--------|--------|--------|--------|
A|--------|--------|--------|--------|--------|--------|--------|--------|--------|
E|--------|--------|--------|--------|--------|--------|--------|--------|--------|


E|--------|--------|--------|--------|--------|--------|--------|--------|--------|
B|--------|--------|--------|--------|--------|--------|--------|--------|--------|
G|--------|--------|--------|--------|--------|--------|--------|--------|--------|
D|--------|--------|--------|--------|--------|--------|--------|--------|--------|
A|--------|--------|--------|--------|--------|--------|--------|--------|--------|
E|--------|--------|--------|--------|--------|--------|--------|--------|--------|


E|--------|--------|--------|--------|--------|--------|--------|--------|--------|
B|--------|--------|--------|--------|--------|--------|--------|--------|--------|
G|--------|--------|--------|--------|--------|--------|--------|--------|--------|
D|--------|--------|--------|--------|--------|--------|--------|--------|--------|
A|--------|--------|--------|--------|--------|--------|--------|--------|--------|
E|--------|--------|--------|--------|--------|--------|--------|--------|--------|


E|--------|--------|--------|--------|--------|--------|--------|--------|--------|
B|--------|--------|--------|--------|--------|--------|--------|--------|--------|
G|--------|--------|--------|--------|--------|--------|--------|--------|--------|
D|--------|--------|--------|--------|--------|--------|--------|--------|--------|
A|--------|--------|--------|--------|--------|--------|--------|--------|--------|
E|--------|--------|--------|--------|--------|--------|--------|--------|--------|


E|--------|--------|--------|--------|--------|--------|--------|--------|--------|
B|--------|--------|--------|--------|--------|--------|--------|--------|--------|
G|--------|--------|--------|--------|--------|--------|--------|--------|--------|
D|--------|--------|--------|--------|--------|--------|--------|--------|--------|
A|--------|--------|--------|--------|--------|--------|--------|--------|--------|
E|--------|--------|--------|--------|--------|--------|--------|--------|--------|


E|--------|--------|--------|--------|--------|--------|--------|--------|--------|
B|--------|--------|--------|--------|--------|--------|--------|--------|--------|
G|--------|--------|--------|--------|--------|--------|--------|--------|--------|
D|--------|--------|--------|--------|--------|--------|--------|--------|--------|
A|--------|--------|--------|--------|--------|--------|--------|--------|--------|
E|--------|--------|--------|--------|--------|--------|--------|--------|--------|


E|--------|--------|--------|--------|--------|--------|--------|--------|--------|
B|--------|--------|--------|--------|--------|--------|--------|--------|--------|
G|--------|--------|--------|--------|--------|--------|--------|--------|--------|
D|--------|--------|--------|--------|--------|--------|--------|--------|--------|
A|--------|--------|--------|--------|--------|--------|--------|--------|--------|
E|--------|--------|--------|--------|--------|--------|--------|--------|--------|


E|--------|--------|--------|-----------------|--------|--------|--------|--------|
B|--------|--------|--------|-1---------------|--------|--------|--------|--------|
G|--------|--------|--------|-----------------|--------|--------|--------|--------|
D|--------|--------|--------|-----------------|--------|--------|--------|--------|
A|--------|--------|--------|-----------------|--------|--------|--------|--------|
E|--------|--------|--------|-----------------|--------|--------|--------|--------|


E|--------|--------|--------|--------|--------|--------|--------|--------|--------|
B|--------|--------|--------|--------|--------|--------|--------|--------|--------|
G|--------|--------|--------|--------|--------|--------|--------|--------|--------|
D|--------|--------|--------|--------|--------|--------|--------|--------|--------|
A|--------|--------|--------|--------|--------|--------|--------|--------|--------|
E|--------|--------|--------|--------|--------|--------|--------|--------|--------|


E|--------|--------|--------|--------|--------|--------|--------|--------|--------|
B|--------|--------|--------|--------|--------|--------|--------|--------|--------|
G|--------|--------|--------|--------|--------|--------|--------|--------|--------|
D|--------|--------|--------|--------|--------|--------|--------|--------|--------|
A|--------|--------|--------|--------|--------|--------|--------|--------|--------|
E|--------|--------|--------|--------|--------|--------|--------|--------|--------|


E|--------|--------|--------|--------|--------|--------|--------|--------|--------|
B|--------|--------|--------|--------|--------|--------|--------|--------|--------|
G|--------|--------|--------|--------|--------|--------|--------|--------|--------|
D|--------|--------|--------|--------|--------|--------|--------|--------|--------|
A|--------|--------|--------|--------|--------|--------|--------|--------|--------|
E|--------|--------|--------|--------|--------|--------|--------|--------|--------|


E|--------|--------|--------|--------|--------|--------|--------|--------|--------|
B|--------|--------|--------|--------|--------|--------|--------|--------|--------|
G|--------|--------|--------|--------|--------|--------|--------|--------|--------|
D|--------|--------|--------|--------|--------|--------|--------|--------|--------|
A|--------|--------|--------|--------|--------|--------|--------|--------|--------|
E|--------|--------|--------|--------|--------|--------|--------|--------|--------|


E|--------|--------|--------|--------|--------|--------|--------|
B|--------|--------|--------|--------|--------|--------|--------|
G|--------|--------|--------|--------|--------|--------|--------|
D|--------|--------|--------|--------|--------|--------|--------|
A|--------|--------|--------|--------|--------|--------|--------|
E|--------|--------|--------|--------|--------|--------|--------|





Track 8: Synth ( Arranged for guitar )

E|--------|--------|--------|--------|--------|--------|--------|--------|--------|
B|--------|--------|--------|--------|--------|--------|--------|--------|--------|
G|--------|--------|--------|--------|--------|--------|--------|--------|--------|
D|--------|--------|--------|--------|--------|--------|--------|--------|--------|
A|--------|--------|--------|--------|--------|--------|--------|--------|--------|
E|--------|--------|--------|--------|--------|--------|--------|--------|--------|


E|--------|--------|--------|--------|--------|--------|--------|--------|--------|
B|--------|--------|--------|--------|--------|--------|--------|--------|--------|
G|--------|--------|--------|--------|--------|--------|--------|--------|--------|
D|--------|--------|--------|--------|--------|--------|--------|--------|--------|
A|--------|--------|--------|--------|--------|--------|--------|--------|--------|
E|--------|--------|--------|--------|--------|--------|--------|--------|--------|


E|--------|--------|--------|--------|--------|--------|--------|--------|--------|
B|--------|--------|--------|--------|--------|--------|--------|--------|--------|
G|--------|--------|--------|--------|--------|--------|--------|--------|--------|
D|--------|--------|--------|--------|--------|--------|--------|--------|--------|
A|--------|--------|--------|--------|--------|--------|--------|--------|--------|
E|--------|--------|--------|--------|--------|--------|--------|--------|--------|


E|--------|--------|--------|--------|--------|--------|--------|--------|--------|
B|--------|--------|--------|--------|--------|--------|--------|--------|--------|
G|--------|--------|--------|--------|--------|--------|--------|--------|--------|
D|--------|--------|--------|--------|--------|--------|--------|--------|--------|
A|--------|--------|--------|--------|--------|--------|--------|--------|--------|
E|--------|--------|--------|--------|--------|--------|--------|--------|--------|


E|--------|--------|--------|--------|--------|--------|--------|--------|--------|
B|--------|--------|--------|--------|--------|--------|--------|--------|--------|
G|--------|--------|--------|--------|--------|--------|--------|--------|--------|
D|--------|--------|--------|--------|--------|--------|--------|--------|--------|
A|--------|--------|--------|--------|--------|--------|--------|--------|--------|
E|--------|--------|--------|--------|--------|--------|--------|--------|--------|


E|--------|--------|--------|--------|--------|--------|--------|--------|--------|
B|--------|--------|--------|--------|--------|--------|--------|--------|--------|
G|--------|--------|--------|--------|--------|--------|--------|--------|--------|
D|--------|--------|--------|--------|--------|--------|--------|--------|--------|
A|--------|--------|--------|--------|--------|--------|--------|--------|--------|
E|--------|--------|--------|--------|--------|--------|--------|--------|--------|


E|--------|--------|--------|--------|--------|--------|--------|--------|--------|
B|--------|--------|--------|--------|--------|--------|--------|--------|--------|
G|--------|--------|--------|--------|--------|--------|--------|--------|--------|
D|--------|--------|--------|--------|--------|--------|--------|--------|--------|
A|--------|--------|--------|--------|--------|--------|--------|--------|--------|
E|--------|--------|--------|--------|--------|--------|--------|--------|--------|


E|--------|--------|--------|--------|--------|--------|--------|--------|--------|
B|--------|--------|--------|--------|--------|--------|--------|--------|--------|
G|--------|--------|--------|--------|--------|--------|--------|--------|--------|
D|--------|--------|--------|--------|--------|--------|--------|--------|--------|
A|--------|--------|--------|--------|--------|--------|--------|--------|--------|
E|--------|--------|--------|--------|--------|--------|--------|--------|--------|


E|--------|--------|--------|--------|--------|--------|--------|--------|--------|
B|--------|--------|--------|--------|--------|--------|--------|--------|--------|
G|--------|--------|--------|--------|--------|--------|--------|--------|--------|
D|--------|--------|--------|--------|--------|--------|--------|--------|--------|
A|--------|--------|--------|--------|--------|--------|--------|--------|--------|
E|--------|--------|--------|--------|--------|--------|--------|--------|--------|


E|--------|--------|--------|--------|--------|--------|--------|--------|--------|
B|--------|--------|--------|--------|--------|--------|--------|--------|--------|
G|--------|--------|--------|--------|--------|--------|--------|--------|--------|
D|--------|--------|--------|--------|--------|--------|--------|--------|--------|
A|--------|--------|--------|--------|--------|--------|--------|--------|--------|
E|--------|--------|--------|--------|--------|--------|--------|--------|--------|


E|--------|--------|--------|--------|--------|--------|--------|--------|--------|
B|--------|--------|--------|--------|--------|--------|--------|--------|--------|
G|--------|--------|--------|--------|--------|--------|--------|--------|--------|
D|--------|--------|--------|--------|--------|--------|--------|--------|--------|
A|--------|--------|--------|--------|--------|--------|--------|--------|--------|
E|--------|--------|--------|--------|--------|--------|--------|--------|--------|


E|--------|--------|--------|--------|--------|--------|--------|--------|--------|
B|--------|--------|--------|--------|--------|--------|--------|--------|--------|
G|--------|--------|--------|--------|--------|--------|--------|--------|--------|
D|--------|--------|--------|--------|--------|--------|--------|--------|--------|
A|--------|--------|--------|--------|--------|--------|--------|--------|--------|
E|--------|--------|--------|--------|--------|--------|--------|--------|--------|


E|--------|--------|----------------17-------------------------------|--------|----------------16-------------------------------|
B|--------|--------|-------------15----15----------------------------|--------|-------------14----14----------------------------|
G|--------|--------|----------12----------12-------------12----------|--------|----------11----------11-------------11----------|
D|--------|--------|-------15----------------15-------------15-------|--------|-------14----------------14-------------14-------|
A|--------|--------|----13----------------------13----13-------13----|--------|----12----------------------12----12-------12----|
E|--------|--------|-11----------------------------11-------------11-|--------|-10----------------------------10-------------10-|


E|--------|----------------14-------------------------------|--------|----------------12-------------------------------|
B|--------|-------------12----12----------------------------|--------|-------------10----10----------------------------|
G|--------|----------9-----------9--------------9-----------|--------|----------7-----------7--------------7-----------|
D|--------|-------12----------------12-------------12-------|--------|-------10----------------10-------------10-------|
A|--------|----10----------------------10----10-------10----|--------|----8-----------------------8-----8--------8-----|
E|--------|-8-----------------------------8--------------8--|--------|-6-----------------------------6--------------6--|


E|--------|----------------11-------------------------------|--------|----------------9--------------------------------|
B|--------|-------------9-----9-----------------------------|--------|-------------7-----7-----------------------------|
G|--------|----------6-----------6--------------6-----------|--------|----------4-----------4--------------4-----------|
D|--------|-------9-----------------9--------------9--------|--------|-------7-----------------7--------------7--------|
A|--------|----7-----------------------7-----7--------7-----|--------|----5-----------------------5-----5--------5-----|
E|--------|-5-----------------------------5--------------5--|--------|-3-----------------------------3--------------3--|


E|--------|----------------7--------------------------------|--------|----------------6--------------------------------|
B|--------|-------------5-----5-----------------------------|--------|-------------4-----4-----------------------------|
G|--------|----------2-----------2--------------2-----------|--------|----------1-----------1--------------1-----------|
D|--------|-------5-----------------5--------------5--------|--------|-------4-----------------4--------------4--------|
A|--------|----3-----------------------3-----3--------3-----|--------|----2-----------------------2-----2--------2-----|
E|--------|-1-----------------------------1--------------1--|--------|-0-----------------------------0--------------0--|


E|--------|----------------17-------------------------------|--------|----------------16-------------------------------|
B|--------|-------------15----15----------------------------|--------|-------------14----14----------------------------|
G|--------|----------12----------12-------------12----------|--------|----------11----------11-------------11----------|
D|--------|-------15----------------15-------------15-------|--------|-------14----------------14-------------14-------|
A|--------|----13----------------------13----13-------13----|--------|----12----------------------12----12-------12----|
E|--------|-11----------------------------11-------------11-|--------|-10----------------------------10-------------10-|


E|--------|----------------14-------------------------------|--------|----------------12-------------------------------|
B|--------|-------------12----12----------------------------|--------|-------------10----10----------------------------|
G|--------|----------9-----------9--------------9-----------|--------|----------7-----------7--------------7-----------|
D|--------|-------12----------------12-------------12-------|--------|-------10----------------10-------------10-------|
A|--------|----10----------------------10----10-------10----|--------|----8-----------------------8-----8--------8-----|
E|--------|-8-----------------------------8--------------8--|--------|-6-----------------------------6--------------6--|


E|--------|----------------11-------------------------------|--------|----------------9--------------------------------|
B|--------|-------------9-----9-----------------------------|--------|-------------7-----7-----------------------------|
G|--------|----------6-----------6--------------6-----------|--------|----------4-----------4--------------4-----------|
D|--------|-------9-----------------9--------------9--------|--------|-------7-----------------7--------------7--------|
A|--------|----7-----------------------7-----7--------7-----|--------|----5-----------------------5-----5--------5-----|
E|--------|-5-----------------------------5--------------5--|--------|-3-----------------------------3--------------3--|


E|--------|----------------7--------------------------------|--------|----------------6--------------------------------|
B|--------|-------------5-----5-----------------------------|--------|-------------4-----4-----------------------------|
G|--------|----------2-----------2--------------2-----------|--------|----------1-----------1--------------1-----------|
D|--------|-------5-----------------5--------------5--------|--------|-------4-----------------4--------------4--------|
A|--------|----3-----------------------3-----3--------3-----|--------|----2-----------------------2-----2--------2-----|
E|--------|-1-----------------------------1--------------1--|--------|-0-----------------------------0--------------0--|





Track 9: Untitled

G|--------|--------|--------|--------|--------|--------|--------|--------|--------|
D|--------|--------|--------|--------|--------|--------|--------|--------|--------|
A|--------|--------|--------|--------|--------|--------|--------|--------|--------|
E|--------|--------|--------|--------|--------|--------|--------|--------|--------|


G|--------|--------|--------|--------|--------|--------|--------|--------|--------|
D|--------|--------|--------|--------|--------|--------|--------|--------|--------|
A|--------|--------|--------|--------|--------|--------|--------|--------|--------|
E|--------|--------|--------|--------|--------|--------|--------|--------|--------|


G|--------|--------|--------|--------|--------|--------|--------|--------|--------|
D|--------|--------|--------|--------|--------|--------|--------|--------|--------|
A|--------|--------|--------|--------|--------|--------|--------|--------|--------|
E|--------|--------|--------|--------|--------|--------|--------|--------|--------|


G|--------|--------|--------|--------|--------|--------|--------|--------|--------|
D|--------|--------|--------|--------|--------|--------|--------|--------|--------|
A|--------|--------|--------|--------|--------|--------|--------|--------|--------|
E|--------|--------|--------|--------|--------|--------|--------|--------|--------|


G|--------|--------|--------|--------|--------|--------|--------|--------|--------|
D|--------|--------|--------|--------|--------|--------|--------|--------|--------|
A|--------|--------|--------|--------|--------|--------|--------|--------|--------|
E|--------|--------|--------|--------|--------|--------|--------|--------|--------|


G|--------|--------|--------|--------|--------|--------|--------|--------|--------|
D|--------|--------|--------|--------|--------|--------|--------|--------|--------|
A|--------|--------|--------|--------|--------|--------|--------|--------|--------|
E|--------|--------|--------|--------|--------|--------|--------|--------|--------|


G|--------|--------|--------|--------|--------|--------|--------|--------|--------|
D|--------|--------|--------|--------|--------|--------|--------|--------|--------|
A|--------|--------|--------|--------|--------|--------|--------|--------|--------|
E|--------|--------|--------|--------|--------|--------|--------|--------|--------|


G|--------|--------|--------|--------|--------|--------|--------|--------|--------|
D|--------|--------|--------|--------|--------|--------|--------|--------|--------|
A|--------|--------|--------|--------|--------|--------|--------|--------|--------|
E|--------|--------|--------|--------|--------|--------|--------|--------|--------|


G|--------|--------|--------|--------|--------|--------|--------|--------|--------|
D|--------|--------|--------|--------|--------|--------|--------|--------|--------|
A|--------|--------|--------|--------|--------|--------|--------|--------|--------|
E|--------|--------|--------|--------|--------|--------|--------|--------|--------|


G|--------|--------|--------|--------|--------|--------|--------|--------|--------|
D|--------|--------|--------|--------|--------|--------|--------|--------|--------|
A|--------|--------|--------|--------|--------|--------|--------|--------|--------|
E|--------|--------|--------|--------|--------|--------|--------|--------|--------|


G|--------|--------|--------|--------|--------|--------|--------|--------|--------|
D|--------|--------|--------|--------|--------|--------|--------|--------|--------|
A|--------|--------|--------|--------|--------|--------|--------|--------|--------|
E|--------|--------|--------|--------|--------|--------|--------|--------|--------|


G|--------|--------|--------|--------|--------|--------|--------|--------|--------|
D|--------|--------|--------|--------|--------|--------|--------|--------|--------|
A|--------|--------|--------|--------|--------|--------|--------|--------|--------|
E|--------|--------|--------|--------|--------|--------|--------|--------|--------|


G|--------|--------|--------|--------|--------|--------|--------|--------|--------|
D|--------|--------|--------|--------|--------|--------|--------|--------|--------|
A|--------|--------|--------|--------|--------|--------|--------|--------|--------|
E|--------|--------|--------|--------|--------|--------|--------|--------|--------|


G|--------|--------|--------|--------|--------|--------|--------|--------|--------|
D|--------|--------|--------|--------|--------|--------|--------|--------|--------|
A|--------|--------|--------|--------|--------|--------|--------|--------|--------|
E|--------|--------|--------|--------|--------|--------|--------|--------|--------|


G|--------|--------|--------|--------|--------|--------|--------|--------|--------|
D|--------|--------|--------|--------|--------|--------|--------|--------|--------|
A|--------|--------|--------|--------|--------|--------|--------|--------|--------|
E|--------|--------|--------|--------|--------|--------|--------|--------|--------|


G|--------|--------|--------|--------|--------|--------|
D|--------|--------|--------|--------|--------|--------|
A|--------|--------|--------|--------|--------|--------|
E|--------|--------|--------|--------|--------|--------|