Menu:

 

Search:

 

joe satriani - strange:

 



Title: Strange
Artist: 
Album: Flying in a Blue Dream
Author: Joe Satriani


Track 1: Untitled

E|-------------------------------------------|-----------------------------------------|
B|-6--6--6--6--6--3--3---3---3--3-----3--3---|-----------------------------------------|
G|-4--4--4--4--4--4--4---5---4--4-----4--4---|------4--4---5--5------------------------|
D|-------------------------------------------|------3--3---5--5------------------------|
A|-------------------------------------------|----------------------0--3--4-----5------|
E|-------------------------------------------|-----------------------------------------|


E|-------------------------------------------|-------------------------|-------------------------------------------|
B|-6--6--6--6--6--3--3---3---3--3-----3--3---|-------------------------|-6--6--6--6--6--3--3---3---3--3-----3--3---|
G|-4--4--4--4--4--4--4---5---4--4-----4--4---|------4--4---5--5--------|-4--4--4--4--4--4--4---5---4--4-----4--4---|
D|-------------------------------------------|------3--3---5--5--------|-------------------------------------------|
A|-------------------------------------------|-------------------------|-------------------------------------------|
E|-------------------------------------------|-------------------------|-------------------------------------------|


E|-----------------------------------------|-------------------------------------------|
B|-----------------------------------------|-6--6--6--6--6--3--3---3---3--3-----3--3---|
G|------4--4---5--5------------------------|-4--4--4--4--4--4--4---5---4--4-----4--4---|
D|------3--3---5--5------------------------|-------------------------------------------|
A|----------------------0--3--4-----5------|-------------------------------------------|
E|-----------------------------------------|-------------------------------------------|


E|-------------------------|--------|--------|--------|--------|--------|--------|
B|-------------------------|--------|--------|--------|--------|--------|--------|
G|------4--4---5--5--------|--------|--------|--------|--------|--------|--------|
D|------3--3---5--5--------|--------|--------|--------|--------|--------|--------|
A|-------------------------|--------|--------|--------|--------|--------|--------|
E|-------------------------|--------|--------|--------|--------|--------|--------|


E|--------|--------|-------------------------------------------|-----------------------------------------|
B|--------|--------|-6--6--6--6--6--3--3---3---3--3-----3--3---|-----------------------------------------|
G|--------|--------|-4--4--4--4--4--4--4---5---4--4-----4--4---|------4--4---5--5------------------------|
D|--------|--------|-------------------------------------------|------3--3---5--5------------------------|
A|--------|--------|-------------------------------------------|----------------------0--3--4-----5------|
E|--------|--------|-------------------------------------------|-----------------------------------------|


E|-------------------------------------------|-------------------------|-------------------------------------------|
B|-6--6--6--6--6--3--3---3---3--3-----3--3---|-------------------------|-6--6--6--6--6--3--3---3---3--3-----3--3---|
G|-4--4--4--4--4--4--4---5---4--4-----4--4---|------4--4---5--5--------|-4--4--4--4--4--4--4---5---4--4-----4--4---|
D|-------------------------------------------|------3--3---5--5--------|-------------------------------------------|
A|-------------------------------------------|-------------------------|-------------------------------------------|
E|-------------------------------------------|-------------------------|-------------------------------------------|


E|-----------------------------------------|-------------------------------------------|
B|-----------------------------------------|-6--6--6--6--6--3--3---3---3--3-----3--3---|
G|------4--4---5--5------------------------|-4--4--4--4--4--4--4---5---4--4-----4--4---|
D|------3--3---5--5------------------------|-------------------------------------------|
A|----------------------0--3--4-----5------|-------------------------------------------|
E|-----------------------------------------|-------------------------------------------|


E|-------------------------|--------|--------|--------|--------|--------|--------|
B|-------------------------|--------|--------|--------|--------|--------|--------|
G|------4--4---5--5--------|--------|--------|--------|--------|--------|--------|
D|------3--3---5--5--------|--------|--------|--------|--------|--------|--------|
A|-------------------------|--------|--------|--------|--------|--------|--------|
E|-------------------------|--------|--------|--------|--------|--------|--------|


E|--------|--------|-------------------------------------------|-----------------------------------------|
B|--------|--------|-6--6--6--6--6--3--3---3---3--3-----3--3---|-----------------------------------------|
G|--------|--------|-4--4--4--4--4--4--4---5---4--4-----4--4---|------4--4---5--5------------------------|
D|--------|--------|-------------------------------------------|------3--3---5--5------------------------|
A|--------|--------|-------------------------------------------|----------------------0--3--4-----5------|
E|--------|--------|-------------------------------------------|-----------------------------------------|


E|-------------------------------------------|-------------------------|-------------------------------------------|
B|-6--6--6--6--6--3--3---3---3--3-----3--3---|-------------------------|-6--6--6--6--6--3--3---3---3--3-----3--3---|
G|-4--4--4--4--4--4--4---5---4--4-----4--4---|------4--4---5--5--------|-4--4--4--4--4--4--4---5---4--4-----4--4---|
D|-------------------------------------------|------3--3---5--5--------|-------------------------------------------|
A|-------------------------------------------|-------------------------|-------------------------------------------|
E|-------------------------------------------|-------------------------|-------------------------------------------|


E|-----------------------------------------|-------------------------------------------|
B|-----------------------------------------|-6--6--6--6--6--3--3---3---3--3-----3--3---|
G|------4--4---5--5------------------------|-4--4--4--4--4--4--4---5---4--4-----4--4---|
D|------3--3---5--5------------------------|-------------------------------------------|
A|----------------------0--3--4-----5------|-------------------------------------------|
E|-----------------------------------------|-------------------------------------------|


E|-------------------------|--------|--------|--------|--------|--------|--------|
B|-------------------------|--------|--------|--------|--------|--------|--------|
G|------4--4---5--5--------|--------|--------|--------|--------|--------|--------|
D|------3--3---5--5--------|--------|--------|--------|--------|--------|--------|
A|-------------------------|--------|--------|--------|--------|--------|--------|
E|-------------------------|--------|--------|--------|--------|--------|--------|


E|--------|--------|--------|--------|--------|--------|--------|--------|--------|
B|--------|--------|--------|--------|--------|--------|--------|--------|--------|
G|--------|--------|--------|--------|--------|--------|--------|--------|--------|
D|--------|--------|--------|--------|--------|--------|--------|--------|--------|
A|--------|--------|--------|--------|--------|--------|--------|--------|--------|
E|--------|--------|--------|--------|--------|--------|--------|--------|--------|


E|--------|--------|--------|--------|--------|--------|--------|--------|--------|
B|--------|--------|--------|--------|--------|--------|--------|--------|--------|
G|--------|--------|--------|--------|--------|--------|--------|--------|--------|
D|--------|--------|--------|--------|--------|--------|--------|--------|--------|
A|--------|--------|--------|--------|--------|--------|--------|--------|--------|
E|--------|--------|--------|--------|--------|--------|--------|--------|--------|


E|--------|--------|--------|--------|--------|--------|--------|--------|--------|
B|--------|--------|--------|--------|--------|--------|--------|--------|--------|
G|--------|--------|--------|--------|--------|--------|--------|--------|--------|
D|--------|--------|--------|--------|--------|--------|--------|--------|--------|
A|--------|--------|--------|--------|--------|--------|--------|--------|--------|
E|--------|--------|--------|--------|--------|--------|--------|--------|--------|


E|--------|--------|--------|--------|--------|--------|--------|--------|--------|
B|--------|--------|--------|--------|--------|--------|--------|--------|--------|
G|--------|--------|--------|--------|--------|--------|--------|--------|--------|
D|--------|--------|--------|--------|--------|--------|--------|--------|--------|
A|--------|--------|--------|--------|--------|--------|--------|--------|--------|
E|--------|--------|--------|--------|--------|--------|--------|--------|--------|


E|--------|--------|--------|--------|--------|--------|--------|--------|--------|
B|--------|--------|--------|--------|--------|--------|--------|--------|--------|
G|--------|--------|--------|--------|--------|--------|--------|--------|--------|
D|--------|--------|--------|--------|--------|--------|--------|--------|--------|
A|--------|--------|--------|--------|--------|--------|--------|--------|--------|
E|--------|--------|--------|--------|--------|--------|--------|--------|--------|


E|--------|-------------------------------------------|-----------------------------------------|
B|--------|-6--6--6--6--6--3--3---3---3--3-----3--3---|-----------------------------------------|
G|--------|-4--4--4--4--4--4--4---5---4--4-----4--4---|------4--4---5--5------------------------|
D|--------|-------------------------------------------|------3--3---5--5------------------------|
A|--------|-------------------------------------------|----------------------0--3--4-----5------|
E|--------|-------------------------------------------|-----------------------------------------|


E|-------------------------------------------|-------------------------|-------------------------------------------|
B|-6--6--6--6--6--3--3---3---3--3-----3--3---|-------------------------|-6--6--6--6--6--3--3---3---3--3-----3--3---|
G|-4--4--4--4--4--4--4---5---4--4-----4--4---|------4--4---5--5--------|-4--4--4--4--4--4--4---5---4--4-----4--4---|
D|-------------------------------------------|------3--3---5--5--------|-------------------------------------------|
A|-------------------------------------------|-------------------------|-------------------------------------------|
E|-------------------------------------------|-------------------------|-------------------------------------------|


E|-----------------------------------------|-------------------------------------------|
B|-----------------------------------------|-6--6--6--6--6--3--3---3---3--3-----3--3---|
G|------4--4---5--5------------------------|-4--4--4--4--4--4--4---5---4--4-----4--4---|
D|------3--3---5--5------------------------|-------------------------------------------|
A|----------------------0--3--4-----5------|-------------------------------------------|
E|-----------------------------------------|-------------------------------------------|


E|-------------------------|-------------------------------------------|-----------------------------------------|
B|-------------------------|-6--6--6--6--6--3--3---3---3--3-----3--3---|-----------------------------------------|
G|------4--4---5--5--------|-4--4--4--4--4--4--4---5---4--4-----4--4---|------4--4---5--5------------------------|
D|------3--3---5--5--------|-------------------------------------------|------3--3---5--5------------------------|
A|-------------------------|-------------------------------------------|----------------------0--3--4-----5------|
E|-------------------------|-------------------------------------------|-----------------------------------------|


E|-------------------------------------------|-------------------------|-------------------------------------------|
B|-6--6--6--6--6--3--3---3---3--3-----3--3---|-------------------------|-6--6--6--6--6--3--3---3---3--3-----3--3---|
G|-4--4--4--4--4--4--4---5---4--4-----4--4---|------4--4---5--5--------|-4--4--4--4--4--4--4---5---4--4-----4--4---|
D|-------------------------------------------|------3--3---5--5--------|-------------------------------------------|
A|-------------------------------------------|-------------------------|-------------------------------------------|
E|-------------------------------------------|-------------------------|-------------------------------------------|


E|-----------------------------------------|-------------------------------------------|
B|-----------------------------------------|-6--6--6--6--6--3--3---3---3--3-----3--3---|
G|------4--4---5--5------------------------|-4--4--4--4--4--4--4---5---4--4-----4--4---|
D|------3--3---5--5------------------------|-------------------------------------------|
A|----------------------0--3--4-----5------|-------------------------------------------|
E|-----------------------------------------|-------------------------------------------|


E|-------------------------|-------------------------------------------|-----------------------------------------|
B|-------------------------|-6--6--6--6--6--3--3---3---3--3-----3--3---|-----------------------------------------|
G|------4--4---5--5--------|-4--4--4--4--4--4--4---5---4--4-----4--4---|------4--4---5--5------------------------|
D|------3--3---5--5--------|-------------------------------------------|------3--3---5--5------------------------|
A|-------------------------|-------------------------------------------|----------------------0--3--4-----5------|
E|-------------------------|-------------------------------------------|-----------------------------------------|


E|-------------------------------------------|-------------------------|-------------------------------------------|
B|-6--6--6--6--6--3--3---3---3--3-----3--3---|-------------------------|-6--6--6--6--6--3--3---3---3--3-----3--3---|
G|-4--4--4--4--4--4--4---5---4--4-----4--4---|------4--4---5--5--------|-4--4--4--4--4--4--4---5---4--4-----4--4---|
D|-------------------------------------------|------3--3---5--5--------|-------------------------------------------|
A|-------------------------------------------|-------------------------|-------------------------------------------|
E|-------------------------------------------|-------------------------|-------------------------------------------|


E|-----------------------------------------|-------------------------------------------|
B|-----------------------------------------|-6--6--6--6--6--3--3---3---3--3-----3--3---|
G|------4--4---5--5------------------------|-4--4--4--4--4--4--4---5---4--4-----4--4---|
D|------3--3---5--5------------------------|-------------------------------------------|
A|----------------------0--3--4-----5------|-------------------------------------------|
E|-----------------------------------------|-------------------------------------------|


E|-------------------------|-------------------------------------------|-----------------------------------------|
B|-------------------------|-6--6--6--6--6--3--3---3---3--3-----3--3---|-----------------------------------------|
G|------4--4---5--5--------|-4--4--4--4--4--4--4---5---4--4-----4--4---|------4--4---5--5------------------------|
D|------3--3---5--5--------|-------------------------------------------|------3--3---5--5------------------------|
A|-------------------------|-------------------------------------------|----------------------0--3--4-----5------|
E|-------------------------|-------------------------------------------|-----------------------------------------|


E|-------------------------------------------|-----------------------------------------|
B|-6--6--6--6--6--3--3---3---3--3-----3--3---|-----------------------------------------|
G|-4--4--4--4--4--4--4---5---4--4-----4--4---|------4--4---5--5------------------------|
D|-------------------------------------------|------3--3---5--5------------------------|
A|-------------------------------------------|----------------------0--3--4-----5------|
E|-------------------------------------------|-----------------------------------------|


E|-------------------------------------------|-------------------------|-------------------------------------------|
B|-6--6--6--6--6--3--3---3---3--3-----3--3---|-------------------------|-6--6--6--6--6--3--3---3---3--3-----3--3---|
G|-4--4--4--4--4--4--4---5---4--4-----4--4---|------4--4---5--5--------|-4--4--4--4--4--4--4---5---4--4-----4--4---|
D|-------------------------------------------|------3--3---5--5--------|-------------------------------------------|
A|-------------------------------------------|-------------------------|-------------------------------------------|
E|-------------------------------------------|-------------------------|-------------------------------------------|


E|-----------------------------------------|-------------------------------------------|
B|-----------------------------------------|-6--6--6--6--6--3--3---3---3--3-----3--3---|
G|------4--4---5--5------------------------|-4--4--4--4--4--4--4---5---4--4-----4--4---|
D|------3--3---5--5------------------------|-------------------------------------------|
A|----------------------0--3--4-----5------|-------------------------------------------|
E|-----------------------------------------|-------------------------------------------|





Track 2: Untitled

E|---------------10-10-10-|-10-10-10-10------------|---------------10-10-10-|-10-10-10-10------------|
B|---------------10-12-10-|-10-12-10-12------------|---------------10-12-10-|-10-12-10-12------------|
G|---------------10-10-10-|-10-10-10-10------------|---------------10-10-10-|-10-10-10-10------------|
D|------------------------|------------------------|------------------------|------------------------|
A|------------------------|------------------------|------------------------|------------------------|
E|------------------------|------------------------|------------------------|------------------------|


E|---------------10-10-10-|-10-10-10-10------------|---------------10-10-10-|-10-10-10-10------------|
B|---------------10-12-10-|-10-12-10-12------------|---------------10-12-10-|-10-12-10-12------------|
G|---------------10-10-10-|-10-10-10-10------------|---------------10-10-10-|-10-10-10-10------------|
D|------------------------|------------------------|------------------------|------------------------|
A|------------------------|------------------------|------------------------|------------------------|
E|------------------------|------------------------|------------------------|------------------------|


E|--------|--------|--------|--------|--------|--------|--------|--------|---------------10-10-10-|
B|--------|--------|--------|--------|--------|--------|--------|--------|---------------10-12-10-|
G|--------|--------|--------|--------|--------|--------|--------|--------|---------------10-10-10-|
D|--------|--------|--------|--------|--------|--------|--------|--------|------------------------|
A|--------|--------|--------|--------|--------|--------|--------|--------|------------------------|
E|--------|--------|--------|--------|--------|--------|--------|--------|------------------------|


E|-10-10-10-10------------|---------------10-10-10-|-10-10-10-10------------|---------------10-10-10-|
B|-10-12-10-12------------|---------------10-12-10-|-10-12-10-12------------|---------------10-12-10-|
G|-10-10-10-10------------|---------------10-10-10-|-10-10-10-10------------|---------------10-10-10-|
D|------------------------|------------------------|------------------------|------------------------|
A|------------------------|------------------------|------------------------|------------------------|
E|------------------------|------------------------|------------------------|------------------------|


E|-10-10-10-10------------|---------------10-10-10-|-10-10-10-10------------|--------|
B|-10-12-10-12------------|---------------10-12-10-|-10-12-10-12------------|--------|
G|-10-10-10-10------------|---------------10-10-10-|-10-10-10-10------------|--------|
D|------------------------|------------------------|------------------------|--------|
A|------------------------|------------------------|------------------------|--------|
E|------------------------|------------------------|------------------------|--------|


E|--------|--------|--------|--------|--------|--------|--------|---------------10-10-10-|
B|--------|--------|--------|--------|--------|--------|--------|---------------10-12-10-|
G|--------|--------|--------|--------|--------|--------|--------|---------------10-10-10-|
D|--------|--------|--------|--------|--------|--------|--------|------------------------|
A|--------|--------|--------|--------|--------|--------|--------|------------------------|
E|--------|--------|--------|--------|--------|--------|--------|------------------------|


E|-10-10-10-10------------|---------------10-10-10-|-10-10-10-10------------|---------------10-10-10-|
B|-10-12-10-12------------|---------------10-12-10-|-10-12-10-12------------|---------------10-12-10-|
G|-10-10-10-10------------|---------------10-10-10-|-10-10-10-10------------|---------------10-10-10-|
D|------------------------|------------------------|------------------------|------------------------|
A|------------------------|------------------------|------------------------|------------------------|
E|------------------------|------------------------|------------------------|------------------------|


E|-10-10-10-10------------|---------------10-10-10-|-10-10-10-10------------|--------|
B|-10-12-10-12------------|---------------10-12-10-|-10-12-10-12------------|--------|
G|-10-10-10-10------------|---------------10-10-10-|-10-10-10-10------------|--------|
D|------------------------|------------------------|------------------------|--------|
A|------------------------|------------------------|------------------------|--------|
E|------------------------|------------------------|------------------------|--------|


E|--------|--------|--------|--------|--------|--------|--------|--------|--------|
B|--------|--------|--------|--------|--------|--------|--------|--------|--------|
G|--------|--------|--------|--------|--------|--------|--------|--------|--------|
D|--------|--------|--------|--------|--------|--------|--------|--------|--------|
A|--------|--------|--------|--------|--------|--------|--------|--------|--------|
E|--------|--------|--------|--------|--------|--------|--------|--------|--------|


E|--------|--------|--------|--------|--------|--------|--------|--------|--------|
B|--------|--------|--------|--------|--------|--------|--------|--------|--------|
G|--------|--------|--------|--------|--------|--------|--------|--------|--------|
D|--------|--------|--------|--------|--------|--------|--------|--------|--------|
A|--------|--------|--------|--------|--------|--------|--------|--------|--------|
E|--------|--------|--------|--------|--------|--------|--------|--------|--------|


E|--------|--------|--------|--------|--------|--------|--------|--------|--------|
B|--------|--------|--------|--------|--------|--------|--------|--------|--------|
G|--------|--------|--------|--------|--------|--------|--------|--------|--------|
D|--------|--------|--------|--------|--------|--------|--------|--------|--------|
A|--------|--------|--------|--------|--------|--------|--------|--------|--------|
E|--------|--------|--------|--------|--------|--------|--------|--------|--------|


E|--------|--------|--------|--------|--------|--------|--------|--------|--------|
B|--------|--------|--------|--------|--------|--------|--------|--------|--------|
G|--------|--------|--------|--------|--------|--------|--------|--------|--------|
D|--------|--------|--------|--------|--------|--------|--------|--------|--------|
A|--------|--------|--------|--------|--------|--------|--------|--------|--------|
E|--------|--------|--------|--------|--------|--------|--------|--------|--------|


E|--------|--------|--------|--------|--------|--------|--------|--------|--------|
B|--------|--------|--------|--------|--------|--------|--------|--------|--------|
G|--------|--------|--------|--------|--------|--------|--------|--------|--------|
D|--------|--------|--------|--------|--------|--------|--------|--------|--------|
A|--------|--------|--------|--------|--------|--------|--------|--------|--------|
E|--------|--------|--------|--------|--------|--------|--------|--------|--------|


E|--------|--------|--------|--------|--------|--------|---------------10-10-10-|-10-10-10-10------------|
B|--------|--------|--------|--------|--------|--------|---------------10-12-10-|-10-12-10-12------------|
G|--------|--------|--------|--------|--------|--------|---------------10-10-10-|-10-10-10-10------------|
D|--------|--------|--------|--------|--------|--------|------------------------|------------------------|
A|--------|--------|--------|--------|--------|--------|------------------------|------------------------|
E|--------|--------|--------|--------|--------|--------|------------------------|------------------------|


E|---------------10-10-10-|-10-10-10-10------------|---------------10-10-10-|-10-10-10-10------------|
B|---------------10-12-10-|-10-12-10-12------------|---------------10-12-10-|-10-12-10-12------------|
G|---------------10-10-10-|-10-10-10-10------------|---------------10-10-10-|-10-10-10-10------------|
D|------------------------|------------------------|------------------------|------------------------|
A|------------------------|------------------------|------------------------|------------------------|
E|------------------------|------------------------|------------------------|------------------------|


E|---------------10-10-10-|-10-10-10-10------------|---------------10-10-10-|-10-10-10-10------------|
B|---------------10-12-10-|-10-12-10-12------------|---------------10-12-10-|-10-12-10-12------------|
G|---------------10-10-10-|-10-10-10-10------------|---------------10-10-10-|-10-10-10-10------------|
D|------------------------|------------------------|------------------------|------------------------|
A|------------------------|------------------------|------------------------|------------------------|
E|------------------------|------------------------|------------------------|------------------------|


E|---------------10-10-10-|-10-10-10-10------------|---------------10-10-10-|-10-10-10-10------------|
B|---------------10-12-10-|-10-12-10-12------------|---------------10-12-10-|-10-12-10-12------------|
G|---------------10-10-10-|-10-10-10-10------------|---------------10-10-10-|-10-10-10-10------------|
D|------------------------|------------------------|------------------------|------------------------|
A|------------------------|------------------------|------------------------|------------------------|
E|------------------------|------------------------|------------------------|------------------------|


E|---------------10-10-10-|-10-10-10-10------------|---------------10-10-10-|-10-10-10-10------------|
B|---------------10-12-10-|-10-12-10-12------------|---------------10-12-10-|-10-12-10-12------------|
G|---------------10-10-10-|-10-10-10-10------------|---------------10-10-10-|-10-10-10-10------------|
D|------------------------|------------------------|------------------------|------------------------|
A|------------------------|------------------------|------------------------|------------------------|
E|------------------------|------------------------|------------------------|------------------------|


E|---------------10-10-10-|-10-10-10-10------------|---------------10-10-10-|-10-10-10-10------------|
B|---------------10-12-10-|-10-12-10-12------------|---------------10-12-10-|-10-12-10-12------------|
G|---------------10-10-10-|-10-10-10-10------------|---------------10-10-10-|-10-10-10-10------------|
D|------------------------|------------------------|------------------------|------------------------|
A|------------------------|------------------------|------------------------|------------------------|
E|------------------------|------------------------|------------------------|------------------------|


E|---------------10-10-10-|-10-10-10-10------------|---------------10-10-10-|-10-10-10-10------------|
B|---------------10-12-10-|-10-12-10-12------------|---------------10-12-10-|-10-12-10-12------------|
G|---------------10-10-10-|-10-10-10-10------------|---------------10-10-10-|-10-10-10-10------------|
D|------------------------|------------------------|------------------------|------------------------|
A|------------------------|------------------------|------------------------|------------------------|
E|------------------------|------------------------|------------------------|------------------------|


E|---------------10-10-10-|-10-10-10-10------------|---------------10-10-10-|-10-10-10-10------------|
B|---------------10-12-10-|-10-12-10-12------------|---------------10-12-10-|-10-12-10-12------------|
G|---------------10-10-10-|-10-10-10-10------------|---------------10-10-10-|-10-10-10-10------------|
D|------------------------|------------------------|------------------------|------------------------|
A|------------------------|------------------------|------------------------|------------------------|
E|------------------------|------------------------|------------------------|------------------------|


E|---------------10-10-10-|-10-10-10-10------------|---------------10-10-10-|
B|---------------10-12-10-|-10-12-10-12------------|---------------10-12-10-|
G|---------------10-10-10-|-10-10-10-10------------|---------------10-10-10-|
D|------------------------|------------------------|------------------------|
A|------------------------|------------------------|------------------------|
E|------------------------|------------------------|------------------------|





Track 3: Untitled

E|--------|--------|--------|------------------------|-------------------------------------------------|
B|--------|--------|--------|------------------------|-------------------------------------------------|
G|--------|--------|--------|------------------9--7--|-10----9-----------9--7--10----9-----------9--7--|
D|--------|--------|--------|---------------7--9--7--|-10-7--9--7--7--7--9--7--10-7--9--7--7--7--9--7--|
A|--------|--------|--------|---------------5--------|----5-----5--5--5-----------5-----5--5--5--------|
E|--------|--------|--------|------------------------|-------------------------------------------------|


E|-----------------------------|--------|--------|--------|--------|--------|--------|
B|-----------------------------|--------|--------|--------|--------|--------|--------|
G|-10----9--7------------------|--------|--------|--------|--------|--------|--------|
D|-10-7--9--7--7---7--7--------|--------|--------|--------|--------|--------|--------|
A|----5--------5---8--5--------|--------|--------|--------|--------|--------|--------|
E|-----------------------------|--------|--------|--------|--------|--------|--------|


E|--------|--------|--------|--------|--------|--------|--------|------------------------|
B|--------|--------|--------|--------|--------|--------|--------|------------------------|
G|--------|--------|--------|--------|--------|--------|--------|------------------9--7--|
D|--------|--------|--------|--------|--------|--------|--------|---------------7--9--7--|
A|--------|--------|--------|--------|--------|--------|--------|---------------5--------|
E|--------|--------|--------|--------|--------|--------|--------|------------------------|


E|-------------------------------------------------|-----------------------------|
B|-------------------------------------------------|-----------------------------|
G|-10----9-----------9--7--10----9-----------9--7--|-10----9--7------------------|
D|-10-7--9--7--7--7--9--7--10-7--9--7--7--7--9--7--|-10-7--9--7--7---7--7--------|
A|----5-----5--5--5-----------5-----5--5--5--------|----5--------5---8--5--------|
E|-------------------------------------------------|-----------------------------|


E|--------|--------|--------|--------|--------|--------|--------|--------|--------|
B|--------|--------|--------|--------|--------|--------|--------|--------|--------|
G|--------|--------|--------|--------|--------|--------|--------|--------|--------|
D|--------|--------|--------|--------|--------|--------|--------|--------|--------|
A|--------|--------|--------|--------|--------|--------|--------|--------|--------|
E|--------|--------|--------|--------|--------|--------|--------|--------|--------|


E|--------|--------|--------|--------|------------------------|-------------------------------------------------|
B|--------|--------|--------|--------|------------------------|-------------------------------------------------|
G|--------|--------|--------|--------|------------------9--7--|-10----9-----------9--7--10----9-----------9--7--|
D|--------|--------|--------|--------|---------------7--9--7--|-10-7--9--7--7--7--9--7--10-7--9--7--7--7--9--7--|
A|--------|--------|--------|--------|---------------5--------|----5-----5--5--5-----------5-----5--5--5--------|
E|--------|--------|--------|--------|------------------------|-------------------------------------------------|


E|-----------------------------|--------|--------|---------------------------|-------20----22--22-20-20------20--------|
B|-----------------------------|--------|--------|-22---20-20--16------------|----20----20----------------20----20-----|
G|-10----9--7------------------|--------|--------|-----------------17---17---|-----------------------------------------|
D|-10-7--9--7--7---7--7--------|--------|--------|---------------------------|-----------------------------------------|
A|----5--------5---8--5--------|--------|--------|---------------------------|-----------------------------------------|
E|-----------------------------|--------|--------|---------------------------|-----------------------------------------|


E|-----------------------------------------------------|------------------------------------------------------------|
B|-----------------------------------------------------|-------8--11-8-----8----------------------------------------|
G|-------8--10-10-8-----8--10-10--8---8-1010--8-----8--|-10-11----------11----11-10-8-------------------------------|
D|----10-------------10-------------10-----------10----|-------------------------------10-8-------------------------|
A|-----------------------------------------------------|-------------------------------------10-8--------8--8---17--|
E|-----------------------------------------------------|-------------------------------------------11-11------------|


E|-------------------------------------|-----------------------------|------------------------|
B|-------------------------------------|-----------------------------|------------------------|
G|-3---10--10-10-----------------------|-----------------------------|------------------------|
D|-5-------------10--10---10-8-----10--|-10---10-8-------------------|------------------------|
A|------------------------------10-----|---------8------8--8---------|-1----3----6----8---10--|
E|-------------------------------------|-------------11--------11----|------------------------|


E|------------------------|-----20-15----20-15----20-15----20-15----20-15----20-15----18-15----|
B|------------------------|-----------19-------19-------19-------19-------19-------18-------18-|
G|------------------------|--------------------------------------------------------------------|
D|-------------------8----|-8------------------------------------------------------------------|
A|-10----13--13--13--10---|-10-----------------------------------------------------------------|
E|------------------------|--------------------------------------------------------------------|


E|-20-15----18-15----20152015---181518-15----20152015--------|-----22----22--18--------18--|
B|-------18-------18---------18-----------18---------18--15--|------------------18-18------|
G|-------------------------------------------------------15--|-----------------------------|
D|-----------------------------------------------------------|-----------------------------|
A|-----------------------------------------------------------|-----------------------------|
E|-----------------------------------------------------------|-----------------------------|


E|-14--13--11---------------------------|-------------------------|-------------------------------|
B|-------------13--11------11---11------|-------------------------|-------------------------------|
G|---------------------12-----------0---|-0-----2--0----0--2--0---|-2-----2---5---5---5---5---5---|
D|--------------------------------------|-------------------------|-------------------------------|
A|--------------------------------------|-------------------------|-------------------------------|
E|--------------------------------------|-------------------------|-------------------------------|


E|------------------------------------------|-------------------------------------------------|
B|-----18----18--18-16----------------------|-------------------------------------------------|
G|---------------------17-15----------------|-------------------------------------------------|
D|---------------------------17-15----17-15-|------------------------------------0---0--0--0--|
A|---------------------------------18-------|-18-15-18-18-15-18-1815--------------------------|
E|------------------------------------------|-----------------------181518--18----------------|


E|------------------------|-----------------------------------|-----------------------------------------|
B|------------------------|-----------------------------------|-----------------------------------------|
G|-10-9----9----9---9-----|-9--7----5---7---9--10-9---5---7---|-9--10--10-10-12--12-12-14--14-14-16--16-|
D|------------------------|-----------------------------------|-----------------------------------------|
A|-8--7----7----7---7-----|-7--5----3---5---7--8--7---3---5---|-7--8---8--8--10--10-10-12--12-12-14--14-|
E|------------------------|-----------------------------------|-----------------------------------------|


E|----------------------------------------|--------------------------------------------------------|
B|----------------------------------------|-------------------------------------------18----18-----|
G|-16-16-16-16-16-18-16-10-10-------------|-10-12-12-12-12-12-14----14-------16--------------------|
D|----------------------------------------|----------------------------------------------15----15--|
A|-14-14-14-14-14-16-14-8--8----8--3--0---|-8--10----10----10-12-12----12-14----14-15--------------|
E|----------------------------------------|--------------------------------------------------------|


E|----------17----17-------19-------20-----15-------|-13-------15-------17----17----------17--------|
B|-15-----------------------------------------------|-------------------------------15-------15-----|
G|-------------14----14-16----16-17---1717----12-10-|----10-12----12-14----14----14----14--------14-|
D|----12-14-----------------------------------------|-----------------------------------------------|
A|--------------------------------------------------|-----------------------------------------------|
E|--------------------------------------------------|-----------------------------------------------|


E|-1--------------------------------------------------------|--------|--------|--------|
B|---------1------------------------------------------------|--------|--------|--------|
G|-----2-------7--7--7--7--7--7--7--7--7--7--7--7--7--7--7--|--------|--------|--------|
D|----------------------------------------------------------|--------|--------|--------|
A|----------------------------------------------------------|--------|--------|--------|
E|----------------------------------------------------------|--------|--------|--------|


E|--------|-12101210--101210--101210----1210----1210----1210----1210----1210----|------------1210-----12-10----------10----------10-------10-12-10----10-12-10----|
B|--------|---------12------12------1210----1210----1210----1210----1210----1210|-12-13-12-12----1210-------12-10-12----12-10-12----12-10----------12----------12-|
G|--------|---------------------------------------------------------------------|---------------------------------------------------------------------------------|
D|--------|---------------------------------------------------------------------|---------------------------------------------------------------------------------|
A|--------|---------------------------------------------------------------------|---------------------------------------------------------------------------------|
E|--------|---------------------------------------------------------------------|---------------------------------------------------------------------------------|


E|-1210----1210----1210----1210----7-----------------------------------|-------------------------------------------------------------------|
B|-----1210----1210----1210----1210---10-8-----8--10-8-----------------|-------------------------------8-108----------------------------8--|
G|------------------------------------------9-----------9--7-----7--9--|-7-----7--9--7--9--7-----7--9---------9--7--9--7-----7--9--7-------|
D|------------------------------------------------------------9--------|----9-----------------9---------------------------9----------------|
A|---------------------------------------------------------------------|-------------------------------------------------------------------|
E|---------------------------------------------------------------------|-------------------------------------------------------------------|


E|-----------------------------------------------------------------------|------------------------------------------------------------|
B|-10-8------------------------------------------------------------------|------------------------------------------------------------|
G|-------9--7--9--7--9-7-------------------------------------------------|------------------------------------------------------------|
D|------------------------9-7----9--7--7-5-7-5-7-7-9-7-9-7-5--5-7-5-5----|------------------------------------------------------------|
A|----------------------------10--------------------------------------7--|-1012107--7-107-5--5--7--5--3--5--5--7--5--3--5--3--5--3----|
E|-----------------------------------------------------------------------|------------------------------------------------------------|


E|-------------|-------------|--------|---------1512-------------------------------------|
B|------0------|-0------0----|--------|-------13----13--------12-8-----------------------|
G|------0------|-0------0----|-9------|-9---9-----------10-9--------10-9-----------------|
D|-3-----------|-------------|--------|-----------------------------------10-9--7-----7--|
A|-------------|-------------|--------|--------------------------------------------10----|
E|-------------|-------------|--------|--------------------------------------------------|


E|-----------------------------------------------|----------------------------|---------------------------------------------------------------------|
B|-----------------------------------------------|----------------------------|---------------------------------------------------------------------|
G|--------------5--4-----4-----------------------|----------------------------|---------------------------------------------------------------------|
D|-5---9--7--7--------7-----5--7--3--2--3--2--3--|----------------------------|----------2-3-5-3-2---2-3-5-3-2---2-3-5-3-2-3-5-7-5-3------------3-5-|
A|-----------------------------------------------|-2--3--2----2--2--2----2----|-2--3--5------------5-----------5---------------------7-5-3--5-7-----|
E|-----------------------------------------------|----------------------------|---------------------------------------------------------------------|


E|--------------------------------------------------------------------------|--------------------------------------------------------------------------|
B|--------------------------------------------------------------------------|--------------------------------------------------------------------------|
G|----------4-5-7-5-4-4-----------------------------4-5-7-5-4-5-7-9-7-5-----|-----------5-7-9-7-5----------9-1012109-------9-1012109-1012141210121414--|
D|-3--5--7---------------9--7--5--3--3-5-7-3-3-5-7----------------------9-7-|-5-7-9-7-5-----------9--10-12-----------129-9-----------------------------|
A|--------------------------------------------------------------------------|--------------------------------------------------------------------------|
E|--------------------------------------------------------------------------|--------------------------------------------------------------------------|


E|-------22----|--------|--------|--------|--------|--------|--------|--------|--------|
B|-15----------|--------|--------|--------|--------|--------|--------|--------|--------|
G|-------------|--------|--------|--------|--------|--------|--------|--------|--------|
D|-------------|--------|--------|--------|--------|--------|--------|--------|--------|
A|-------------|--------|--------|--------|--------|--------|--------|--------|--------|
E|-------------|--------|--------|--------|--------|--------|--------|--------|--------|


E|--------|--------|--------|--------|--------|--------|--------|------------------------|
B|--------|--------|--------|--------|--------|--------|--------|------------------------|
G|--------|--------|--------|--------|--------|--------|--------|------------------9--7--|
D|--------|--------|--------|--------|--------|--------|--------|---------------7--9--7--|
A|--------|--------|--------|--------|--------|--------|--------|---------------5--------|
E|--------|--------|--------|--------|--------|--------|--------|------------------------|


E|-------------------------------------------------|-----------------------------|
B|-------------------------------------------------|-----------------------------|
G|-10----9-----------9--7--10----9-----------9--7--|-10----9--7------------------|
D|-10-7--9--7--7--7--9--7--10-7--9--7--7--7--9--7--|-10-7--9--7--7---7--7--------|
A|----5-----5--5--5-----------5-----5--5--5--------|----5--------5---8--5--------|
E|-------------------------------------------------|-----------------------------|


E|--------|------------------------|-------------------------------------------------|
B|--------|------------------------|-------------------------------------------------|
G|--------|------------------9--7--|-10----9-----------9--7--10----9-----------9--7--|
D|--------|---------------7--9--7--|-10-7--9--7--7--7--9--7--10-7--9--7--7--7--9--7--|
A|--------|---------------5--------|----5-----5--5--5-----------5-----5--5--5--------|
E|--------|------------------------|-------------------------------------------------|


E|-----------------------------|--------|--------|-------------------------------------------------------------------------|
B|-----------------------------|--------|--------|-------------------------------------------------------------------------|
G|-10----9--7------------------|--------|--------|-------------------------------------------------------------------------|
D|-10-7--9--7--7---7--7--------|--------|--------|-3--3--3--3--3--3--3--3--3--3--3--3--3--3--3--3--3--3--3--3--3--3--3--3--|
A|----5--------5---8--5--------|--------|--------|-------------------------------------------------------------------------|
E|-----------------------------|--------|--------|-------------------------------------------------------------------------|


E|------------------------------------------------------------|--------|--------|-------------------------------------------------------------------------|
B|------------------------------------------------------------|--------|--------|-------------------------------------------------------------------------|
G|------------------------------------------------------------|--------|--------|-------------------------------------------------------------------------|
D|-2--2--3--3--3--3--2--2--3--3--3--3--2--2--3--3--3--3-------|--------|--------|-3--3--3--3--3--3--3--3--3--3--3--3--3--3--3--3--3--3--3--3--3--3--3--3--|
A|------------------------------------------------------------|--------|--------|-------------------------------------------------------------------------|
E|------------------------------------------------------------|--------|--------|-------------------------------------------------------------------------|


E|--------------------------------------------------|--------|------------------------|
B|--------------------------------------------------|--------|------------------------|
G|--------------------------------------------------|--------|------------------9--7--|
D|-2--2--3--3--3--3--2--2--3--3--3--3--2------------|--------|---------------7--9--7--|
A|--------------------------------------------------|--------|---------------5--------|
E|--------------------------------------------------|--------|------------------------|


E|-------------------------------------------------|--------------------------------------|
B|-------------------------------------------------|--------------------------------------|
G|-10-7--9-----------9--7--10-7--9-----------------|--------------------------------------|
D|-10-7--9--7--7--7--9--7--10-7--9--7--7--7--9--7--|-7-----7--7-----7--7-----7------------|
A|----------5--5--5-----------------5--5--5--5-----|-8--5--5--8--5--5--8--5--5------------|
E|-------------------------------------------------|--------------------------------------|


E|--------|--------|----------------|---------------------------------------|-----------------------------------|
B|--------|--------|----------------|---------------------------------------|-----------------------------------|
G|--------|--------|----------------|---------------------------------------|------------------------7--7---10--|
D|-12-----|-12-----|-12----12-------|-10-12--12-12-10-7---------------------|------------7----7--10-------------|
A|--------|--------|-------------12-|---------------------10--10--10-8------|-8---10----------------------------|
E|--------|--------|----------------|-----------------------------------10--|-----------------------------------|


E|-10-8--7-----------------------|--------|
B|----------10-------------------|--------|
G|-----------------10--10--------|--------|
D|-------------------------------|--------|
A|-------------------------------|--------|
E|-------------------------------|--------|





Track 4: Untitled

E|--------|--------|--------|--------|--------|--------|--------|--------|--------|
B|--------|--------|--------|--------|--------|--------|--------|--------|--------|
G|--------|--------|--------|--------|--------|--------|--------|--------|--------|
D|--------|--------|--------|--------|--------|--------|--------|--------|--------|
A|--------|--------|--------|--------|--------|--------|--------|--------|--------|
E|--------|--------|--------|--------|--------|--------|--------|--------|--------|


E|--------|--------|--------|--------|--------|--------|--------|--------|--------|
B|--------|--------|--------|--------|--------|--------|--------|--------|--------|
G|--------|--------|--------|--------|--------|--------|--------|--------|--------|
D|--------|--------|--------|--------|--------|--------|--------|--------|--------|
A|--------|--------|--------|--------|--------|--------|--------|--------|--------|
E|--------|--------|--------|--------|--------|--------|--------|--------|--------|


E|--------|--------|--------|--------|--------|--------|--------|--------|--------|
B|--------|--------|--------|--------|--------|--------|--------|--------|--------|
G|--------|--------|--------|--------|--------|--------|--------|--------|--------|
D|--------|--------|--------|--------|--------|--------|--------|--------|--------|
A|--------|--------|--------|--------|--------|--------|--------|--------|--------|
E|--------|--------|--------|--------|--------|--------|--------|--------|--------|


E|--------|--------|--------|--------|--------|--------|--------|--------|--------|
B|--------|--------|--------|--------|--------|--------|--------|--------|--------|
G|--------|--------|--------|--------|--------|--------|--------|--------|--------|
D|--------|--------|--------|--------|--------|--------|--------|--------|--------|
A|--------|--------|--------|--------|--------|--------|--------|--------|--------|
E|--------|--------|--------|--------|--------|--------|--------|--------|--------|


E|--------|--------|--------|--------|--------|--------|--------|--------|--------|
B|--------|--------|--------|--------|--------|--------|--------|--------|--------|
G|--------|--------|--------|--------|--------|--------|--------|--------|--------|
D|--------|--------|--------|--------|--------|--------|--------|--------|--------|
A|--------|--------|--------|--------|--------|--------|--------|--------|--------|
E|--------|--------|--------|--------|--------|--------|--------|--------|--------|


E|--------|--------|--------|--------|--------|--------|--------|--------|--------|
B|--------|--------|--------|--------|--------|--------|--------|--------|--------|
G|--------|--------|--------|--------|--------|--------|--------|--------|--------|
D|--------|--------|--------|--------|--------|--------|--------|--------|--------|
A|--------|--------|--------|--------|--------|--------|--------|--------|--------|
E|--------|--------|--------|--------|--------|--------|--------|--------|--------|


E|--------|--------|--------|--------|--------|--------|--------|--------|--------|
B|--------|--------|--------|--------|--------|--------|--------|--------|--------|
G|--------|--------|--------|--------|--------|--------|--------|--------|--------|
D|--------|--------|--------|--------|--------|--------|--------|--------|--------|
A|--------|--------|--------|--------|--------|--------|--------|--------|--------|
E|--------|--------|--------|--------|--------|--------|--------|--------|--------|


E|--------|--------|--------|--------|--------|--------|--------|--------|--------|
B|--------|--------|--------|--------|--------|--------|--------|--------|--------|
G|--------|--------|--------|--------|--------|--------|--------|--------|--------|
D|--------|--------|--------|--------|--------|--------|--------|--------|--------|
A|--------|--------|--------|--------|--------|--------|--------|--------|--------|
E|--------|--------|--------|--------|--------|--------|--------|--------|--------|


E|--------|--------|--------|--------|--------|--------|--------|--------|--------|
B|--------|--------|--------|--------|--------|--------|--------|--------|--------|
G|--------|--------|--------|--------|--------|--------|--------|--------|--------|
D|--------|--------|--------|--------|--------|--------|--------|--------|--------|
A|--------|--------|--------|--------|--------|--------|--------|--------|--------|
E|--------|--------|--------|--------|--------|--------|--------|--------|--------|


E|--------|--------|--------|--------|--------|--------|--------|-5------|-6------|
B|--------|--------|--------|--------|--------|--------|--------|-6------|-6------|
G|--------|--------|--------|--------|--------|--------|--------|-7------|-7------|
D|--------|--------|--------|--------|--------|--------|--------|--------|--------|
A|--------|--------|--------|-5------|-1------|--------|-5------|--------|--------|
E|--------|--------|--------|--------|--------|-3------|--------|--------|--------|


E|-7------|-7-----------|--------|--------|--------|--------|--------|--------|--------|
B|-8------|-8-----------|--------|--------|--------|--------|--------|--------|--------|
G|-7------|-7-----------|--------|--------|--------|--------|--------|--------|--------|
D|--------|-------------|--------|--------|--------|--------|--------|--------|--------|
A|--------|-------------|--------|--------|--------|--------|--------|--------|--------|
E|--------|-------------|--------|--------|--------|--------|--------|--------|--------|


E|--------|--------|--------|--------|--------|--------|--------|--------|--------|
B|--------|--------|--------|--------|--------|--------|--------|--------|--------|
G|--------|--------|--------|--------|--------|--------|--------|--------|--------|
D|--------|--------|--------|--------|--------|--------|--------|--------|--------|
A|--------|--------|--------|--------|--------|--------|--------|--------|--------|
E|--------|--------|--------|--------|--------|--------|--------|--------|--------|


E|--------|--------|--------|--------|--------|--------|--------|--------|--------|
B|--------|--------|--------|--------|--------|--------|--------|--------|--------|
G|--------|--------|--------|--------|--------|--------|--------|--------|--------|
D|--------|--------|--------|--------|--------|--------|--------|--------|--------|
A|--------|--------|--------|--------|--------|--------|--------|--------|--------|
E|--------|--------|--------|--------|--------|--------|--------|--------|--------|


E|--------|--------|--------|--------|--------|--------|--------|--------|
B|--------|--------|--------|--------|--------|--------|--------|--------|
G|--------|--------|--------|--------|--------|--------|--------|--------|
D|--------|--------|--------|--------|--------|--------|--------|--------|
A|--------|--------|--------|--------|--------|--------|--------|--------|
E|--------|--------|--------|--------|--------|--------|--------|--------|





Track 5: Bass

G|--------------------|--------------------|--------------------|--------------------|
D|--------------------|--------------------|--------------------|--------------------|
A|--------------------|--------------------|--------------------|--------------------|
E|--------------------|--------------------|--------------------|--------------------|
B|-3----3---------3---|-3------------------|-3----3---------3---|-3------------------|


G|--------------------|--------------------|--------------------|--------------------|
D|--------------------|--------------------|--------------------|--------------------|
A|--------------------|--------------------|--------------------|--------------------|
E|--------------------|--------------------|--------------------|--------------------|
B|-3----3---------3---|-3------------------|-3----3---------3---|-3------------------|


G|--------------------|--------------------|--------------------|--------------------|
D|--------------------|--------------------|--------------------|--------------------|
A|--------------------|--------------------|--------------------|--------------------|
E|--------------------|--------------------|--------------------|--------------------|
B|-3----3---------3---|-3------------------|-3----3---------3---|-3------------------|


G|--------------------|--------------------|--------------------|-----------------------------------|
D|--------------------|--------------------|--------------------|---------------------0-3---0-------|
A|--------------------|--------------------|--------------------|---------------0-3-----------3---0-|
E|--------------------|--------------------|--------------------|-----------------------------------|
B|-3----3---------3---|-3------------------|-3----3---------3---|-3---------------------------------|


G|--------------------|--------------------|--------------------|-----------------------------------|
D|--------------------|--------------------|--------------------|---------------------0-3---0-------|
A|--------------------|--------------------|--------------------|---------------0-3-----------3---0-|
E|--------------------|--------------------|--------------------|-----------------------------------|
B|-3----3---------3---|-3------------------|-3----3---------3---|-3---------------------------------|


G|--------------------|--------------------|--------------------|----------------------------|
D|--------------------|--------------------|--------------------|---------------------0-3----|
A|--------------------|--------------------|--------------------|---------------0-3----------|
E|--------------------|--------------------|--------------------|----------------------------|
B|-3----3---------3---|-3------------------|-3----3---------3---|-3--------------------------|


G|--------------------|--------------------|--------------------|--------------------|
D|--------------------|--------------------|--------------------|--------------------|
A|--------------------|--------------------|--------------------|--------------------|
E|--------------------|--------------------|--------------------|--------------------|
B|-3----3---------3---|-3------------------|-3----3---------3---|-3------------------|


G|--------------------|--------------------|--------------------|-----------------------------------|
D|--------------------|--------------------|--------------------|---------------------0-3---0-------|
A|--------------------|--------------------|--------------------|---------------0-3-----------3---0-|
E|--------------------|--------------------|--------------------|-----------------------------------|
B|-3----3---------3---|-3------------------|-3----3---------3---|-3---------------------------------|


G|--------------------|--------------------|--------------------|-----------------------------------|
D|--------------------|--------------------|--------------------|---------------------0-3---0-------|
A|--------------------|--------------------|--------------------|---------------0-3-----------3---0-|
E|--------------------|--------------------|--------------------|-----------------------------------|
B|-3----3---------3---|-3------------------|-3----3---------3---|-3---------------------------------|


G|--------------------|--------------------|--------------------|--------------------|
D|--------------------|--------------------|--------------------|--------------------|
A|--------------------|--------------------|--------------------|--------------------|
E|--------------------|--------------------|--------------------|--------------------|
B|-3----3---------3---|-3------------------|-3----3---------3---|-3------------------|


G|--------|--------|--------|--------|--------|--------|--------|--------|--------|
D|--------|--------|--------|--------|--------|--------|--------|--------|--------|
A|--------|--------|--------|--------|--------|--------|--------|--------|--------|
E|--------|--------|--------|--------|--------|--------|--------|--------|--------|
B|--------|--------|--------|--------|--------|--------|--------|--------|--------|


G|--------|--------|--------|--------|--------|--------|--------|--------|--------|
D|--------|--------|--------|--------|--------|--------|--------|--------|--------|
A|--------|--------|--------|--------|--------|--------|--------|--------|--------|
E|--------|--------|--------|--------|--------|--------|--------|--------|--------|
B|--------|--------|--------|--------|--------|--------|--------|--------|--------|


G|--------|--------|--------|--------|--------|--------|-------7---5----------5---4----------|
D|--------|--------|--------|--------|--------|--------|-------------------------------------|
A|--------|--------|--------|--------|--------|--------|-3--5----------3--5-----------3--3---|
E|--------|--------|--------|--------|--------|--------|-------------------------------------|
B|--------|--------|--------|--------|--------|--------|-------------------------------------|


G|-------7---5---------5--------------|-------7---5----------5---4----------|--------------------------------------------|
D|------------------------7-----------|-------------------------------------|-------3---------3--------------------------|
A|-3--5---------3--5------------------|-3--5----------3--5-----------3--3---|-3--5------3--5------5--3---------3---------|
E|------------------------------------|-------------------------------------|---------------------------5--3------5------|
B|------------------------------------|-------------------------------------|--------------------------------------------|


G|--------------------|--------------------|--------------------|--------------------|
D|--------------------|--------------------|--------------------|--------------------|
A|--------------------|--------------------|--------------------|--------------------|
E|--------------------|--------------------|--------------------|--------------------|
B|-5----5---------5---|-5-------------8----|-5----5---------5---|-5-------------10---|


G|--------------------|--------------------|--------------------|--------------------|
D|--------------------|--------------------|--------------------|--------------------|
A|--------------------|--------------------|--------------------|--------------------|
E|--------------------|--------------------|--------------------|--------------------|
B|-5----5---------5---|-5-------------8----|-5----5---------5---|-5-------------10---|


G|--------------------|--------------------|--------------------|----------------------------|
D|--------------------|--------------------|--------------------|---------------------0-3----|
A|--------------------|--------------------|--------------------|---------------0-3----------|
E|--------------------|--------------------|--------------------|----------------------------|
B|-3----3---------3---|-3------------------|-3----3---------3---|-3--------------------------|


G|--------------------|--------------------|--------------------|--------------------|
D|--------------------|--------------------|--------------------|--------------------|
A|--------------------|--------------------|--------------------|--------------------|
E|--------------------|--------------------|--------------------|--------------------|
B|-3----3---------3---|-3------------------|-3----3---------3---|-3------------------|


G|--------|--------|--------|--------|--------|--------|--------|--------------------------------|
D|--------|--------|--------|--------|--------|--------|--------|------------------0-3---0-------|
A|--------|--------|--------|--------|--------|--------|--------|------------0-3-----------3---0-|
E|--------|--------|--------|--------|--------|--------|--------|--------------------------------|
B|--------|--------|--------|--------|--------|--------|--------|--------------------------------|


G|--------------------|--------------------|--------------------|-----------------------------------|
D|--------------------|--------------------|--------------------|---------------------0-3---0-------|
A|--------------------|--------------------|--------------------|---------------0-3-----------3---0-|
E|--------------------|--------------------|--------------------|-----------------------------------|
B|-3----3---------3---|-3------------------|-3----3---------3---|-3---------------------------------|


G|--------------------|--------------------|--------------------|----------------------------|
D|--------------------|--------------------|--------------------|---------------------0-3----|
A|--------------------|--------------------|--------------------|---------------0-3----------|
E|--------------------|--------------------|--------------------|----------------------------|
B|-3----3---------3---|-3------------------|-3----3---------3---|-3--------------------------|


G|--------------------|--------------------|--------------------|-----------------------------------|
D|--------------------|--------------------|--------------------|---------------------0-3---0-------|
A|--------------------|--------------------|--------------------|---------------0-3-----------3---0-|
E|--------------------|--------------------|--------------------|-----------------------------------|
B|-3----3---------3---|-3------------------|-3----3---------3---|-3---------------------------------|


G|--------------------|--------------------|--------------------|----------------------------|
D|--------------------|--------------------|--------------------|---------------------0-3----|
A|--------------------|--------------------|--------------------|---------------0-3----------|
E|--------------------|--------------------|--------------------|----------------------------|
B|-3----3---------3---|-3------------------|-3----3---------3---|-3--------------------------|


G|--------------------|--------------------|--------------------|----------------------------|
D|--------------------|--------------------|--------------------|---------------------0-3----|
A|--------------------|--------------------|--------------------|---------------0-3----------|
E|--------------------|--------------------|--------------------|----------------------------|
B|-3----3---------3---|-3------------------|-3----3---------3---|-3--------------------------|


G|--------------------|--------------------|--------------------|---------------5----|
D|--------------------|--------------------|--------------------|--------------------|
A|--------------------|--------------------|--------------------|--------------------|
E|--------------------|--------------------|--------------------|--------------------|
B|-3----3---------3---|-3------------------|-3----3---------3---|-3------------------|


G|--------------------|--------------------|--------------------|-------------------------|
D|--------------------|--------------------|--------------------|-----------------0-------|
A|--------------------|--------------------|--------------------|-----------3--5-----8----|
E|--------------------|--------------------|--------------------|-------------------------|
B|-3----3---------3---|-3------------------|-3----3---------3---|-3-----------------------|


G|--------------------|--------------------|--------------------|-----------------------------------|
D|--------------------|--------------------|--------------------|---------------------0-3---0-------|
A|--------------------|--------------------|--------------------|---------------0-3-----------3---0-|
E|--------------------|--------------------|--------------------|-----------------------------------|
B|-3----3---------3---|-3------------------|-3----3---------3---|-3---------------------------------|


G|--------------------|
D|--------------------|
A|--------------------|
E|--------------------|
B|-3----3---------3---|





Track 6: Finger

G|--------|--------|--------|--------|--------|--------|--------|--------|--------|
D|--------|--------|--------|--------|--------|--------|--------|--------|--------|
A|--------|--------|--------|--------|--------|--------|--------|--------|--------|
E|--------|--------|--------|--------|--------|--------|--------|--------|--------|
B|--------|--------|--------|--------|--------|--------|--------|--------|--------|


G|--------|--------|--------|--------|--------|--------|--------|--------|--------|
D|--------|--------|--------|--------|--------|--------|--------|--------|--------|
A|--------|--------|--------|--------|--------|--------|--------|--------|--------|
E|--------|--------|--------|--------|--------|--------|--------|--------|--------|
B|--------|--------|--------|--------|--------|--------|--------|--------|--------|


G|--------|--------|--------|--------|--------|--------|--------|--------|--------|
D|--------|--------|--------|--------|--------|--------|--------|--------|--------|
A|--------|--------|--------|--------|--------|--------|--------|--------|--------|
E|--------|--------|--------|--------|--------|--------|--------|--------|--------|
B|--------|--------|--------|--------|--------|--------|--------|--------|--------|


G|--------|--------|--------|--------|--------|--------|--------|--------|--------|
D|--------|--------|--------|--------|--------|--------|--------|--------|--------|
A|--------|--------|--------|--------|--------|--------|--------|--------|--------|
E|--------|--------|--------|--------|--------|--------|--------|--------|--------|
B|--------|--------|--------|--------|--------|--------|--------|--------|--------|


G|--------|--------|--------|--------|-------------------------------|--------------------|
D|--------|--------|--------|--------|-------------------------------|--------------------|
A|--------|--------|--------|--------|-----------3-6---3--5---3--3---|--------------------|
E|--------|--------|--------|--------|-------------------------------|-4--------------4---|
B|--------|--------|--------|--------|-1-----------------------------|--------------------|


G|-------------------------------|-----------------|-------------------------------|
D|-------------------------------|-----------------|-------------------------------|
A|-----------3-6---3--5---3--3---|-1----------2----|-----------3-6---3--5---3--3---|
E|-5-----------------------------|-----------------|-------------------------------|
B|-------------------------------|-----------------|-1-----------------------------|


G|--------------------|-------------------------------|-----------------|-------------------------------|
D|--------------------|-------------------------------|-----------------|-------------------------------|
A|--------------------|-----------3-6---3--5---3--3---|-1----------2----|-----------3-6---3--5---3--3---|
E|-4--------------4---|-5-----------------------------|-----------------|-------------------------------|
B|--------------------|-------------------------------|-----------------|-1-----------------------------|


G|--------------------|-------------------------------|-----------------|-------------------------------|
D|--------------------|-------------------------------|-----------------|-------------------------------|
A|--------------------|-----------3-6---3--5---3--3---|-1----------2----|-----------3-6---3--5---3--3---|
E|-4--------------4---|-5-----------------------------|-----------------|-------------------------------|
B|--------------------|-------------------------------|-----------------|-1-----------------------------|


G|--------------------|-------------------------------|-----------------|--------------------|
D|--------------------|-------------------------------|-----------------|--------------------|
A|--------------------|-----------3-6---3--5---3--3---|-1----------2----|--------------------|
E|-4--------------4---|-5-----------------------------|-----------------|--------------------|
B|--------------------|-------------------------------|-----------------|-3----3---------3---|


G|--------------------|--------------------|----------------------------|--------------------|
D|--------------------|--------------------|---------------------0-3----|--------------------|
A|--------------------|--------------------|---------------0-3----------|--------------------|
E|--------------------|--------------------|----------------------------|--------------------|
B|-3------------------|-3----3---------3---|-3--------------------------|-3----3---------3---|


G|--------------------|--------------------|--------------------|--------|--------------------------------|
D|--------------------|--------------------|--------------------|--------|--------------------------------|
A|--------------------|--------------------|--------------------|--------|---------------------------3----|
E|--------------------|--------------------|--------------------|--------|----------------3---4---5-------|
B|-3------------------|-3----3---------3---|-3------------------|--------|---------1--3-------------------|


G|--------|--------|--------|--------|--------|--------|--------|--------|--------|
D|--------|--------|--------|--------|--------|--------|--------|--------|--------|
A|--------|--------|--------|--------|--------|--------|--------|--------|--------|
E|--------|--------|--------|--------|--------|--------|--------|--------|--------|
B|--------|--------|--------|--------|--------|--------|--------|--------|--------|


G|--------|--------|--------|--------|--------|--------|--------|--------|--------|
D|--------|--------|--------|--------|--------|--------|--------|--------|--------|
A|--------|--------|--------|--------|--------|--------|--------|--------|--------|
E|--------|--------|--------|--------|--------|--------|--------|--------|--------|
B|--------|--------|--------|--------|--------|--------|--------|--------|--------|


G|--------|--------|--------|--------|--------|--------|--------|--------|--------|
D|--------|--------|--------|--------|--------|--------|--------|--------|--------|
A|--------|--------|--------|--------|--------|--------|--------|--------|--------|
E|--------|--------|--------|--------|--------|--------|--------|--------|--------|
B|--------|--------|--------|--------|--------|--------|--------|--------|--------|


G|--------|--------|--------|--------|--------|--------|--------|--------|--------|
D|--------|--------|--------|--------|--------|--------|--------|--------|--------|
A|--------|--------|--------|--------|--------|--------|--------|--------|--------|
E|--------|--------|--------|--------|--------|--------|--------|--------|--------|
B|--------|--------|--------|--------|--------|--------|--------|--------|--------|


G|--------|--------|--------|--------|--------|--------|--------|--------|--------|
D|--------|--------|--------|--------|--------|--------|--------|--------|--------|
A|--------|--------|--------|--------|--------|--------|--------|--------|--------|
E|--------|--------|--------|--------|--------|--------|--------|--------|--------|
B|--------|--------|--------|--------|--------|--------|--------|--------|--------|


G|--------|--------|--------|--------|--------|--------|--------|--------|--------|
D|--------|--------|--------|--------|--------|--------|--------|--------|--------|
A|--------|--------|--------|--------|--------|--------|--------|--------|--------|
E|--------|--------|--------|--------|--------|--------|--------|--------|--------|
B|--------|--------|--------|--------|--------|--------|--------|--------|--------|


G|--------|--------|--------|--------|--------|
D|--------|--------|--------|--------|--------|
A|--------|--------|--------|--------|--------|
E|--------|--------|--------|--------|--------|
B|--------|--------|--------|--------|--------|





Track 7: Slap Bass

G|--------|--------|--------|--------|--------|--------|--------|--------|--------|
D|--------|--------|--------|--------|--------|--------|--------|--------|--------|
A|--------|--------|--------|--------|--------|--------|--------|--------|--------|
E|--------|--------|--------|--------|--------|--------|--------|--------|--------|
B|--------|--------|--------|--------|--------|--------|--------|--------|--------|


G|--------|--------|--------|--------|--------|--------|--------|--------|--------|
D|--------|--------|--------|--------|--------|--------|--------|--------|--------|
A|--------|--------|--------|--------|--------|--------|--------|--------|--------|
E|--------|--------|--------|--------|--------|--------|--------|--------|--------|
B|--------|--------|--------|--------|--------|--------|--------|--------|--------|


G|--------|--------|--------|--------|--------|--------|--------|--------|--------|
D|--------|--------|--------|--------|--------|--------|--------|--------|--------|
A|--------|--------|--------|--------|--------|--------|--------|--------|--------|
E|--------|--------|--------|--------|--------|--------|--------|--------|--------|
B|--------|--------|--------|--------|--------|--------|--------|--------|--------|


G|--------|--------|--------|--------|--------|--------|--------|--------|--------|
D|--------|--------|--------|--------|--------|--------|--------|--------|--------|
A|--------|--------|--------|--------|--------|--------|--------|--------|--------|
E|--------|--------|--------|--------|--------|--------|--------|--------|--------|
B|--------|--------|--------|--------|--------|--------|--------|--------|--------|


G|--------|--------|--------|--------|--------|--------|--------|--------|--------|
D|--------|--------|--------|--------|--------|--------|--------|--------|--------|
A|--------|--------|--------|--------|--------|--------|--------|--------|--------|
E|--------|--------|--------|--------|--------|--------|--------|--------|--------|
B|--------|--------|--------|--------|--------|--------|--------|--------|--------|


G|--------|--------|--------|--------|--------|--------|--------|--------|--------|
D|--------|--------|--------|--------|--------|--------|--------|--------|--------|
A|--------|--------|--------|--------|--------|--------|--------|--------|--------|
E|--------|--------|--------|--------|--------|--------|--------|--------|--------|
B|--------|--------|--------|--------|--------|--------|--------|--------|--------|


G|--------|--------|--------|--------|--------|--------|--------|--------|--------|
D|--------|--------|--------|--------|--------|--------|--------|--------|--------|
A|--------|--------|--------|--------|--------|--------|--------|--------|--------|
E|--------|--------|--------|--------|--------|--------|--------|--------|--------|
B|--------|--------|--------|--------|--------|--------|--------|--------|--------|


G|--------|-------7---5--------------5---4----------|-------7---5-----------|-------7---5--------------5---4------5---|
D|--------|-----------------------------------------|-----------------------|-----------------------------------------|
A|--------|-3--5---------3--3--5--3----------3--3---|-3--5------------------|-3--5---------3--3--5--5----------3------|
E|--------|-----------------------------------------|-----------------------|-----------------------------------------|
B|--------|-----------------------------------------|-----------------------|-----------------------------------------|


G|--------------------------------------------|--------|--------|--------|--------|
D|-------3---------3--------------------------|--------|--------|--------|--------|
A|-3--5------3--5------5--3-------------------|--------|--------|--------|--------|
E|---------------------------5--3---1--13--1--|--------|--------|--------|--------|
B|--------------------------------------------|--------|--------|--------|--------|


G|--------|--------|--------|--------|--------|--------|--------|--------|--------|
D|--------|--------|--------|--------|--------|--------|--------|--------|--------|
A|--------|--------|--------|--------|--------|--------|--------|--------|--------|
E|--------|--------|--------|--------|--------|--------|--------|--------|--------|
B|--------|--------|--------|--------|--------|--------|--------|--------|--------|


G|--------|--------|--------|--------|--------|--------|--------|--------|--------|
D|--------|--------|--------|--------|--------|--------|--------|--------|--------|
A|--------|--------|--------|--------|--------|--------|--------|--------|--------|
E|--------|--------|--------|--------|--------|--------|--------|--------|--------|
B|--------|--------|--------|--------|--------|--------|--------|--------|--------|


G|--------|--------|--------|--------|--------|--------|--------|--------|--------|
D|--------|--------|--------|--------|--------|--------|--------|--------|--------|
A|--------|--------|--------|--------|--------|--------|--------|--------|--------|
E|--------|--------|--------|--------|--------|--------|--------|--------|--------|
B|--------|--------|--------|--------|--------|--------|--------|--------|--------|


G|--------|--------|--------|--------|--------|--------|--------|--------|--------|
D|--------|--------|--------|--------|--------|--------|--------|--------|--------|
A|--------|--------|--------|--------|--------|--------|--------|--------|--------|
E|--------|--------|--------|--------|--------|--------|--------|--------|--------|
B|--------|--------|--------|--------|--------|--------|--------|--------|--------|


G|--------|--------|--------|--------|--------|--------|--------|--------|--------|
D|--------|--------|--------|--------|--------|--------|--------|--------|--------|
A|--------|--------|--------|--------|--------|--------|--------|--------|--------|
E|--------|--------|--------|--------|--------|--------|--------|--------|--------|
B|--------|--------|--------|--------|--------|--------|--------|--------|--------|


G|--------|--------|--------|--------|--------|--------|--------|--------|
D|--------|--------|--------|--------|--------|--------|--------|--------|
A|--------|--------|--------|--------|--------|--------|--------|--------|
E|--------|--------|--------|--------|--------|--------|--------|--------|
B|--------|--------|--------|--------|--------|--------|--------|--------|