Menu:

 

Search:

 

joe satriani - starry night:

 



Title: Starry Night
Artist: 
Album: Strange Beautiful Music
Author: Joe Satriani


Track 1: Lead

E|--------|--------|----------------------------------|----------------------------------|
B|--------|--------|----------------------8---8---10--|----------------------------------|
G|--------|--------|------5---7--5--7--9--------------|------7--5--7--5--7--9----9---9---|
D|--------|--------|----------------------------------|----------------------------------|
A|--------|--------|----------------------------------|----------------------------------|
E|--------|--------|----------------------------------|----------------------------------|


E|-----------------------------------|-------------------------------|------------------------------------|
B|-----------------------------------|-------------------------------|------------------------8---8---10--|
G|------------------5----------------|-5---5---5-----5---5-----------|-5----7--5--7--5--7--9--------------|
D|------7--5--7--5-------7--5--7--5--|------------7------------7--5--|------------------------------------|
A|-----------------------------------|-------------------------------|------------------------------------|
E|-----------------------------------|-------------------------------|------------------------------------|


E|------------------------|--------------------------------|----------------------------------|
B|------------------------|--------------------------------|----------------------------------|
G|------7--5--7--9--2-----|---------------------5----------|-5---5----5---5---5------5--7--9--|
D|------------------------|------5--7---5---7--------7--5--|----------------------7-----------|
A|------------------------|--------------------------------|----------------------------------|
E|------------------------|--------------------------------|----------------------------------|


E|--------------8----10-10-----|------10-10-8-----8---10-10-10---|--------------------8--------|
B|-8----10---------------------|---------------10----------------|------10--8---10-8-----------|
G|-----------------------------|---------------------------------|-----------------------------|
D|-----------------------------|---------------------------------|-----------------------------|
A|-----------------------------|---------------------------------|-----------------------------|
E|-----------------------------|---------------------------------|-----------------------------|


E|-----------------------------------------|------------------------------------|----------------------------|
B|-----------------------------------------|------------------------8---8---10--|----------------------------|
G|-7--7--5-----5---9---9---9---------------|-5----7--5--7--5--7--9--------------|------7--5--7--9------------|
D|----------7------------------7--5--7--5--|------------------------------------|------------------7-----5---|
A|-----------------------------------------|------------------------------------|----------------------------|
E|-----------------------------------------|------------------------------------|----------------------------|


E|-----------------------------------|--------------------------------|-------------------------------|
B|-----------------------------------|-------------------------8--10--|----------------------13-15-13-|
G|---------------------5---5---------|-5---5-------5---5----9---------|-12---14-----------14----------|
D|------5--7---5---7-----------7--5--|-------------5---5--------------|-------------------------------|
A|-----------------------------------|--------------------------------|-------------------------------|
E|-----------------------------------|--------------------------------|-------------------------------|


E|----------------------------------|---------------------------------------------|
B|-13---15-15-13----13--------------|------------13-15-15-15-13-15-13-15-15-15-13-|
G|---------------14-----12--12---12-|---------14----------------------------------|
D|----------------------------------|---------------------------------------------|
A|----------------------------------|---------------------------------------------|
E|----------------------------------|---------------------------------------------|


E|--------------15----------------|----------------------------------|-----------------------------------------|
B|-15--15----------15---15-13-----|-13---15--15------------13--15-13-|-15-15---13----13-13-13--15-15-----------|
G|----------------------------14--|------------------12-14-----------|------------14---------------------12-14-|
D|--------------------------------|----------------------------------|-----------------------------------------|
A|--------------------------------|----------------------------------|-----------------------------------------|
E|--------------------------------|----------------------------------|-----------------------------------------|


E|----------------------------------|-----------------------------------------|-15---17----------15---15--|
B|-13---15----------------13--15-13-|-15-15---13----13---------------13-15-17-|---------------------------|
G|------------------12-14-----------|------------14----14-12---12-12----------|---------------------------|
D|----------------------------------|-----------------------------------------|---------------------------|
A|----------------------------------|-----------------------------------------|---------------------------|
E|----------------------------------|-----------------------------------------|---------------------------|


E|-15------------------------15-18--|-18---18--18--18--18----|-18--18--18--18--18--18----|
B|------15-15-13-15-------18--------|------------------------|---------------------------|
G|----------------------------------|------------------------|---------------------------|
D|----------------------------------|------------------------|---------------------------|
A|----------------------------------|------------------------|---------------------------|
E|----------------------------------|------------------------|---------------------------|


E|-18------11-8---------8--8--------8--------|-8--------8-----8-----8--8-----8---|
B|-------------------11-------8--11----8--11-|----8--11--------------------------|
G|-------------------------------------------|-------------------10----9-----9---|
D|-------------------------------------------|-----------------------------------|
A|-------------------------------------------|-----------------------------------|
E|-------------------------------------------|-----------------------------------|


E|-----------------------------------------|---------------------------------------|
B|-----------------------------------------|---------------------------------------|
G|------5----------------------------------|--------5------------------5--5--5--5--|
D|------5-------------------------5--5--5--|--------5------5-----------5--7--5--5--|
A|-3----------3---3--5--5--5---------------|-5--7----------7---8---8---------------|
E|-----------------------------------------|---------------------------------------|


E|-------------------------------------------|-------------------------------------------|
B|--------8--8-------------------------------|-------------------------------------------|
G|-5--7---7--7--7--7--7--7--9---9--9---------|--------10-10----9---9---------------------|
D|-----------------5--5--5--7---7--7--7--10--|-10-7---10-10----10--10-----------10-------|
A|-------------------------------------------|--------------12-10--10--10-8--------10----|
E|-------------------------------------------|-------------------------------11-------10-|


E|---------------------------------------------|-----------------------------------------|
B|---------------------------------6--5--------|-----8--8--------8-------------6---6--6--|
G|-----5--5--5--5--5---------------5--5--------|-----5--5--------5-------------5---5--5--|
D|-----5--3--5--3--5---5--5--5--5--5--5--5--5--|-5------------5----------------7---7--7--|
A|-3---3--3--3--3--3---------------------------|-7-------------------7--7--8-------------|
E|---------------------------------------------|-----------------------------------------|


E|------------------------------------|---------------8---8---8--8--8---8--8--|---------20---20--17-------|
B|-6--8---8--------8---8---------5----|-6----6--6--6--8---8---8--8--8---8--8--|----------------------20---|
G|-5--7---7--------7---7--5--5---5----|-5----5--5--5--5---5---5--5--5---5--5--|-5---29--------------------|
D|--------------9------------7---7----|-7----7--7--7--------------------------|---------------------------|
A|------------------------------------|---------------------------------------|---------------------------|
E|------------------------------------|---------------------------------------|---------------------------|


E|------17------20----20--|-20---17--172017--171717-------17--------------------|-----------------------------------------------------|
B|-20---------------------|--------20------20------2017-----2017----------------|-------------172017--17------------------------------|
G|------------------------|----------------------------19-------191917--19--17--|-17--19------------20--201917--1917--17--------------|
D|------------------------|-------------------------------------------19--19----|-----------------------------19----19--19171917--17--|
A|------------------------|-----------------------------------------------------|-----------------------------------------------19--19|
E|------------------------|-----------------------------------------------------|-----------------------------------------------------|


E|------------------------------------17-20--|-20---22--20--20--22-------|-22-22-20----20--22-20-22-22---20--22-22-|
B|------------------------------17-20--------|---------------------------|----------22-----------------------------|
G|------------------------17-19--------------|---------------------------|-----------------------------------------|
D|------------------17-19--------------------|---------------------------|-----------------------------------------|
A|-15---------15-19--------------------------|---------------------------|-----------------------------------------|
E|------171517-------------------------------|---------------------------|-----------------------------------------|


E|-22-20---22-22-22-20-20---20------|---------------------------------------|-----------------------------------|
B|----------------------------------|---------------------------------------|-----------------------------------|
G|----------------------------------|-5----5--5---5--5--5--5--5---5---5--5--|-5----5--5---5---5---5---5---------|
D|----------------------------------|-5----5--5---5--5--5--5--5---5---5--5--|-5----5--5---5---5---5---5---------|
A|-----------------------------15---|-3----3--3---3--3--3--3--3---3---3--3--|-3----3--3---3---3---3---3---3--5--|
E|-----------------------------15---|---------------------------------------|-----------------------------------|


E|-------------------------------------------------|---------------------------------------------|
B|-------------------------------------------------|---------------------------------------------|
G|-------3-----------3-----------5-----------------|-------------------3--5--5--5----------------|
D|----3-----------3-----------5--------------3-----|-------3--------5-----5--5------5------------|
A|-6--------5--5--------3--3--------------3--------|----3-----------5-----3--3---------3---5--5--|
E|----------------------------------5--5--------6--|-6--------3--3-------------------------------|


E|-------------------------------------------------|-------------------------------------------|
B|-------------------------------------------------|-------------------------------------------|
G|-------3-----------3-----------5-----------------|-------------------------------------------|
D|----3-----------3-----------5--------------3-----|-------3------------------5---5------------|
A|-6--------5--5--------3--3--------------3--------|----3-----------5---3--3---------3---5--5--|
E|----------------------------------5--5--------6--|-6--------3--3-----------------------------|


E|-------------------------------------------------|-------------------------------------------|
B|-------------------------------------------------|-------------------------------------------|
G|-------3-----------3-----------5-----------------|-------------------------------------------|
D|----3-----------3-----------5--------------3-----|-------3------------------5---5------------|
A|-6--------5--5--------3--3--------------3--------|----3-----------5---3--3---------3---5--5--|
E|----------------------------------5--5--------6--|-6--------3--3-----------------------------|


E|-------------------------------------------------|-------------------------------------------|
B|-------------------------------------------------|-------------------------------------------|
G|-------3-----------3-----------5-----------------|-------------------------------------------|
D|----3-----------3-----------5--------------3-----|-------3------------------5---5------------|
A|-6--------5--5--------3--3--------------3--------|----3-----------5---3--3---------3---5--5--|
E|----------------------------------5--5--------6--|-6--------3--3-----------------------------|


E|-------------------------------------------------|-------------------------------------------|
B|-------------------------------------------------|-------------------------------------------|
G|-------3-----------3-----------5-----------------|-------------------------------------------|
D|----3-----------3-----------5--------------3-----|-------3------------------5---5------------|
A|-6--------5--5--------3--3--------------3--------|----3-----------5---3--3---------3---5--5--|
E|----------------------------------5--5--------6--|-6--------3--3-----------------------------|


E|-------------------------------------------------|-------------------------------------------|
B|-------------------------------------------------|-------------------------------------------|
G|-------3-----------3-----------5-----------------|-------------------------------------------|
D|----3-----------3-----------5--------------3-----|-------3------------------5---5------------|
A|-6--------5--5--------3--3--------------3--------|----3-----------5---3--3---------3---5--5--|
E|----------------------------------5--5--------6--|-6--------3--3-----------------------------|


E|-------------------------------------------------|---------------------------------------------|
B|-------------------------------------------------|---------------------------------------------|
G|-------3-----------3-----------5-----------------|--------------------------5------------------|
D|----3-----------3-----------5--------------3-----|-------3--------5------------5-----5---------|
A|-6--------5--5--------3--3--------------3--------|----3---------------3--3--------3------3--5--|
E|----------------------------------5--5--------6--|-6--------3--3-------------------------------|


E|-------------------------------------------------|-------------------------------|
B|-------------------------------------------------|-------------------------------|
G|-------3-----------3--------5--------------------|-------------------3--5--5-----|
D|----3-----------3--------------5--------3--------|----3-----------5-----5--5-----|
A|-6--------5--5--------3--3-----------------3-----|-------3--------------3--3-----|
E|----------------------------------5--5--------6--|-6--------3--3-----------------|


E|--------|--------|
B|--------|--------|
G|-5------|-5------|
D|-5------|-5------|
A|-3------|-3------|
E|--------|--------|





Track 2: Acoustic Rhythm

E|--------|---------------------------|-----3--3--3--3--3--3------3--3--3--3--3--3--|
B|--------|---------------------------|-----1--1--1--1--1--1------1--1--1--1--1--1--|
G|--------|--------------------2--2---|-----0--0--0--0--0--0------0--0--0--0--0--0--|
D|--------|--------------3--3--3--3---|-----2--2--2--2--2--2--0---0--0--0--0--0--0--|
A|--------|--------------------3--3---|-3-------------------------------------------|
E|--------|-----------1--------1--1---|---------------------------------------------|


E|-------3--3--3--3--3--3------3--3--3--3--3--3--|-----3--3--3--3--3--3------0--0--0--0--0--0--|
B|-------1--1--1--1--1--1------1--1--1--1--1--1--|-----3--3--3--3--3--3------1--1--1--1--1--1--|
G|-------0--0--0--0--0--0------2--2--2--2--2--2--|-----0--0--0--0--0--0------2--2--2--2--2--2--|
D|-0--2--2--2--2--2--2--2--3---3--3--3--3--3--3--|-0---0--0--0--0--0--0------2--2--2--2--2--2--|
A|-----------------------------------------------|-----------------------0---------------------|
E|-----------------------------------------------|---------------------------------------------|


E|-----1--1--1--1--1--1------3--3--3--3--3--3--|-----3--3--3--3--3--3------3--3--3--3--3--3--|
B|-----1--1--1--1--1--1------1--1--1--1--1--1--|-----1--1--1--1--1--1------1--1--1--1--1--1--|
G|-----2--2--2--2--2--2------0--0--0--0--0--0--|-----0--0--0--0--0--0------0--0--0--0--0--0--|
D|-3---3--3--3--3--3--3------2--2--2--2--2--2--|-----2--2--2--2--2--2--0---0--0--0--0--0--0--|
A|-----------------------3---------------------|-3-------------------------------------------|
E|---------------------------------------------|---------------------------------------------|


E|-------3--3--3--3--3--3------3--3--3--3--3--3--|-----3--3--3--3--3--3------0--0--0--0--0--0--|
B|-------1--1--1--1--1--1------1--1--1--1--1--1--|-----3--3--3--3--3--3------1--1--1--1--1--1--|
G|-------0--0--0--0--0--0------2--2--2--2--2--2--|-----0--0--0--0--0--0------2--2--2--2--2--2--|
D|-0--2--2--2--2--2--2--2--3---3--3--3--3--3--3--|-0---0--0--0--0--0--0------2--2--2--2--2--2--|
A|-----------------------------------------------|-----------------------0---------------------|
E|-----------------------------------------------|---------------------------------------------|


E|-----1--1--1--1--1--1------3--3--3--3--3--3--|-----3--3--3--3--3--3------3--3--3--3--3--3--|
B|-----1--1--1--1--1--1------1--1--1--1--1--1--|-----1--1--1--1--1--1------1--1--1--1--1--1--|
G|-----2--2--2--2--2--2------0--0--0--0--0--0--|-----0--0--0--0--0--0------0--0--0--0--0--0--|
D|-3---3--3--3--3--3--3------2--2--2--2--2--2--|-----2--2--2--2--2--2--0---0--0--0--0--0--0--|
A|-----------------------3---------------------|-3-------------------------------------------|
E|---------------------------------------------|---------------------------------------------|


E|-------3--3--3--3--3--3------3--3--3--3--3--3--|-----3--3--3--3--3--3------0--0--0--0--0--0--|
B|-------1--1--1--1--1--1------1--1--1--1--1--1--|-----3--3--3--3--3--3------1--1--1--1--1--1--|
G|-------0--0--0--0--0--0------2--2--2--2--2--2--|-----0--0--0--0--0--0------2--2--2--2--2--2--|
D|-0--2--2--2--2--2--2--2--3---3--3--3--3--3--3--|-0---0--0--0--0--0--0------2--2--2--2--2--2--|
A|-----------------------------------------------|-----------------------0---------------------|
E|-----------------------------------------------|---------------------------------------------|


E|-----1--1--1--1--1--1------3--3--3--3--3--3--|-----3--3--3--3--3--3------3--3--3--3--3--3--|
B|-----1--1--1--1--1--1------1--1--1--1--1--1--|-----1--1--1--1--1--1------1--1--1--1--1--1--|
G|-----2--2--2--2--2--2------0--0--0--0--0--0--|-----0--0--0--0--0--0------0--0--0--0--0--0--|
D|-3---3--3--3--3--3--3------2--2--2--2--2--2--|-----2--2--2--2--2--2--0---0--0--0--0--0--0--|
A|-----------------------3---------------------|-3-------------------------------------------|
E|---------------------------------------------|---------------------------------------------|


E|-------3--3--3--3--3--3------3--3--3--3--3--3--|-----3--3--3--3--3--3------0--0--0--0--0--0--|
B|-------1--1--1--1--1--1------1--1--1--1--1--1--|-----3--3--3--3--3--3------1--1--1--1--1--1--|
G|-------0--0--0--0--0--0------2--2--2--2--2--2--|-----0--0--0--0--0--0------2--2--2--2--2--2--|
D|-0--2--2--2--2--2--2--2--3---3--3--3--3--3--3--|-0---0--0--0--0--0--0------2--2--2--2--2--2--|
A|-----------------------------------------------|-----------------------0---------------------|
E|-----------------------------------------------|---------------------------------------------|


E|-----1--1--1--1--1--1------3--3--3--3--3--3--|-----3--3--3--3--3--3-----3--3--3--3--3--3--3--|
B|-----1--1--1--1--1--1------1--1--1--1--1--1--|-----3--3--3--3--3--3-----3--3--3--3--3--3--3--|
G|-----2--2--2--2--2--2------0--0--0--0--0--0--|-----0--0--0--0--0--0-----0--0--0--0--0--0--0--|
D|-3---3--3--3--3--3--3------2--2--2--2--2--2--|-----0--0--0--0--0--0-----0--0--0--0--0--0--0--|
A|-----------------------3---------------------|-2---------------------------------------------|
E|---------------------------------------------|-----------------------3-----------------------|


E|--------------------------------0--0--0--0--0--|--------------0--0---0--0--0--0--0--0--|
B|-----1--1--1--1-----1-----1--1--1--1--1--1--1--|--------------0--0---0--0--0--0--0--0--|
G|-----2--2--2--2-----2-----2--2--2--2--2--2--2--|-1----1--1----1--1---1--1--1--1--1--1--|
D|-----3--3--3--3-----3-----3--3--3--3--3--3--3--|-0----0--0----0--0---0--0--0--0--0--0--|
A|-3---3--3--3--3-----3--0--0--0--0--0--0--0--0--|-2----2--2----2--2---2--2--2--2--2--2--|
E|-----------------------------------------------|--------------0--0---0--0--0--0--0--0--|


E|-----0--0--0--0--0--0------0--0--0--0--0--0--|-----3--3--3--3--3--3------3--3--3--3--3--3--|
B|-----1--1--1--1--1--1------1--1--1--1--1--1--|-----1--1--1--1--1--1------1--1--1--1--1--1--|
G|-----2--2--2--2--2--2------2--2--2--2--2--2--|-----2--2--2--2--2--2------0--0--0--0--0--0--|
D|-----2--2--2--2--2--2------2--2--2--2--2--2--|-3---3--3--3--3--3--3--2---2--2--2--2--2--2--|
A|-0-------------------------------------------|---------------------------------------------|
E|-----------------------3---------------------|---------------------------------------------|


E|-----1--1--1--1--1--1-----3--3--3--3--3--3--3--|-----3--3--3--3--3--3------3--3--3--3--3--3--|
B|-----1--1--1--1--1--1-----1--1--1--1--1--1--1--|-----1--1--1--1--1--1------1--1--1--1--1--1--|
G|-----2--2--2--2--2--2-----0--0--0--0--0--0--0--|-----2--2--2--2--2--2------0--0--0--0--0--0--|
D|-0---0--0--0--0--0--0--2--2--2--2--2--2--2--2--|-3---3--3--3--3--3--3--2---2--2--2--2--2--2--|
A|-----------------------------------------------|---------------------------------------------|
E|-----------------------------------------------|---------------------------------------------|


E|-----1--1--1--1--1--1-----3--3--3--3--3--3--3--|-----3--3--3--3--3--3------3--3--3--3--3--3--|
B|-----1--1--1--1--1--1-----1--1--1--1--1--1--1--|-----1--1--1--1--1--1------1--1--1--1--1--1--|
G|-----2--2--2--2--2--2-----0--0--0--0--0--0--0--|-----2--2--2--2--2--2------0--0--0--0--0--0--|
D|-0---0--0--0--0--0--0--2--2--2--2--2--2--2--2--|-3---3--3--3--3--3--3--2---2--2--2--2--2--2--|
A|-----------------------------------------------|---------------------------------------------|
E|-----------------------------------------------|---------------------------------------------|


E|-----1--1--1--1--1--1-----3--3--3--3--3--3--3--|--------------------------------------|
B|-----1--1--1--1--1--1-----1--1--1--1--1--1--1--|-1----1---1--1--1--1--1---1--1--1--1--|
G|-----2--2--2--2--2--2-----0--0--0--0--0--0--0--|-3----3---3--3--3--3--3---3--3--3--3--|
D|-0---0--0--0--0--0--0--2--2--2--2--2--2--2--2--|-1----1---1--1--1--1--1---1--1--1--1--|
A|-----------------------------------------------|-6----6---6--6--6--6--6---6--6--6--6--|
E|-----------------------------------------------|-4----4---4--4--4--4--4---4--4--4--4--|


E|-3---3--3--3---3--3--3--3--3---3--3--3--3--|-------------------------------------|
B|-3---3--3--3---3--3--3--3--3---3--3--3--3--|-------------------------------------|
G|-5---5--5--5---5--5--5--5--5---5--5--5--5--|-3---3--3--3---3--3--5----5--5---5---|
D|-3---3--3--3---3--3--3--3--3---3--3--3--3--|-3---3--3--3---3--3--3----3--3---3---|
A|-5---5--5--5---5--5--5--5--5---5--5--5--5--|-6---6--6--6---6--6--5----5--5---5---|
E|-3---3--3--3---3--3--3--3--3---3--3--3--3--|-------------------------------------|


E|-------------------------|-----3--3--3--3--3--3------3--3--3--3--3--3--|-------3--3--3--3--3--3------3--3--3--3--3--3--|
B|---------------6---6-----|-----1--1--1--1--1--1------1--1--1--1--1--1--|-------1--1--1--1--1--1------1--1--1--1--1--1--|
G|-----5--5--5---5---5-----|-----0--0--0--0--0--0------0--0--0--0--0--0--|-------0--0--0--0--0--0------2--2--2--2--2--2--|
D|-----5--5--5---5---5-----|-----2--2--2--2--2--2--0---0--0--0--0--0--0--|-0--2--2--2--2--2--2--2--3---3--3--3--3--3--3--|
A|-3---3--3--3---3---3-----|-3-------------------------------------------|-----------------------------------------------|
E|-------------------------|---------------------------------------------|-----------------------------------------------|


E|-----3--3--3--3--3--3------0--0--0--0--0--0--|-----1--1--1--1--1--1------3--3--3--3--3--3--|
B|-----3--3--3--3--3--3------1--1--1--1--1--1--|-----1--1--1--1--1--1------1--1--1--1--1--1--|
G|-----0--0--0--0--0--0------2--2--2--2--2--2--|-----2--2--2--2--2--2------0--0--0--0--0--0--|
D|-0---0--0--0--0--0--0------2--2--2--2--2--2--|-3---3--3--3--3--3--3------2--2--2--2--2--2--|
A|-----------------------0---------------------|-----------------------3---------------------|
E|---------------------------------------------|---------------------------------------------|


E|-----3--3--3--3--3--3------3--3--3--3--3--3--|-------3--3--3--3--3--3------3--3--3--3--3--3--|
B|-----1--1--1--1--1--1------1--1--1--1--1--1--|-------1--1--1--1--1--1------1--1--1--1--1--1--|
G|-----0--0--0--0--0--0------0--0--0--0--0--0--|-------0--0--0--0--0--0------2--2--2--2--2--2--|
D|-----2--2--2--2--2--2--0---0--0--0--0--0--0--|-0--2--2--2--2--2--2--2--3---3--3--3--3--3--3--|
A|-3-------------------------------------------|-----------------------------------------------|
E|---------------------------------------------|-----------------------------------------------|


E|-----3--3--3--3--3--3------0--0--0--0--0--0--|-----1--1--1--1--1--1------3--3--3--3--3--3--|
B|-----3--3--3--3--3--3------1--1--1--1--1--1--|-----1--1--1--1--1--1------1--1--1--1--1--1--|
G|-----0--0--0--0--0--0------2--2--2--2--2--2--|-----2--2--2--2--2--2------0--0--0--0--0--0--|
D|-0---0--0--0--0--0--0------2--2--2--2--2--2--|-3---3--3--3--3--3--3------2--2--2--2--2--2--|
A|-----------------------0---------------------|-----------------------3---------------------|
E|---------------------------------------------|---------------------------------------------|


E|-----3--3--3--3--3--3------3--3--3--3--3--3--|-------3--3--3--3--3--3------3--3--3--3--3--3--|
B|-----1--1--1--1--1--1------1--1--1--1--1--1--|-------1--1--1--1--1--1------1--1--1--1--1--1--|
G|-----0--0--0--0--0--0------0--0--0--0--0--0--|-------0--0--0--0--0--0------2--2--2--2--2--2--|
D|-----2--2--2--2--2--2--0---0--0--0--0--0--0--|-0--2--2--2--2--2--2--2--3---3--3--3--3--3--3--|
A|-3-------------------------------------------|-----------------------------------------------|
E|---------------------------------------------|-----------------------------------------------|


E|-----3--3--3--3--3--3------0--0--0--0--0--0--|-----1--1--1--1--1--1------3--3--3--3--3--3--|
B|-----3--3--3--3--3--3------1--1--1--1--1--1--|-----1--1--1--1--1--1------1--1--1--1--1--1--|
G|-----0--0--0--0--0--0------2--2--2--2--2--2--|-----2--2--2--2--2--2------0--0--0--0--0--0--|
D|-0---0--0--0--0--0--0------2--2--2--2--2--2--|-3---3--3--3--3--3--3------2--2--2--2--2--2--|
A|-----------------------0---------------------|-----------------------3---------------------|
E|---------------------------------------------|---------------------------------------------|


E|-----3--3--3--3--3--3------3--3--3--3--3--3--|-------3--3--3--3--3--3------3--3--3--3--3--3--|
B|-----1--1--1--1--1--1------1--1--1--1--1--1--|-------1--1--1--1--1--1------1--1--1--1--1--1--|
G|-----0--0--0--0--0--0------0--0--0--0--0--0--|-------0--0--0--0--0--0------2--2--2--2--2--2--|
D|-----2--2--2--2--2--2--0---0--0--0--0--0--0--|-0--2--2--2--2--2--2--2--3---3--3--3--3--3--3--|
A|-3-------------------------------------------|-----------------------------------------------|
E|---------------------------------------------|-----------------------------------------------|


E|-----3--3--3--3--3--3------0--0--0--0--0--0--|-----1--1--1--1--1--1------3--3--3--3--3--3--|
B|-----3--3--3--3--3--3------1--1--1--1--1--1--|-----1--1--1--1--1--1------1--1--1--1--1--1--|
G|-----0--0--0--0--0--0------2--2--2--2--2--2--|-----2--2--2--2--2--2------0--0--0--0--0--0--|
D|-0---0--0--0--0--0--0------2--2--2--2--2--2--|-3---3--3--3--3--3--3------2--2--2--2--2--2--|
A|-----------------------0---------------------|-----------------------3---------------------|
E|---------------------------------------------|---------------------------------------------|


E|-----------------------------------------|-----------------------------------------|
B|-5----5--5-------------------------------|-5----5--5--5--5--5--5--5--5---5---------|
G|-5----5--5-----5--5--5--5--5---5---5--5--|-5----5--5--5--5--5--5--5--5---5---------|
D|-5----5--5-----5--5--5--5--5---5---5--5--|-5----5--5--5--5--5--5--5--5---5---------|
A|-3----3--3-----3--3--3--3--3---3---3--3--|-3----3--3--3--3--3--3--3--3---3---3--5--|
E|-----------------------------------------|-----------------------------------------|


E|-------------------------------------------------|--------------------------------------|
B|-------------------------------------------------|--------------------------------------|
G|-------3-----------3-----------5-----------------|--------------------------------------|
D|----3-----------3-----------5--------------3-----|-------3------------------5---5-------|
A|-6--------5--5--------3--3--------------3--------|----3-----------5---3--3---------3----|
E|----------------------------------5--5--------6--|-6--------3--3------------------------|


E|------------------------------------------|--------------------------------------|
B|------------------------------------------|--------------------------------------|
G|-------------8--10------------------------|--------------------------------------|
D|-------8--10----------10----10-8----------|--------------------------------8--8--|
A|----10----------------------------10-8----|-8--10-8-----8--10-6---6--------------|
E|------------------------------------------|----------10--------------------------|


E|-------------------------------------------|------------------------------------|
B|-------------------------11-11-------------|------------------------------------|
G|----8--10----10-8--------------10-8--10-8--|--------------------9--10-9---------|
D|-------------------------------------------|-10-8--10-----------10-10-10--8--8--|
A|-10----------------------------------------|------------------------------------|
E|-------------------------------------------|------------------------------------|


E|-------------------------------------------------|-----8---------8---8-----|--------|
B|-------------------------------------------8-----|-11------8--11-----------|--------|
G|-------8-----------8-----------------8--10----10-|-------------------------|--------|
D|-8--10----10-10-10----10-10-10-8--10-------------|-------------------------|--------|
A|-------------------------------------------------|-------------------------|--------|
E|-------------------------------------------------|-------------------------|--------|


E|--------|--------|--------|--------|--------|--------|--------|--------|-11-----|
B|--------|--------|--------|--------|--------|--------|--------|--------|-9------|
G|--------|--------|--------|--------|--------|--------|--------|--------|-12-----|
D|--------|--------|--------|--------|--------|--------|--------|--------|-10-----|
A|--------|--------|--------|--------|--------|--------|--------|--------|--------|
E|--------|--------|--------|--------|--------|--------|--------|--------|--------|





Track 3: ersatz banjo

E|--------|--------|---------------------------------------------|-----------------------------------------------|
B|--------|--------|--------1--1------------------1--1-----------|----------1--1------------------1--1-----------|
G|--------|--------|-----0--------0-----0------0--------0-----0--|-------0--------0-----0------0--------0-----0--|
D|--------|--------|-----------------------0---------------0-----|-0--2--------------2-----3---------------3-----|
A|--------|--------|-3---------------3---------------------------|-----------------------------------------------|
E|--------|--------|---------------------------------------------|-----------------------------------------------|


E|--------3--3------------------0--0-----------|-----------------------------------------------|
B|-----3--------3------------1--------1--------|--------1--1--------------------1--1-----------|
G|--------------------0---------------------0--|-----2--------2-----0-----0-----------------0--|
D|-0---------------0---------------------2-----|-3---------------3-----------2--------0--2-----|
A|-----------------------0---------------------|-----------------------3-----------------------|
E|---------------------------------------------|-----------------------------------------------|


E|---------------------------------------------|-----------------------------------------------|
B|--------1--1------------------1--1-----------|----------1--1------------------1--1-----------|
G|-----0--------0-----0------0--------0-----0--|-------0--------0-----0------0--------0-----0--|
D|-----------------------0---------------0-----|-0--2--------------2-----3---------------3-----|
A|-3---------------3---------------------------|-----------------------------------------------|
E|---------------------------------------------|-----------------------------------------------|


E|--------3--3------------------0--0-----------|-----------------------------------------------|
B|-----3--------3------------1--------1--------|--------1--1--------------------1--1-----------|
G|--------------------0---------------------0--|-----2--------2-----0-----0-----------------0--|
D|-0---------------0---------------------2-----|-3---------------3-----------2--------0--2-----|
A|-----------------------0---------------------|-----------------------3-----------------------|
E|---------------------------------------------|-----------------------------------------------|


E|---------------------------------------------|-----------------------------------------------|
B|--------1--1------------------1--1-----------|----------1--1------------------1--1-----------|
G|-----0--------0-----0------0--------0-----0--|-------0--------0-----0------0--------0-----0--|
D|-----------------------0---------------0-----|-0--2--------------2-----3---------------3-----|
A|-3---------------3---------------------------|-----------------------------------------------|
E|---------------------------------------------|-----------------------------------------------|


E|--------3--3------------------0--0-----------|-----------------------------------------------|
B|-----3--------3------------1--------1--------|--------1--1--------------------1--1-----------|
G|--------------------0---------------------0--|-----2--------2-----0-----0-----------------0--|
D|-0---------------0---------------------2-----|-3---------------3-----------2--------0--2-----|
A|-----------------------0---------------------|-----------------------3-----------------------|
E|---------------------------------------------|-----------------------------------------------|


E|---------------------------------------------|-----------------------------------------------|
B|--------1--1------------------1--1-----------|----------1--1------------------1--1-----------|
G|-----0--------0-----0------0--------0-----0--|-------0--------0-----0------0--------0-----0--|
D|-----------------------0---------------0-----|-0--2--------------2-----3---------------3-----|
A|-3---------------3---------------------------|-----------------------------------------------|
E|---------------------------------------------|-----------------------------------------------|


E|--------3--3------------------0--0-----------|-----------------------------------------------|
B|-----3--------3------------1--------1--------|--------1--1--------------------1--1-----------|
G|--------------------0---------------------0--|-----2--------2-----0-----0-----------------0--|
D|-0---------------0---------------------2-----|-3---------------3-----------2--------0--2-----|
A|-----------------------0---------------------|-----------------------3-----------------------|
E|---------------------------------------------|-----------------------------------------------|


E|------------------------------3--3-----------|-------------------------------------------|
B|--------3--3---------------3--------0--------|--------1--1----------------1--1-----------|
G|-----0--------0-----0------------------0-----|--------------2-------------------2-----0--|
D|------------------------------------------0--|-----3-----------3-------3-----------3-----|
A|-2---------------2---------------------------|-3-------------------0---------------------|
E|-----------------------3---------------------|-------------------------------------------|


E|--------0--0------------------0--0---------|-------------------------------------------|
B|--------------0-----0------0---------------|--------1--1----------------1--1-----------|
G|-----------------------1------------1---0--|-----2--------2---2------2--------2-----0--|
D|-----2-----------2-------------------------|-------------------------------------2-----|
A|-2-----------------------------------------|-0-----------------------------------------|
E|-------------------------------------------|---------------------3---------------------|


E|---------------------------------------------|-------------------------------------------|
B|--------1--1--------1---------1--1-----------|--------1-----1---------------1-----1------|
G|-----2--------2------------0--------0-----0--|-----0------------0--------0------------0--|
D|-3---------------3-----2---------------2-----|-0---------0---------0--2--------2---------|
A|---------------------------------------------|-------------------------------------------|
E|---------------------------------------------|-------------------------------------------|


E|---------------------------------------------|-----------------------------------------------|
B|--------1--1------------------1--1-----------|--------1--1--------------------1--1-----------|
G|-----2--------2-----2------0--------0-----0--|-----2--------0-----0--------0--------0-----0--|
D|-3---------------3-----2---------------2-----|-0---------------0-----0--2--------------2-----|
A|---------------------------------------------|-----------------------------------------------|
E|---------------------------------------------|-----------------------------------------------|


E|----------------------------3--3-----------|--------3--3--------------------3--3---------|
B|--------1--1-----3----------------1-----1--|--------------1-----1-----------------1------|
G|-----2--------2----------0-----------------|-----2-----------2-----------0------------0--|
D|-3-------------------2---------------2-----|-0---------------------0--2------------------|
A|-------------------------------------------|---------------------------------------------|
E|-------------------------------------------|---------------------------------------------|


E|--------3--3-------------------3---------|--------1--1------------1-----------|-------------------------1--------1------|
B|-----1--------1-----1--1----------1------|-----1--------1-------------1--1----|--------1--1----------------1--1---------|
G|-----------------0-------------------0---|------------------------------------|-----0--------0----------------------2---|
D|---------------------------1-------------|-0---------------0---0--------------|-1---------------1---0-------------------|
A|-1---------------------------------------|------------------------------------|-----------------------------------------|
E|-----------------------------------------|------------------------------------|-----------------------------------------|


E|-----0--------0------------|---------------------------------------------|-----------------------------------------------|
B|--------1--1---------------|--------1--1------------------1--1-----------|----------1--1------------------1--1-----------|
G|-----------------0---------|-----0--------0-----0------0--------0-----0--|-------0--------0-----0------0--------0-----0--|
D|---------------------------|-----------------------0---------------0-----|-0--2--------------2-----3---------------3-----|
A|-3-------------------3-----|-3---------------3---------------------------|-----------------------------------------------|
E|---------------------------|---------------------------------------------|-----------------------------------------------|


E|--------3--3------------------0--0-----------|-----------------------------------------------|
B|-----3--------3------------1--------1--------|--------1--1--------------------1--1-----------|
G|--------------------0---------------------0--|-----2--------2-----0-----0-----------------0--|
D|-0---------------0---------------------2-----|-3---------------3-----------2--------0--2-----|
A|-----------------------0---------------------|-----------------------3-----------------------|
E|---------------------------------------------|-----------------------------------------------|


E|---------------------------------------------|-----------------------------------------------|
B|--------1--1------------------1--1-----------|----------1--1------------------1--1-----------|
G|-----0--------0-----0------0--------0-----0--|-------0--------0-----0------0--------0-----0--|
D|-----------------------0---------------0-----|-0--2--------------2-----3---------------3-----|
A|-3---------------3---------------------------|-----------------------------------------------|
E|---------------------------------------------|-----------------------------------------------|


E|--------3--3------------------0--0-----------|-----------------------------------------------|
B|-----3--------3------------1--------1--------|--------1--1--------------------1--1-----------|
G|--------------------0---------------------0--|-----2--------2-----0-----0-----------------0--|
D|-0---------------0---------------------2-----|-3---------------3-----------2--------0--2-----|
A|-----------------------0---------------------|-----------------------3-----------------------|
E|---------------------------------------------|-----------------------------------------------|


E|---------------------------------------------|-----------------------------------------------|
B|--------1--1------------------1--1-----------|----------1--1------------------1--1-----------|
G|-----0--------0-----0------0--------0-----0--|-------0--------0-----0------0--------0-----0--|
D|-----------------------0---------------0-----|-0--2--------------2-----3---------------3-----|
A|-3---------------3---------------------------|-----------------------------------------------|
E|---------------------------------------------|-----------------------------------------------|


E|--------3--3------------------0--0-----------|-----------------------------------------------|
B|-----3--------3------------1--------1--------|--------1--1--------------------1--1-----------|
G|--------------------0---------------------0--|-----2--------2-----0-----0-----------------0--|
D|-0---------------0---------------------2-----|-3---------------3-----------2--------0--2-----|
A|-----------------------0---------------------|-----------------------3-----------------------|
E|---------------------------------------------|-----------------------------------------------|


E|---------------------------------------------|-----------------------------------------------|
B|--------1--1------------------1--1-----------|----------1--1------------------1--1-----------|
G|-----0--------0-----0------0--------0-----0--|-------0--------0-----0------0--------0-----0--|
D|-----------------------0---------------0-----|-0--2--------------2-----3---------------3-----|
A|-3---------------3---------------------------|-----------------------------------------------|
E|---------------------------------------------|-----------------------------------------------|


E|--------3--3------------------0--0-----------|-----------------------------------------------|
B|-----3--------3------------1--------1--------|--------1--1--------------------1--1-----------|
G|--------------------0---------------------0--|-----2--------2-----0-----0-----------------0--|
D|-0---------------0---------------------2-----|-3---------------3-----------2--------0--2-----|
A|-----------------------0---------------------|-----------------------3-----------------------|
E|---------------------------------------------|-----------------------------------------------|


E|--------|--------|--------|--------|--------|--------|--------|--------|--------|
B|--------|--------|--------|--------|--------|--------|--------|--------|--------|
G|--------|--------|--------|--------|--------|--------|--------|--------|--------|
D|--------|--------|--------|--------|--------|--------|--------|--------|--------|
A|--------|--------|--------|--------|--------|--------|--------|--------|--------|
E|--------|--------|--------|--------|--------|--------|--------|--------|--------|


E|--------|--------|--------|--------|--------|--------|--------|--------|--------|
B|--------|--------|--------|--------|--------|--------|--------|--------|--------|
G|--------|--------|--------|--------|--------|--------|--------|--------|--------|
D|--------|--------|--------|--------|--------|--------|--------|--------|--------|
A|--------|--------|--------|--------|--------|--------|--------|--------|--------|
E|--------|--------|--------|--------|--------|--------|--------|--------|--------|


E|--------|--------|
B|--------|--------|
G|--------|--------|
D|--------|--------|
A|--------|--------|
E|--------|--------|





Track 4: 2nd Dist.

E|--------|--------|--------|--------|--------|--------|--------|--------|--------|
B|--------|--------|--------|--------|--------|--------|--------|--------|--------|
G|--------|--------|--------|--------|--------|--------|--------|--------|--------|
D|--------|--------|--------|--------|--------|--------|--------|--------|--------|
A|--------|--------|--------|--------|--------|--------|--------|--------|--------|
E|--------|--------|--------|--------|--------|--------|--------|--------|--------|


E|--------|--------|--------|--------|--------|--------|--------|--------|--------|
B|--------|--------|--------|--------|--------|--------|--------|--------|--------|
G|--------|--------|--------|--------|--------|--------|--------|--------|--------|
D|--------|--------|--------|--------|--------|--------|--------|--------|--------|
A|--------|--------|--------|--------|--------|--------|--------|--------|--------|
E|--------|--------|--------|--------|--------|--------|--------|--------|--------|


E|--------|--------|--------|--------|--------|--------|--------|--------|--------|
B|--------|--------|--------|--------|--------|--------|--------|--------|--------|
G|--------|--------|--------|--------|--------|--------|--------|--------|--------|
D|--------|--------|--------|--------|--------|--------|--------|--------|--------|
A|--------|--------|--------|--------|--------|--------|--------|--------|--------|
E|--------|--------|--------|--------|--------|--------|--------|--------|--------|


E|--------|--------|--------|--------|--------|--------|--------|--------|--------|
B|--------|--------|--------|--------|--------|--------|--------|--------|--------|
G|--------|--------|--------|--------|--------|--------|--------|--------|--------|
D|--------|--------|--------|--------|--------|--------|--------|--------|--------|
A|--------|--------|--------|--------|--------|--------|--------|--------|--------|
E|--------|--------|--------|--------|--------|--------|--------|--------|--------|


E|--------|--------|--------|--------|--------|--------|--------|--------|--------|
B|--------|--------|--------|--------|--------|--------|--------|--------|--------|
G|--------|--------|--------|--------|--------|--------|--------|--------|--------|
D|--------|--------|--------|--------|--------|--------|--------|--------|--------|
A|--------|--------|--------|--------|--------|--------|--------|--------|--------|
E|--------|--------|--------|--------|--------|--------|--------|--------|--------|


E|--------|--------|--------|--------|--------|--------|--------|--------|--------|
B|--------|--------|--------|--------|--------|--------|--------|--------|--------|
G|--------|--------|--------|--------|--------|--------|--------|--------|--------|
D|--------|--------|--------|--------|--------|--------|--------|--------|--------|
A|--------|--------|--------|--------|--------|--------|--------|--------|--------|
E|--------|--------|--------|--------|--------|--------|--------|--------|--------|


E|-------------------------------|-------------------------------|--------------------|
B|-------------------------------|-------------------------------|--------------------|
G|----5--3--5--5----5------------|----------3--5--5--5--5--------|-----------------5--|
D|-------------------------------|-------------------------------|--------------------|
A|-------------------------------|-------------------------------|--------------------|
E|-------------------------------|-------------------------------|--------------------|


E|-----------------------------------------|----------11--------|-----------------|
B|------------------5--5--6--5--8--8-------|--------------13----|-13--------------|
G|----5-----5------------------------------|--------------------|-----------------|
D|-----------------------------------------|--------------------|-----------------|
A|-----------------------------------------|--------------------|-----------------|
E|-----------------------------------------|--------------------|-----------------|


E|-----11---------|--------|-------------------------|-----------------------------|
B|---------13-----|--------|-------------------------|-----------------------------|
G|----------------|--------|-------------------------|-----------------------------|
D|----------------|--------|-----8--10-10------------|-----8--10----10-8--10-------|
A|----------------|--------|-------------------------|-----------------------------|
E|----------------|--------|-------------------------|-----------------------------|


E|--------|--------|--------|--------------------|
B|--------|--------|--------|--------------------|
G|--------|--------|--------|--------------------|
D|--------|--------|--------|----------5---5-----|
A|--------|--------|--------|----------3---3-----|
E|--------|--------|--------|--------------------|





Track 5: 3d Dist.

E|--------|--------|--------|--------|--------|--------|--------|--------|--------|
B|--------|--------|--------|--------|--------|--------|--------|--------|--------|
G|--------|--------|--------|--------|--------|--------|--------|--------|--------|
D|--------|--------|--------|--------|--------|--------|--------|--------|--------|
A|--------|--------|--------|--------|--------|--------|--------|--------|--------|
E|--------|--------|--------|--------|--------|--------|--------|--------|--------|


E|--------|--------|--------|--------|--------|--------|--------|--------|--------|
B|--------|--------|--------|--------|--------|--------|--------|--------|--------|
G|--------|--------|--------|--------|--------|--------|--------|--------|--------|
D|--------|--------|--------|--------|--------|--------|--------|--------|--------|
A|--------|--------|--------|--------|--------|--------|--------|--------|--------|
E|--------|--------|--------|--------|--------|--------|--------|--------|--------|


E|--------|--------|--------|--------|--------|--------|--------|--------|--------|
B|--------|--------|--------|--------|--------|--------|--------|--------|--------|
G|--------|--------|--------|--------|--------|--------|--------|--------|--------|
D|--------|--------|--------|--------|--------|--------|--------|--------|--------|
A|--------|--------|--------|--------|--------|--------|--------|--------|--------|
E|--------|--------|--------|--------|--------|--------|--------|--------|--------|


E|--------|--------|--------|--------|--------|--------|--------|--------|--------|
B|--------|--------|--------|--------|--------|--------|--------|--------|--------|
G|--------|--------|--------|--------|--------|--------|--------|--------|--------|
D|--------|--------|--------|--------|--------|--------|--------|--------|--------|
A|--------|--------|--------|--------|--------|--------|--------|--------|--------|
E|--------|--------|--------|--------|--------|--------|--------|--------|--------|


E|--------|--------|--------|--------|--------|--------|--------|--------|--------|
B|--------|--------|--------|--------|--------|--------|--------|--------|--------|
G|--------|--------|--------|--------|--------|--------|--------|--------|--------|
D|--------|--------|--------|--------|--------|--------|--------|--------|--------|
A|--------|--------|--------|--------|--------|--------|--------|--------|--------|
E|--------|--------|--------|--------|--------|--------|--------|--------|--------|


E|--------|--------|--------|--------|--------|--------|--------|--------|--------|
B|--------|--------|--------|--------|--------|--------|--------|--------|--------|
G|--------|--------|--------|--------|--------|--------|--------|--------|--------|
D|--------|--------|--------|--------|--------|--------|--------|--------|--------|
A|--------|--------|--------|--------|--------|--------|--------|--------|--------|
E|--------|--------|--------|--------|--------|--------|--------|--------|--------|


E|--------|--------|--------|--------|-----------------8--|-8--6--8------------------------|
B|--------|--------|--------|--------|--------------------|----------------8--8------------|
G|--------|--------|--------|--------|--------------------|--------------------------------|
D|--------|--------|--------|--------|--------------------|--------------------------------|
A|--------|--------|--------|--------|--------------------|--------------------------------|
E|--------|--------|--------|--------|--------------------|--------------------------------|


E|------------------------|---------------------------------------|--------|--------|
B|------------------------|---------------------------------------|--------|--------|
G|------------------------|-----------------9---------------------|--------|--------|
D|-8--10-8--10-10---10----|-10--8--10----10----10-10-10---10------|--------|--------|
A|------------------------|---------------------------------------|--------|--------|
E|------------------------|---------------------------------------|--------|--------|


E|--------|--------|--------|--------|
B|--------|--------|--------|--------|
G|--------|--------|--------|--------|
D|--------|--------|--------|--------|
A|--------|--------|--------|--------|
E|--------|--------|--------|--------|





Track 6: matt bissonette

G|--------|--------|-------------|-------------|-------------|-------------|-------------|
D|--------|--------|-------------|-2-----3-----|-------------|-------------|-------------|
A|--------|--------|-3-----5-----|-------------|-------0-----|-------3-----|-3-----5-----|
E|--------|--------|-------------|-------------|-3-----------|-1-----------|-------------|


G|-------------|-------------|-------------|-------------|-------------|-------------|
D|-2-----3-----|-------------|-------------|-------------|-2-----3-----|-------------|
A|-------------|-------0-----|-------3-----|-3-----5-----|-------------|-------0-----|
E|-------------|-3-----------|-1-----------|-------------|-------------|-3-----------|


G|-------------|-------------|-------------|-------------|-------------|-------------|
D|-------------|-------------|-2-----3-----|-------------|-------------|-------------|
A|-------3-----|-3-----5-----|-------------|-------0-----|-------3-----|-2-----------|
E|-1-----------|-------------|-------------|-3-----------|-1-----------|-------3-----|


G|-------------|-------------|-------------|-------------|-------------|-------------|
D|-------------|-------------|-------------|-3-----2-----|-0-----2-----|-3-----2-----|
A|-3-----0-----|-2-----------|-------------|-------------|-------------|-------------|
E|-------------|-------4-----|-5-----3-----|-------------|-------------|-------------|


G|-------------|-------------|-------------|---------------------|---------------------|
D|-0-----2-----|-3-----2-----|-0-----2-----|---------------------|---------------------|
A|-------------|-------------|-------------|---------------------|---------------------|
E|-------------|-------------|-------------|-4----4---4----4-----|-3----3---3----3-----|


G|-------------|-------5-----|-------------|-------------|-------------|-------------|
D|-1-----0-----|-------------|-------------|-2-----3-----|-------------|-------------|
A|-------------|-3-----------|-3-----5-----|-------------|-------0-----|-------3-----|
E|-------------|-------------|-------------|-------------|-3-----------|-1-----------|


G|-------------|-------------|-------------|-------------|-------------|-------------|
D|-------------|-2-----3-----|-------------|-------------|-------------|-2-----3-----|
A|-3-----5-----|-------------|-------0-----|-------3-----|-3-----5-----|-------------|
E|-------------|-------------|-3-----------|-1-----------|-------------|-------------|


G|-------------|-------------|-------------|-------------|-------------|-------------|
D|-------------|-------------|-------------|-2-----3-----|-------------|-------------|
A|-------0-----|-------3-----|-3-----5-----|-------------|-------0-----|-------3-----|
E|-3-----------|-1-----------|-------------|-------------|-3-----------|-1-----------|


G|--------|--------|--------|--------|--------|--------|--------|--------|--------|
D|--------|--------|--------|--------|--------|--------|--------|--------|--------|
A|--------|--------|--------|--------|--------|--------|--------|--------|--------|
E|--------|--------|--------|--------|--------|--------|--------|--------|--------|


G|--------|--------|--------|--------|--------|--------|--------|--------|--------|
D|--------|--------|--------|--------|--------|--------|--------|--------|--------|
A|--------|--------|--------|--------|--------|--------|--------|--------|--------|
E|--------|--------|--------|--------|--------|--------|--------|--------|--------|


G|--------|--------|
D|--------|--------|
A|--------|--------|
E|--------|--------|