Menu:

 

Search:

 

joe satriani - sleepwalk:

 



Title: Sleepwalk
Artist: 
Album: Strange Beautiful Music
Author: Joe Satriani


Track 1: Guitar 1

E|-----------------------|-----------------------|-----------------|---------------------|
B|-------17--15--17--15--|-13----15--17--15--13--|-12----8---8-----|-8-----8---5----5----|
G|-----------------------|-----------------------|-----------------|----------------5----|
D|-----------------------|-----------------------|-----------------|----------------5----|
A|-----------------------|-----------------------|-----------------|---------------------|
E|-----------------------|-----------------------|-----------------|---------------------|


E|---------------------------|-------------|----------------12---|-----12-------12--------|
B|-----5----5---10---10--5---|------6------|-3-----3----3--------|--------------13--------|
G|-----5----5---9----9---5---|------5------|-4-----4----4---12---|-----12---14--------16--|
D|-----5----5---10---10--7---|------6------|-5-----5----5---10---|-----10-------14--------|
A|---------------------------|-------------|---------------------|------------------------|
E|---------------------------|-------------|---------------------|------------------------|


E|----------------|-------------|------------------------|------------------------|
B|---------8------|-8------8----|-----8----8---5-----5---|-----5---1-----1----1---|
G|-----16--5------|-7------9----|-----9----9---5-----5---|-----5---1-----1----1---|
D|---------7------|-9------10---|-----10---10--7-----7---|-----7---3-----3----3---|
A|----------------|-------------|------------------------|------------------------|
E|----------------|-------------|------------------------|------------------------|


E|-------------|------------------------|------------------------|-------------|----------------12--|
B|-3------8----|-----8----8---5-----5---|-----5---1-----1----1---|-3------5----|-------5----5---13--|
G|-4------9----|-----9----9---5-----5---|-----5---1-----1----1---|-4------5----|-------5----5---14--|
D|-5------10---|-----10---10--7-----7---|-----7---3-----3----3---|-5------5----|-------7----7-------|
A|-------------|------------------------|------------------------|-------------|--------------------|
E|-------------|------------------------|------------------------|-------------|--------------------|


E|-----12--8-----8----8---|-10-----8----|-------8-----8---|-----8---5-----5----5---|
B|-----13--10----10---10--|-12-----8----|-------10----10--|-----10--6-----6----6---|
G|-----14--10----10---10--|-12-----9----|-------9-----9---|-----9---5-----5----5---|
D|------------------------|-------------|-----------------|------------------------|
A|------------------------|-------------|-----------------|------------------------|
E|------------------------|-------------|-----------------|------------------------|


E|-7-----------|------------------------|------------------------|-------------|------------------------|
B|-8------8----|-----8----8---5-----5---|-----5---1-----1----1---|-3------8----|-----8----8---5-----5---|
G|-7------9----|-----9----9---5-----5---|-----5---1-----1----1---|-4------9----|-----9----9---5-----5---|
D|--------10---|-----10---10--7-----7---|-----7---3-----3----3---|-5------10---|-----10---10--7-----7---|
A|-------------|------------------------|------------------------|-------------|------------------------|
E|-------------|------------------------|------------------------|-------------|------------------------|


E|------------------------|-------------|----------------12--|-----12--8-----8----8---|
B|-----5---1-----1----1---|-3------5----|-------5----5---13--|-----13--10----10---10--|
G|-----5---1-----1----1---|-4------5----|-------5----5---14--|-----14--10----10---10--|
D|-----7---3-----3----3---|-5------5----|-------7----7-------|------------------------|
A|------------------------|-------------|--------------------|------------------------|
E|------------------------|-------------|--------------------|------------------------|


E|-10-----8----|-----8----8---5-----5---|-----5---8------|-------------------8----|
B|-12-----8----|-----8----8---6-----6---|-----6---8------|-11----11--13--11--10---|
G|-12-----9----|-----9----9---5-----5---|-----5---9------|-------------------10---|
D|-------------|------------------------|----------------|------------------------|
A|-------------|------------------------|----------------|------------------------|
E|-------------|------------------------|----------------|------------------------|


E|-------8-----8---|-----8---4------|----------------8----|-8---3---------------|---------8-----------|
B|-------10----10--|-----10--6------|----------------8----|-8---5-----5-----5---|-----5---8-----11----|
G|-------10----10--|-----10--5------|-5----5---10----9----|-9---------5-----5---|-----5---9-----------|
D|-----------------|----------------|----------------10---|-10------------------|---------10----------|
A|-----------------|----------------|---------------------|---------------------|---------------------|
E|-----------------|----------------|---------------------|---------------------|---------------------|


E|--------8----|-------8-----8---|-----8---4-----------|--------3----|-----3----3---6-----6---|
B|-11-----10---|-------10----10--|-----10--6-----6-----|--------3----|-----3----3---6-----6---|
G|--------10---|-------10----10--|-----10--5-----------|-5------4----|-----4----4---7-----7---|
D|-------------|-----------------|---------------------|-------------|------------------------|
A|-------------|-----------------|---------------------|-------------|------------------------|
E|-------------|-----------------|---------------------|-------------|------------------------|


E|-----6---3------|-------------|------------------------|------------------------|
B|-----6---3------|-5------8----|-----8----8---5-----5---|-----5---1-----1----1---|
G|-----7---4------|-5------9----|-----9----9---5-----5---|-----5---1-----1----1---|
D|----------------|-7------10---|-----10---10--7-----7---|-----7---3-----3----3---|
A|----------------|-------------|------------------------|------------------------|
E|----------------|-------------|------------------------|------------------------|


E|-------------|------------------------|------------------------|-------------|-------------|
B|-3------8----|-----8----8---5-----5---|-----5---1-----1----1---|-3------5----|-------5-----|
G|-4------9----|-----9----9---5-----5---|-----5---1-----1----1---|-4------5----|-------5-----|
D|-5------10---|-----10---10--7-----7---|-----7---3-----3----3---|-5------5----|-------7-----|
A|-------------|------------------------|------------------------|-------------|-------------|
E|-------------|------------------------|------------------------|-------------|-------------|


E|-------------|--------15---|-----------------------|------15-----|-15----15------12--12---|
B|------6------|-------------|-----17--15--13--12----|------12-----|-12----15--13--12--10---|
G|------5------|-------------|-----------------------|-------------|------------------------|
D|------6------|-------------|-----------------------|-------------|------------------------|
A|-------------|-------------|-----------------------|-------------|------------------------|
E|-------------|-------------|-----------------------|-------------|------------------------|


E|---------------------------|------------------------|------------------|
B|-----------10--13--12------|------------------------|------------------|
G|-----------------------14--|-----7---7---9----9-----|-9----------------|
D|---------------------------|------------------------|------------------|
A|---------------------------|------------------------|------------------|
E|---------------------------|------------------------|------------------|





Track 2: Guitar 2

E|------------------------|-----------------|-----------------|---------------------|
B|-----12-----------------|-----------------|-----------------|---------------------|
G|-----------14--12--9----|-7---5-----5-----|-5----4----5-----|-5-----5---7---------|
D|------------------------|-----------------|-----------------|---------------------|
A|------------------------|-----------------|-----------------|---------------------|
E|------------------------|-----------------|-----------------|---------------------|


E|--------|--------|--------|--------|--------|--------|--------|--------|--------|
B|--------|--------|--------|--------|--------|--------|--------|--------|--------|
G|--------|--------|--------|--------|--------|--------|--------|--------|--------|
D|--------|--------|--------|--------|--------|--------|--------|--------|--------|
A|--------|--------|--------|--------|--------|--------|--------|--------|--------|
E|--------|--------|--------|--------|--------|--------|--------|--------|--------|


E|--------|--------|--------|--------|--------|--------|--------|--------|--------|
B|--------|--------|--------|--------|--------|--------|--------|--------|--------|
G|--------|--------|--------|--------|--------|--------|--------|--------|--------|
D|--------|--------|--------|--------|--------|--------|--------|--------|--------|
A|--------|--------|--------|--------|--------|--------|--------|--------|--------|
E|--------|--------|--------|--------|--------|--------|--------|--------|--------|


E|--------|--------|--------|--------|--------|--------|--------|--------|--------|
B|--------|--------|--------|--------|--------|--------|--------|--------|--------|
G|--------|--------|--------|--------|--------|--------|--------|--------|--------|
D|--------|--------|--------|--------|--------|--------|--------|--------|--------|
A|--------|--------|--------|--------|--------|--------|--------|--------|--------|
E|--------|--------|--------|--------|--------|--------|--------|--------|--------|


E|--------|--------|--------|--------|--------|--------|--------|--------|--------|
B|--------|--------|--------|--------|--------|--------|--------|--------|--------|
G|--------|--------|--------|--------|--------|--------|--------|--------|--------|
D|--------|--------|--------|--------|--------|--------|--------|--------|--------|
A|--------|--------|--------|--------|--------|--------|--------|--------|--------|
E|--------|--------|--------|--------|--------|--------|--------|--------|--------|


E|--------|--------|--------|--------|--------|--------|--------|--------|--------|
B|--------|--------|--------|--------|--------|--------|--------|--------|--------|
G|--------|--------|--------|--------|--------|--------|--------|--------|--------|
D|--------|--------|--------|--------|--------|--------|--------|--------|--------|
A|--------|--------|--------|--------|--------|--------|--------|--------|--------|
E|--------|--------|--------|--------|--------|--------|--------|--------|--------|


E|--------|--------|--------|--------|--------|--------|---------------------|------------------|
B|--------|--------|--------|--------|--------|--------|-----------5-----12--|------15----------|
G|--------|--------|--------|--------|--------|--------|-----0-----0-----0---|------2-----5-----|
D|--------|--------|--------|--------|--------|--------|---------------------|------------------|
A|--------|--------|--------|--------|--------|--------|---------------------|------------------|
E|--------|--------|--------|--------|--------|--------|---------------------|------------------|


E|---------------------|--------------------|--------|--------|
B|-15----17----15--13--|-12--10--8----8-----|--------|--------|
G|-14----16----16------|--------------------|--------|--------|
D|---------------------|--------------------|--------|--------|
A|---------------------|--------------------|--------|--------|
E|---------------------|--------------------|--------|--------|





Track 3: Guitar 3

E|--------|--------|-----------------|------------------------------|--------|--------|
B|--------|--------|-----------------|------------------------------|--------|--------|
G|--------|--------|-------9---------|------------------------------|--------|--------|
D|-2------|-2------|-2---------------|-2----5--5---5---7---9--------|--------|--------|
A|--------|--------|------------7----|-7----------------------------|--------|--------|
E|--------|--------|-----------------|------------------------------|--------|--------|


E|--------|--------|--------|--------|--------|--------|--------|--------|--------|
B|--------|--------|--------|--------|--------|--------|--------|--------|--------|
G|--------|--------|--------|--------|--------|--------|--------|--------|--------|
D|--------|--------|--------|--------|--------|--------|--------|--------|--------|
A|--------|--------|--------|--------|--------|--------|--------|--------|--------|
E|--------|--------|--------|--------|--------|--------|--------|--------|--------|


E|--------|--------|--------|--------|--------|--------|--------|--------|--------|
B|--------|--------|--------|--------|--------|--------|--------|--------|--------|
G|--------|--------|--------|--------|--------|--------|--------|--------|--------|
D|--------|--------|--------|--------|--------|--------|--------|--------|--------|
A|--------|--------|--------|--------|--------|--------|--------|--------|--------|
E|--------|--------|--------|--------|--------|--------|--------|--------|--------|


E|--------|--------|--------|--------|--------|--------|--------|--------|--------|
B|--------|--------|--------|--------|--------|--------|--------|--------|--------|
G|--------|--------|--------|--------|--------|--------|--------|--------|--------|
D|--------|--------|--------|--------|--------|--------|--------|--------|--------|
A|--------|--------|--------|--------|--------|--------|--------|--------|--------|
E|--------|--------|--------|--------|--------|--------|--------|--------|--------|


E|--------|--------|--------|--------|--------|--------|--------|--------|--------|
B|--------|--------|--------|--------|--------|--------|--------|--------|--------|
G|--------|--------|--------|--------|--------|--------|--------|--------|--------|
D|--------|--------|--------|--------|--------|--------|--------|--------|--------|
A|--------|--------|--------|--------|--------|--------|--------|--------|--------|
E|--------|--------|--------|--------|--------|--------|--------|--------|--------|


E|--------|--------|--------|--------|--------|--------|--------|--------|--------|
B|--------|--------|--------|--------|--------|--------|--------|--------|--------|
G|--------|--------|--------|--------|--------|--------|--------|--------|--------|
D|--------|--------|--------|--------|--------|--------|--------|--------|--------|
A|--------|--------|--------|--------|--------|--------|--------|--------|--------|
E|--------|--------|--------|--------|--------|--------|--------|--------|--------|


E|--------|--------|--------|--------|--------|--------|--------|--------|--------|
B|--------|--------|--------|--------|--------|--------|--------|--------|--------|
G|--------|--------|--------|--------|--------|--------|--------|--------|--------|
D|--------|--------|--------|--------|--------|--------|--------|--------|--------|
A|--------|--------|--------|--------|--------|--------|--------|--------|--------|
E|--------|--------|--------|--------|--------|--------|--------|--------|--------|


E|--------|
B|--------|
G|--------|
D|--------|
A|--------|
E|--------|





Track 4: Guitar 6 & 7

E|--------|--------|--------|-------------|-----3-----------------5---|---------------1-----------|
B|--------|--------|--------|-------------|-----5-----------------5---|---------------1-----------|
G|--------|--------|--------|-------------|-----5-----------------5---|---------------1-----------|
D|--------|--------|--------|-------------|-----5-----------------7---|---------------3-----------|
A|--------|--------|--------|-------------|-----3-----------------7---|---------------3-----------|
E|--------|--------|--------|-------------|-----------------------5---|---------------1-----------|


E|-------3----------------|-----3-----------------5---|---------------1-----------|
B|-------3----------------|-----5-----------------5---|---------------1-----------|
G|-------4----------------|-----5-----------------5---|---------------2-----------|
D|-------5----------------|-----5-----------------7---|---------------3-----------|
A|-------5----------------|-----3-----------------7---|---------------3-----------|
E|-------3----------------|-----------------------5---|---------------1-----------|


E|-------3----------------|-----3-----------------5---|---------------1-----------|
B|-------3----------------|-----5-----------------5---|---------------1-----------|
G|-------4----------------|-----5-----------------5---|---------------1-----------|
D|-------5----------------|-----5-----------------7---|---------------3-----------|
A|-------5----------------|-----3-----------------7---|---------------3-----------|
E|-------3----------------|-----------------------5---|---------------1-----------|


E|-------3----------------|-----3-----------------5---|---------------1-----------|
B|-------3----------------|-----5-----------------5---|---------------1-----------|
G|-------4----------------|-----5-----------------5---|---------------1-----------|
D|-------5----------------|-----5-----------------7---|---------------3-----------|
A|-------5----------------|-----3-----------------7---|---------------3-----------|
E|-------3----------------|-----------------------5---|---------------1-----------|


E|-------3----------------|-----3-----------------5---|---------------1-----------|
B|-------3----------------|-----5-----------------5---|---------------1-----------|
G|-------4----------------|-----5-----------------5---|---------------2-----------|
D|-------5----------------|-----5-----------------7---|---------------3-----------|
A|-------5----------------|-----3-----------------7---|---------------3-----------|
E|-------3----------------|-----------------------5---|---------------1-----------|


E|-------3----------------|-----3-----------------5---|-------------1---1---1---1---1---|
B|-------3----------------|-----5-----------------5---|-------------1---1---1---1---1---|
G|-------4----------------|-----5-----------------5---|-------------2---2---2---2---2---|
D|-------5----------------|-----5-----------------7---|-------------3---3---3---3---3---|
A|-------5----------------|-----3-----------------7---|-------------3---3---3---3---3---|
E|-------3----------------|-----------------------5---|-------------1---1---1---1---1---|


E|-3-----3----------------|-----3-----------------5---|---------------1-----------|
B|-3-----3----------------|-----5-----------------5---|---------------1-----------|
G|-4-----4----------------|-----5-----------------5---|---------------1-----------|
D|-5-----5----------------|-----5-----------------7---|---------------3-----------|
A|-5-----5----------------|-----3-----------------7---|---------------3-----------|
E|-3-----3----------------|-----------------------5---|---------------1-----------|


E|-------3----------------|-----3-----------------5---|---------------1-----------|
B|-------3----------------|-----5-----------------5---|---------------1-----------|
G|-------4----------------|-----5-----------------5---|---------------1-----------|
D|-------5----------------|-----5-----------------7---|---------------3-----------|
A|-------5----------------|-----3-----------------7---|---------------3-----------|
E|-------3----------------|-----------------------5---|---------------1-----------|


E|-------3----------------|-----3-----------------5---|---------------1-----------|
B|-------3----------------|-----5-----------------5---|---------------1-----------|
G|-------4----------------|-----5-----------------5---|---------------2-----------|
D|-------5----------------|-----5-----------------7---|---------------3-----------|
A|-------5----------------|-----3-----------------7---|---------------3-----------|
E|-------3----------------|-----------------------5---|---------------1-----------|


E|-------3----------------|-----3-----------------1---|---------------3-----------|
B|-------3----------------|-----5-----------------1---|---------------5-----------|
G|-------4----------------|-----5-----------------2---|---------------5-----------|
D|-------5----------------|-----5-----------------3---|---------------5-----------|
A|-------5----------------|-----3-----------------3---|---------------3-----------|
E|-------3----------------|-----------------------1---|---------------------------|


E|-3---3---3---3---3---3--------|-----1-----------------1---|---------------1-----------|
B|-5---5---5---5---5---5--------|-----1-----------------1---|---------------1-----------|
G|-3---3---3---3---3---3--------|-----2-----------------2---|---------------1-----------|
D|-5---5---5---5---5---5--------|-----3-----------------3---|---------------3-----------|
A|-3---3---3---3---3---3--------|-----3-----------------3---|---------------3-----------|
E|------------------------------|-----1-----------------1---|---------------1-----------|


E|-------1----------------|-----3-----------------3---|---------------3-----------|
B|-------1----------------|-----5-----------------5---|---------------5-----------|
G|-------1----------------|-----5-----------------5---|---------------3-----------|
D|-------3----------------|-----5-----------------5---|---------------5-----------|
A|-------3----------------|-----3-----------------3---|---------------3-----------|
E|-------1----------------|---------------------------|---------------------------|


E|-------3----------------|-----1-----------------1---|---------------1-----------|
B|-------5----------------|-----1-----------------1---|---------------1-----------|
G|-------3----------------|-----2-----------------2---|---------------1-----------|
D|-------5----------------|-----3-----------------3---|---------------3-----------|
A|-------3----------------|-----3-----------------3---|---------------3-----------|
E|------------------------|-----1-----------------1---|---------------1-----------|


E|-------1----------------|-----3-----------6-------6-------|-6-------3-----------3-----------|
B|-------1----------------|-----3-----------6-------6-------|-6-------3-----------3-----------|
G|-------1----------------|-----4-----------7-------7-------|-7-------4-----------4-----------|
D|-------3----------------|-----5-----------8-------8-------|-8-------5-----------5-----------|
A|-------3----------------|-----5-----------8-------8-------|-8-------5-----------5-----------|
E|-------1----------------|-----3-----------6-------6-------|-6-------3-----------3-----------|


E|------------------------------|-----3-----------------5---|---------------1-----------|
B|------------------------------|-----5-----------------5---|---------------1-----------|
G|------------------------------|-----5-----------------5---|---------------1-----------|
D|------------------------------|-----5-----------------7---|---------------3-----------|
A|------------------------------|-----3-----------------7---|---------------3-----------|
E|-5---5---5---7---7---7--------|-----------------------5---|---------------1-----------|


E|-------3----------------|-----3-----------------5---|---------------1-----------|
B|-------3----------------|-----5-----------------5---|---------------1-----------|
G|-------4----------------|-----5-----------------5---|---------------1-----------|
D|-------5----------------|-----5-----------------7---|---------------3-----------|
A|-------5----------------|-----3-----------------7---|---------------3-----------|
E|-------3----------------|-----------------------5---|---------------1-----------|


E|-------3----------------|-------------|------------------------|----------15---------|
B|-------3----------------|-------------|-------------------13---|-13---12-------------|
G|-------4----------------|-------9-----|------10---12--13-------|---------------------|
D|-------5----------------|-------------|------------------------|---------------------|
A|-------5----------------|-------------|------------------------|---------------------|
E|-------3----------------|-------------|------------------------|---------------------|


E|--------|--------|--------|--------|--------|--------|
B|--------|--------|--------|--------|--------|--------|
G|--------|--------|--------|--------|--------|--------|
D|--------|--------|--------|--------|--------|--------|
A|--------|--------|--------|--------|--------|--------|
E|--------|--------|--------|--------|--------|--------|





Track 5: Guitar 5

E|--------|--------|--------|-------------|--------------5--------5---|---------------------------|
B|--------|--------|--------|-------------|-5---5--------5----5---5---|-----------1---------------|
G|--------|--------|--------|-------------|-5---5--------5----5-------|------1----1-------1-------|
D|--------|--------|--------|-------------|---------------------------|------3------------3-------|
A|--------|--------|--------|-------------|---------------------------|---------------------------|
E|--------|--------|--------|-------------|---------------------------|---------------------------|


E|-----------15--17--24---|-19--19----------|---------------------------|------------------|
B|-3----------------------|-----------------|---------------------------|-------------13---|
G|-4----------------------|-----------------|------2----2-------2-------|-4----------------|
D|-5----------------------|-----------------|------3----3-------3-------|-5----------------|
A|------------------------|-----------------|---------------------------|------------------|
E|------------------------|-----------------|---------------------------|------------------|


E|---------------------|------------------------|----------------------8----|-----8------------------|
B|-13---8----8----8----|-8--------------6---8---|-9----8-------6------------|--------------8-----8---|
G|---------------------|----------------7---9---|-10---9-------7------------|------------------------|
D|---------------------|------------------------|---------------------------|------------------------|
A|---------------------|----------------8---10--|-11---10------8------------|------------------------|
E|---------------------|------------------------|---------------------------|------------------------|


E|---------------------------|--------------------------------|-------------------------------|
B|-----8-------------6---8---|-9----8-------6-------6--8--8---|---------8---------------------|
G|-------------------7---9---|-10---9-------------------------|-----9------9------------------|
D|---------------------------|--------------------------------|---------------10-----------10-|
A|-------------------8---10--|-11---10------------------------|-------------------12----12----|
E|---------------------------|--------------------------------|-------------------------------|


E|----------8--12-8----------------------|---------------------------|---------15--17--24---19--19--|
B|----10-12------------------------------|---------------------------|------------------------------|
G|-9-------------------------------------|-9----9-------9-------9----|------------------------------|
D|-----------------------10--10--10------|---------------------------|------------------------------|
A|---------------------------------------|-10---10------10------10---|------------------------------|
E|---------------------------------------|---------------------------|------------------------------|


E|---------------------------|------------------|------------------------|---------------------------|
B|---------------------------|-------------13---|-----13---8---8-----8---|-----8-------------6---8---|
G|-----------2---2---2---2---|-4----------------|------------------------|-------------------7---9---|
D|-----------3---3---3---3---|-5----------------|------------------------|---------------------------|
A|---------------------------|------------------|------------------------|-------------------8---10--|
E|---------------------------|------------------|------------------------|---------------------------|


E|----------------------8----|-----8-------8------------|---------------------------|
B|-9----8-------6------------|----------8-----8-----8---|-----8-------------6---8---|
G|-10---9-------7------------|--------------------------|-------------------7---9---|
D|---------------------------|--------------------------|---------------------------|
A|-11---10------8------------|--------------------------|-------------------8---10--|
E|---------------------------|--------------------------|---------------------------|


E|--------------------------------|-------------------------------|---------1217------------------------|
B|-9----8-------6-------6--8--8---|---------8---------------------|-------13----13----------------------|
G|-10---9-------7-----------------|-----9------9------------------|-9---14------------------------------|
D|--------------------------------|---------------10-----------10-|---------------------10--10--10------|
A|-11---10------8-----------------|-------------------12----12----|-------------------------------------|
E|--------------------------------|-------------------------------|-------------------------------------|


E|---------------------------|---------------------------|-------------|------------------------|
B|---------------------------|---------------------------|-------------|----------------10------|
G|-9----9-------9------------|--------------2----2-------|-2----9------|------------------------|
D|----------------------10---|-10--10---10--3----3-------|-3----10-----|------------10----------|
A|-10---10------10-----------|---------------------------|-------------|------------------------|
E|---------------------------|---------------------------|-------------|------------------------|


E|--------------10-12---12--12--|-----10-8-----------------------|-10-12---10--10---8--10---------|
B|-10--10-----------------------|-----------9-------9---9--------|------------------------8-------|
G|------------------------------|--------------------------------|--------------------------------|
D|------------------------------|--------------------------------|--------------------------------|
A|------------------------------|--------------------------------|--------------------------------|
E|------------------------------|--------------------------------|--------------------------------|


E|--------------------------|--------------------8--------8-----|--------------------------------------|
B|-8---8----------10----10--|-----------8-----11----8--11----8--|-11-8-------------------------10------|
G|----------8--9------------|-----8--9--------------------------|-------10-8-----10-10-8---------------|
D|--------------------------|-----------------------------------|-------------10----------10-----------|
A|--------------------------|-----------------------------------|--------------------------------------|
E|--------------------------|-----------------------------------|--------------------------------------|


E|--------------10-12---10--10--|-----8--10----------------------|-10-12---10--10---8--------------|
B|-10--10-----------------------|-----------9-------9---9--------|-------------------------8-------|
G|------------------------------|--------------------------------|-------------------------7-------|
D|------------------------------|--------------------------------|---------------------------------|
A|------------------------------|--------------------------------|---------------------------------|
E|------------------------------|--------------------------------|---------------------------------|


E|---------------------------|----------------|-----11-8----------------------------------|
B|-8---8--------11---11------|-11------8------|-----------11-8----------------------------|
G|-7---7--------10---10------|-10------7------|-----------------10-8----------------------|
D|---------------------------|----------------|-----------------------10-8----------------|
A|---------------------------|----------------|-----------------------------10-8--7-------|
E|---------------------------|----------------|-------------------------------------------|


E|------------------------|---------------------------|----------------------8----|
B|-----13---8---8-----8---|-----8-------------6---8---|-9----8-------6------------|
G|------------------------|-------------------7---9---|-10---9-------7------------|
D|------------------------|---------------------------|---------------------------|
A|------------------------|-------------------8---10--|-11---10------8------------|
E|------------------------|---------------------------|---------------------------|


E|------------------------|---------------------------|--------------------------------|
B|----------8---8-----8---|-----8-------------6---8---|-9----8-------6-------6--8--8---|
G|------------------------|-------------------7---9---|-10---9-------7-----------------|
D|------------------------|---------------------------|--------------------------------|
A|------------------------|-------------------8---10--|-11---10------8-----------------|
E|------------------------|---------------------------|--------------------------------|


E|-------------------------|---------------------------|----------------15--17-------|
B|--------8----------------|---------------------------|-----------------------------|
G|-----9-----9-------------|---------------------------|-9----9--8--7----------------|
D|---------------10--------|-----------10--10--10------|-----------------------------|
A|-------------------12----|---------------------------|-10---10-9--8----------------|
E|-------------------------|---------------------------|-----------------------------|


E|--------|--------|--------|--------|--------|--------|
B|--------|--------|--------|--------|--------|--------|
G|--------|--------|--------|--------|--------|--------|
D|--------|--------|--------|--------|--------|--------|
A|--------|--------|--------|--------|--------|--------|
E|--------|--------|--------|--------|--------|--------|





Track 6: Guitar 4

E|--------|--------|--------|--------|--------|--------|--------|--------|--------|
B|--------|--------|--------|--------|--------|--------|--------|--------|--------|
G|--------|--------|--------|--------|--------|--------|--------|--------|--------|
D|--------|--------|--------|--------|--------|--------|--------|--------|--------|
A|--------|--------|--------|--------|--------|--------|--------|--------|--------|
E|--------|--------|--------|--------|--------|--------|--------|--------|--------|


E|--------|--------|--------|--------|--------|--------|--------|--------|--------|
B|--------|--------|--------|--------|--------|--------|--------|--------|--------|
G|--------|--------|--------|--------|--------|--------|--------|--------|--------|
D|--------|--------|--------|--------|--------|--------|--------|--------|--------|
A|--------|--------|--------|--------|--------|--------|--------|--------|--------|
E|--------|--------|--------|--------|--------|--------|--------|--------|--------|


E|--------|--------|--------|--------|--------|--------|--------|--------|--------|
B|--------|--------|--------|--------|--------|--------|--------|--------|--------|
G|--------|--------|--------|--------|--------|--------|--------|--------|--------|
D|--------|--------|--------|--------|--------|--------|--------|--------|--------|
A|--------|--------|--------|--------|--------|--------|--------|--------|--------|
E|--------|--------|--------|--------|--------|--------|--------|--------|--------|


E|--------|--------|--------|--------|--------|--------|--------|--------|--------|
B|--------|--------|--------|--------|--------|--------|--------|--------|--------|
G|--------|--------|--------|--------|--------|--------|--------|--------|--------|
D|--------|--------|--------|--------|--------|--------|--------|--------|--------|
A|--------|--------|--------|--------|--------|--------|--------|--------|--------|
E|--------|--------|--------|--------|--------|--------|--------|--------|--------|


E|--------|--------|--------|--------|--------|--------|--------|--------|--------|
B|--------|--------|--------|--------|--------|--------|--------|--------|--------|
G|--------|--------|--------|--------|--------|--------|--------|--------|--------|
D|--------|--------|--------|--------|--------|--------|--------|--------|--------|
A|--------|--------|--------|--------|--------|--------|--------|--------|--------|
E|--------|--------|--------|--------|--------|--------|--------|--------|--------|


E|--------|--------|--------|--------|--------|--------|--------|--------|--------|
B|--------|--------|--------|--------|--------|--------|--------|--------|--------|
G|--------|--------|--------|--------|--------|--------|--------|--------|--------|
D|--------|--------|--------|--------|--------|--------|--------|--------|--------|
A|--------|--------|--------|--------|--------|--------|--------|--------|--------|
E|--------|--------|--------|--------|--------|--------|--------|--------|--------|


E|----------------24--19--|-----19----------|------------------|-------------|----------------|
B|------------------------|-----------------|------------------|-------------|----------------|
G|------------------------|-----------------|------------------|-------------|----------------|
D|------------2---2-------|-----------------|------5-----17----|-17-----17---|-----12-----14--|
A|------------------------|-----------------|------------------|-------------|----------------|
E|------------------------|-----------------|------------------|-------------|----------------|


E|---------------------|------------------|
B|---------------------|------------------|
G|---------------------|------------------|
D|------14--12---12----|-14---------------|
A|---------------------|------------------|
E|---------------------|------------------|





Track 7: Guitar 1

E|--------|--------|--------|--------|--------|--------|--------|--------|--------|
B|--------|--------|--------|--------|--------|--------|--------|--------|--------|
G|--------|--------|--------|--------|--------|--------|--------|--------|--------|
D|--------|--------|--------|--------|--------|--------|--------|--------|--------|
A|--------|--------|--------|--------|--------|--------|--------|--------|--------|
E|--------|--------|--------|--------|--------|--------|--------|--------|--------|


E|--------|--------|--------|--------|--------|--------|--------|--------|--------|
B|--------|--------|--------|--------|--------|--------|--------|--------|--------|
G|--------|--------|--------|--------|--------|--------|--------|--------|--------|
D|--------|--------|--------|--------|--------|--------|--------|--------|--------|
A|--------|--------|--------|--------|--------|--------|--------|--------|--------|
E|--------|--------|--------|--------|--------|--------|--------|--------|--------|


E|--------|--------|--------|--------|--------|--------|--------|--------|--------|
B|--------|--------|--------|--------|--------|--------|--------|--------|--------|
G|--------|--------|--------|--------|--------|--------|--------|--------|--------|
D|--------|--------|--------|--------|--------|--------|--------|--------|--------|
A|--------|--------|--------|--------|--------|--------|--------|--------|--------|
E|--------|--------|--------|--------|--------|--------|--------|--------|--------|


E|--------|--------|--------|--------|--------|--------|--------|--------|--------|
B|--------|--------|--------|--------|--------|--------|--------|--------|--------|
G|--------|--------|--------|--------|--------|--------|--------|--------|--------|
D|--------|--------|--------|--------|--------|--------|--------|--------|--------|
A|--------|--------|--------|--------|--------|--------|--------|--------|--------|
E|--------|--------|--------|--------|--------|--------|--------|--------|--------|


E|--------|--------|--------|--------|--------|--------|--------|--------|--------|
B|--------|--------|--------|--------|--------|--------|--------|--------|--------|
G|--------|--------|--------|--------|--------|--------|--------|--------|--------|
D|--------|--------|--------|--------|--------|--------|--------|--------|--------|
A|--------|--------|--------|--------|--------|--------|--------|--------|--------|
E|--------|--------|--------|--------|--------|--------|--------|--------|--------|


E|--------|--------|--------|--------|--------|--------|--------|--------|--------|
B|--------|--------|--------|--------|--------|--------|--------|--------|--------|
G|--------|--------|--------|--------|--------|--------|--------|--------|--------|
D|--------|--------|--------|--------|--------|--------|--------|--------|--------|
A|--------|--------|--------|--------|--------|--------|--------|--------|--------|
E|--------|--------|--------|--------|--------|--------|--------|--------|--------|


E|-------------|--------|--------|--------|--------|--------|--------|
B|-------------|--------|--------|--------|--------|--------|--------|
G|-------------|--------|--------|--------|--------|--------|--------|
D|-------------|--------|--------|--------|--------|--------|--------|
A|-------------|--------|--------|--------|--------|--------|--------|
E|-------------|--------|--------|--------|--------|--------|--------|





Track 8: Guitar 1

E|--------|--------|--------|--------|--------|--------|--------|--------|--------|
B|--------|--------|--------|--------|--------|--------|--------|--------|--------|
G|--------|--------|--------|--------|--------|--------|--------|--------|--------|
D|--------|--------|--------|--------|--------|--------|--------|--------|--------|
A|--------|--------|--------|--------|--------|--------|--------|--------|--------|
E|--------|--------|--------|--------|--------|--------|--------|--------|--------|


E|--------|--------|--------|--------|--------|--------|--------|--------|--------|
B|--------|--------|--------|--------|--------|--------|--------|--------|--------|
G|--------|--------|--------|--------|--------|--------|--------|--------|--------|
D|--------|--------|--------|--------|--------|--------|--------|--------|--------|
A|--------|--------|--------|--------|--------|--------|--------|--------|--------|
E|--------|--------|--------|--------|--------|--------|--------|--------|--------|


E|--------|--------|--------|--------|--------|--------|--------|--------|--------|
B|--------|--------|--------|--------|--------|--------|--------|--------|--------|
G|--------|--------|--------|--------|--------|--------|--------|--------|--------|
D|--------|--------|--------|--------|--------|--------|--------|--------|--------|
A|--------|--------|--------|--------|--------|--------|--------|--------|--------|
E|--------|--------|--------|--------|--------|--------|--------|--------|--------|


E|--------|--------|--------|--------|--------|--------|--------|--------|--------|
B|--------|--------|--------|--------|--------|--------|--------|--------|--------|
G|--------|--------|--------|--------|--------|--------|--------|--------|--------|
D|--------|--------|--------|--------|--------|--------|--------|--------|--------|
A|--------|--------|--------|--------|--------|--------|--------|--------|--------|
E|--------|--------|--------|--------|--------|--------|--------|--------|--------|


E|--------|--------|--------|--------|--------|--------|--------|--------|--------|
B|--------|--------|--------|--------|--------|--------|--------|--------|--------|
G|--------|--------|--------|--------|--------|--------|--------|--------|--------|
D|--------|--------|--------|--------|--------|--------|--------|--------|--------|
A|--------|--------|--------|--------|--------|--------|--------|--------|--------|
E|--------|--------|--------|--------|--------|--------|--------|--------|--------|


E|--------|--------|--------|--------|--------|--------|--------|--------|--------|
B|--------|--------|--------|--------|--------|--------|--------|--------|--------|
G|--------|--------|--------|--------|--------|--------|--------|--------|--------|
D|--------|--------|--------|--------|--------|--------|--------|--------|--------|
A|--------|--------|--------|--------|--------|--------|--------|--------|--------|
E|--------|--------|--------|--------|--------|--------|--------|--------|--------|


E|--------|--------|--------|--------|--------|------------------|------------------|
B|--------|--------|--------|--------|--------|------8-----------|-8----------------|
G|--------|--------|--------|--------|--------|------14----16----|------------------|
D|--------|--------|--------|--------|--------|------------------|------------------|
A|--------|--------|--------|--------|--------|------------------|------------------|
E|--------|--------|--------|--------|--------|------------------|------------------|





Track 9: Untitled

G|--------|--------|--------|--------|--------|--------|--------|--------|--------|
D|--------|--------|--------|--------|--------|--------|--------|--------|--------|
A|--------|--------|--------|--------|--------|--------|--------|--------|--------|
E|--------|--------|--------|--------|--------|--------|--------|--------|--------|


G|--------|--------|--------|--------|--------|--------|--------|--------|--------|
D|--------|--------|--------|--------|--------|--------|--------|--------|--------|
A|--------|--------|--------|--------|--------|--------|--------|--------|--------|
E|--------|--------|--------|--------|--------|--------|--------|--------|--------|


G|--------|--------|--------|--------|--------|--------|--------|--------|--------|
D|--------|--------|--------|--------|--------|--------|--------|--------|--------|
A|--------|--------|--------|--------|--------|--------|--------|--------|--------|
E|--------|--------|--------|--------|--------|--------|--------|--------|--------|


G|--------|--------|--------|--------|--------|--------|--------|--------|--------|
D|--------|--------|--------|--------|--------|--------|--------|--------|--------|
A|--------|--------|--------|--------|--------|--------|--------|--------|--------|
E|--------|--------|--------|--------|--------|--------|--------|--------|--------|


G|--------|--------|--------|--------|--------|--------|--------|--------|--------|
D|--------|--------|--------|--------|--------|--------|--------|--------|--------|
A|--------|--------|--------|--------|--------|--------|--------|--------|--------|
E|--------|--------|--------|--------|--------|--------|--------|--------|--------|


G|--------|--------|--------|--------|--------|--------|--------|--------|--------|
D|--------|--------|--------|--------|--------|--------|--------|--------|--------|
A|--------|--------|--------|--------|--------|--------|--------|--------|--------|
E|--------|--------|--------|--------|--------|--------|--------|--------|--------|


G|--------|--------|--------|--------|--------|--------|--------|
D|--------|--------|--------|--------|--------|--------|--------|
A|--------|--------|--------|--------|--------|--------|--------|
E|--------|--------|--------|--------|--------|--------|--------|