Menu:

 

Search:

 

joe satriani - satch boogie:

 



Title: Satch Boogie
Artist: 
Album: Surfing With The Alien
Author: Joe Satriani


Track 1: Ibanez JS Guitar

E|--------|--------|--------|-----------------------|---------------------------|-------------------------------------|
B|--------|--------|--------|-----------------------|---------------------------|-------------------------------------|
G|--------|--------|--------|-----------------------|---------------------------|-----------------2---2---0-----------|
D|--------|--------|--------|-----------------------|---------------------------|-------------------------------------|
A|--------|--------|--------|-----------0---3---0---|-5---0----------------3----|-5---6---5---0---------------3---0---|
E|--------|--------|--------|-----------------------|---------3---5---5---------|-------------------------------------|


E|---------------------------------|---------------------------------|---------------------------|
B|---------------------------------|---------------------------------|---------------------------|
G|-----2---------------------------|---------------------------------|---------------------------|
D|-------------4---5---------------|---------------------------------|---------------------------|
A|-4-------5-----------------------|-3---0---------------0---3---0---|-5---0----------------3----|
E|---------------------0---2---0---|---------3---5---5---------------|---------3---5---5---------|


E|-------------------------------------|---------------------------------|---------------------------------|
B|-------------------------------------|---------------------------------|---------------------------------|
G|-----------------2---2---0-----------|-----2---------------------------|---------------------------------|
D|-------------------------------------|-------------4---5---------------|---------------------------------|
A|-5---6---5---0---------------3---0---|-4-------5-----------------------|-3---0---------------0---3---0---|
E|-------------------------------------|---------------------0---2---0---|---------3---5---5---------------|


E|---------------------------|-----------------------------------|---------------------------|
B|---------------------------|-----------------------------------|---------------------------|
G|---------------------------|-----------5---4---4---------------|---------------------------|
D|---------------------------|--------4--------------------------|---------------------------|
A|-5---0----------------3----|-5---5-----------------0---5---0---|-7---0----------------5----|
E|---------3---2---2---------|-----------------------------------|---------5---4---4---------|


E|-----------------------------------|------------------------------|------------------------------|
B|-----------------------------------|------------------------------|------------------------------|
G|--------------------------13---12--|-----11---10---9----8----7----|------7-----------------------|
D|-----------------2---2----12---11--|-----10---9----8----7----6----|------6-----------------------|
A|-7---0-----------------------------|------------------------------|----------0---3---0---5---0---|
E|---------3---0---------------------|------------------------------|------------------------------|


E|-------------------------------|---------------------------------|----------------------------------|
B|-------------------------------|---------------------------------|----------------------------------|
G|-------------------------------|-----2---2---0---------------2---|-------------5----------------5---|
D|-------------------------------|---------------------------------|--------------------------7-------|
A|--------------3----5---6---5---|-0---------------3---0---4-------|-----4---5--------5---9-----------|
E|-3---5---5---------------------|---------------------------------|----------------------------------|


E|-----------------------12--|-11---10--------9----|-8---7---7-----------------------|
B|-----------------------14--|-13---12--------9----|-8---7---7-----------------------|
G|-8---7---7-------------13--|-12---11--------9----|-8---7---7-----------------------|
D|---------------------------|---------------------|---------------------------------|
A|---------------------------|---------------------|-------------0---3---0---5---0---|
E|--------------0----0-------|-----------0---------|---------------------------------|


E|-------------------------------|---------------------------------|---------------------------------|
B|-------------------------------|---------------------------------|---------------------------------|
G|-------------------------------|-----2---2---0---------------2---|---------------------------------|
D|-------------------------------|---------------------------------|-----4---5-----------------------|
A|--------------3----5---6---5---|-0---------------3---0---4-------|-5-----------------------3---0---|
E|-3---5---5---------------------|---------------------------------|-------------0---2---0-----------|


E|----------------|-------------|----------------|-------------|----------------|------------------------|
B|----------------|-------------|----------------|-------------|-----5---5------|------5-----------------|
G|----------------|-------------|-----17--17-----|------17-----|-17--5---5------|------5-----------------|
D|----------------|-------------|----------------|-------------|----------------|-----------7---5---5----|
A|----------------|-------------|----------------|-------------|----------------|------------------------|
E|-3---5---5------|------5------|-5--------------|-------------|----------------|------------------------|


E|---------------------------|--------------------|-----------------5-------8-------|
B|---------------------------|--------------------|-----8---8---8-------7-------7---|
G|------5---0----------------|---------------4----|---------------------------------|
D|-7------------7---7---7----|-5---7---7-----4----|---------------------------------|
A|---------------------------|---------------2----|---------------------------------|
E|---------------------------|--------------------|---------------------------------|


E|-5---7---5-------5---------------|-----5---------------------------------------|
B|-------------8-----------8-------|---------8---5-------5-----------------------|
G|---------------------5-------8---|-7---------------7-------8---7---5-----------|
D|---------------------------------|-------------------------------------7---5---|
A|---------------------------------|---------------------------------------------|
E|---------------------------------|---------------------------------------------|


E|------------------------------|------------------------|------------------------------|
B|-----5---5--------------------|------------------------|------------------------------|
G|-----5---5---0---5------------|-2----------------------|------------------------------|
D|-0-------------------7---7----|-2----------------------|------------------------------|
A|------------------------------|-0---3---3----5----3----|-5---0---3----5---0---3---0---|
E|------------------------------|------------------------|------------------------------|


E|------------------------------|---------------------------|-----------------5-----------5---|
B|------------------------------|---------------------------|-------------5-----------5-------|
G|-----5---5--------------------|------5-------5------------|-----7---7-----------7-----------|
D|--------------7---5---7---5---|-7----5---0---5---7---7----|-7-------------------------------|
A|-3----------------------------|---------------------------|---------------------------------|
E|------------------------------|---------------------------|---------------------------------|


E|---------8-----8---8---|-8----5---8---5---------------|------------------------------|
B|-----5---8-----8---8---|------------------5---8-------|------------------------------|
G|-7---------------------|--------------------------5---|-----0------------------------|
D|-----------------------|------------------------------|---------5---0----------------|
A|-----------------------|------------------------------|-----------------3------------|
E|-----------------------|------------------------------|---------------------5---5----|


E|-----14--14---14---14---|-14--14--14--14--12--------------|---------------------------------|
B|------------------------|---------------------13----------|---------------------------------|
G|------------------------|-------------------------14--12--|-11------12----------------------|
D|------------------------|---------------------------------|-----12------12--10------12--0---|
A|------------------------|---------------------------------|---------------------12----------|
E|-5----------------------|---------------------------------|---------------------------------|


E|---------------------------------|------------------------|------------------------|
B|---------------------------------|------------------------|------------------------|
G|---------------------------------|-----9---9-----9---9----|------9----9---9---9----|
D|-9---0---7---0---5---0---4---0---|------------------------|------------------------|
A|---------------------------------|------------------------|------------------------|
E|---------------------------------|------------------------|------------------------|


E|------------------------------|------------------------------|-----------------------------------|
B|------------------------------|------------------------------|-----------------------------------|
G|-19---------------------------|------------------------------|-----------------------------------|
D|------5---0---4---0-----------|------------------------------|-----------------------------------|
A|----------------------5---0---|-3---0---3---0---3---5---5----|-----------------------4---5---7---|
E|------------------------------|------------------------------|-17---8----2---4---5---------------|


E|------------------------------------------|---------------------|---------------------------|
B|------------------------------------------|---------------------|---------------------------|
G|-------------------------4---6---7---6----|----------2-----2----|-----2---2---2---2----2----|
D|-------------4---6---7--------------------|---------------------|---------------------------|
A|-4---5---7--------------------------------|---------------------|---------------------------|
E|------------------------------------------|---------------------|---------------------------|


E|------------------------|-2-------5-------2---5---2-------|------------------------------|
B|----------5-----5---2---|-----2-------5---------------2---|-5----------------------------|
G|-4----------------------|---------------------------------|-----4---4---2-----------2----|
D|-4----4-----------------|---------------------------------|-----------------4---4--------|
A|-2----4-----------------|---------------------------------|------------------------------|
E|------2-----------------|---------------------------------|------------------------------|


E|--------------4---------|-------------5-------5-------5---|-----5-------5---------------5---|
B|--------------4---------|-----8---8-------8-------8-------|-8-------8-------8---7---7-------|
G|-4---2---2----4---------|---------------------------------|---------------------------------|
D|-------------------4----|---------------------------------|---------------------------------|
A|-------------------4----|---------------------------------|---------------------------------|
E|-------------------2----|-15------------------------------|---------------------------------|


E|---------5------------5-------|------5------------5-------|---------5-----------5-----------|
B|-7---7---5---7---7----5---7---|-7----5---7---7--------7---|-----5-----------5-----------5---|
G|-------------7---7--------7---|-7--------7---7------------|-7-----------7-----------7-------|
D|------------------------------|---------------------------|---------------------------------|
A|------------------------------|---------------------------|---------------------------------|
E|------------------------------|---------------------------|---------------------------------|


E|-5-------------------------------|---------------------------------|--------------------|
B|---------------------------------|---------------------------------|--------------------|
G|-----7---7---5---7---0---5---0---|---------------------------------|---------------2----|
D|---------------------------------|-2---0---5---0---3---0---5---0---|-3---0---7-----2----|
A|---------------------------------|---------------------------------|---------------0----|
E|---------------------------------|---------------------------------|--------------------|


E|-----------------|---------------------|---------------------|------------------------|
B|-----------------|---------------------|---------------------|------------------------|
G|------12----11---|------9----11---12---|-11---9----7----9----|-7---5---5----5---------|
D|-----------------|---------------------|---------------------|--------------7---------|
A|-----------------|---------------------|---------------------|------------------------|
E|-12--------------|---------------------|---------------------|-------------------12---|


E|---------------------|------------------------------|-----------------------|----------------|
B|---------------------|------------------------------|-----------------------|----------------|
G|----------5-----5----|-5---5---5----5---5---5---0---|-4---5---5-----4---4---|---------0------|
D|---------------------|------------------------------|-5-------------5---5---|-----0---0------|
A|---------------------|------------------------------|-7-------------7---7---|-0---0---0------|
E|---------------------|------------------------------|-----------------------|-0--------------|


E|---------------------|---------------------------|-8---8---8----10--10--10---|-12--12--12-------14--14------|
B|----------5-----5----|-8---8---7----10--10--12---|---------------------------|--------------------------0---|
G|----------5-----5----|-7---7---7----9---9---9----|-9---9---9----11--11--11---|-12--12--12---14----------0---|
D|---------------------|---------------------------|---------------------------|------------------------------|
A|---------------------|---------------------------|---------------------------|------------------------------|
E|---------------------|---------------------------|---------------------------|------------------------------|


E|-----14--14--14--14--14------15--15--15--|-15------17--17--17--17---19--19--19--|
B|-----------------------------------------|--------------------------------------|
G|-----14--14--14--14--14--16--16--16--16--|-16--17--17--17--17--17---19--19--19--|
D|-----------------------------------------|--------------------------------------|
A|-----------------------------------------|--------------------------------------|
E|-----------------------------------------|--------------------------------------|


E|-------------20----20---|-----20--20---13--------|-----19--19---19--19--19---|-----21--21---21--21--21---|
B|-6-----------20----20---|-----20--20---15---15---|---------------------------|---------------------------|
G|-----7------------------|--------------16---16---|---------------------------|---------------------------|
D|------------------------|-------------------17---|---------------------------|---------------------------|
A|------------------------|------------------------|---------------------------|---------------------------|
E|------------------------|------------------------|---------------------------|---------------------------|


E|--------------14------17------|---------------------------|-----------------|-2-----------------2-----------|
B|-15--17--17-------14----------|---------------------------|-----------------|-----2---5-------------5---2---|
G|-16-----------------------14--|---------------------------|------4-----4----|-------------4-----------------|
D|-17---------------------------|------14--12---------------|-----------------|-------------------------------|
A|------------------------------|--------------14--12--12---|-----------------|-------------------------------|
E|------------------------------|---------------------------|-----------------|-------------------------------|


E|------------------------------------------|--------------------|----------------|
B|-----2---2--------------------------------|--------------------|----------------|
G|-4-----------4---2------------------------|--------------------|-5--------------|
D|---------------------4---2----------------|--------------------|-----7---7------|
A|------------------------------4---2---0---|-0------------------|----------------|
E|------------------------------------------|-----2---2-----17---|----------------|


E|-------------|-------------|-------------|----------------------------------------------------------|
B|-------------|-------------|-------------|----------------------------------------------------------|
G|-------------|-------------|-------------|----------------------------------------------------------|
D|------7------|------7------|------7------|----------------------------------------------------------|
A|-------------|-------------|-------------|------127-6-0-6-7-127-6-0-6-7-127-6-0-6-7-127-6-0-6-7-127-|
E|-------------|-------------|-------------|----------------------------------------------------------|


E|-------------------------------------------------------------------------|-------------------------------------------------------------------------|
B|-------------------------------------------------------------------------|-------------------------------------------------------------------------|
G|-------------------------------------------------------------------------|-------------------------------------------------------------------------|
D|-------------------------------------------------------------------------|-------------------------------------------------------------------------|
A|-6-0-6-7-127-6-0-6-7-15129-0-9-1215129-0-9-1215129-0-9-1215129-0-9-121512|-9-0-9-1215129-0-9-1217108-0-8-1017108-0-8-1017108-0-8-1017108-0-8-101710|
E|-------------------------------------------------------------------------|-------------------------------------------------------------------------|


E|-------------------------------------------------------------------------|-------------------------------------------------------------------------|
B|-------------------------------------------------------------------------|-------------------------------------------------------------------------|
G|-------------------------------------------------------------------------|-------------------------------------------------------------------------|
D|-------------------------------------------------------------------------|-------------------------------------------------------------------------|
A|-8-0-8-1017108-0-8-10127-5-0-6-8-138-6-0-7-9-149-7-0-8-1015108-0-7-9-149-|-7-0-6-8-138-6-0-5-7-127-6-0-6-7-127-6-0-6-7-127-6-0-6-7-127-6-0-6-7-127-|
E|-------------------------------------------------------------------------|-------------------------------------------------------------------------|


E|-------------------------------------------------------------------------|-------------------------------------------------------------------------|
B|-------------------------------------------------------------------------|-------------------------------------------------------------------------|
G|-------------------------------------------------------------------------|-------------------------------------------------------------------------|
D|-------------------------------------------------------------------------|-------------------------------------------------------------------------|
A|-6-0-6-7-127-6-0-6-7-15129-0-9-1215129-0-9-1215129-0-9-1215129-0-9-121512|-9-0-9-1215129-0-9-1217108-0-8-1017108-0-8-1017108-0-8-1017108-0-8-101710|
E|-------------------------------------------------------------------------|-------------------------------------------------------------------------|


E|-------------------------------------------------------------------------|-------------------------------------------------------------------------|
B|-------------------------------------------------------------------------|-------------------------------------------------------------------------|
G|-------------------------------------------------------------------------|-------------------------------------------------------------------------|
D|-------------------------------------------------------------------------|-------------------------------------------------------------------------|
A|-8-0-8-1017108-0-8-1016119-0-9-1116119-0-9-1116119-0-9-1116119-0-9-111611|-9-0-9-1116119-0-9-1115108-0-8-1015108-0-8-1015108-0-8-1015108-0-8-101510|
E|-------------------------------------------------------------------------|-------------------------------------------------------------------------|


E|-------------------------------------------------------------------------|-------------------------------------------------------------------------|
B|-------------------------------------------------------------------------|-------------------------------------------------------------------------|
G|-------------------------------------------------------------------------|-------------------------------------------------------------------------|
D|-------------------------------------------------------------------------|-------------------------------------------------------------------------|
A|-8-0-8-1015108-0-8-10148-5-0-5-8-148-5-0-5-8-148-5-0-5-8-148-5-0-5-8-148-|-5-0-5-8-148-5-0-5-8-118-7-0-7-8-118-7-0-7-8-118-7-0-7-8-118-7-0-7-8-118-|
E|-------------------------------------------------------------------------|-------------------------------------------------------------------------|


E|-------------------------------------------------------------------------|-------------------------------------------------------------------------|
B|-------------------------------------------------------------------------|-------------------------------------------------------------------------|
G|-------------------------------------------------------------------------|-------------------------------------------------------------------------|
D|-------------------------------------------------------------------------|-------------------------------------------------------------------------|
A|-7-0-7-8-118-7-0-7-8-1712100-10121712100-10121712100-10121712100-10121712|-100-10121712100-10121612110-11121612110-11121612110-11121612110-11121612|
E|-------------------------------------------------------------------------|-------------------------------------------------------------------------|


E|-------------------------------------------------------------------------|-------------------------------------------------------------------------|
B|-------------------------------------------------------------------------|-------------------------------------------------------------------------|
G|-------------------------------------------------------------------------|-------------------------------------------------------------------------|
D|-------------------------------------------------------------------------|-------------------------------------------------------------------------|
A|-110-11121612110-11121712100-10121712100-10121712100-10121712100-10121712|-100-10121712100-10121612110-11121612110-11121612110-11121612110-11121612|
E|-------------------------------------------------------------------------|-------------------------------------------------------------------------|


E|-------------------------------------------------------------------------|-------------------------------------------------------------------------|
B|-------------------------------------------------------------------------|-------------------------------------------------------------------------|
G|-------------------------------------------------------------------------|-------------------------------------------------------------------------|
D|-------------------------------------------------------------------------|-------------------------------------------------------------------------|
A|-110-11121612110-11121712100-10121712100-10121712100-10121712100-10121712|-100-10121712100-10121612110-11121612110-11121612110-11121612110-11121612|
E|-------------------------------------------------------------------------|-------------------------------------------------------------------------|


E|-------------------------------------------------------------------------|-------------------------------------------------------------------|
B|-------------------------------------------------------------------------|-------------------------------------------------------------------|
G|-------------------------------------------------------------------------|-------------------------------------------------------------------|
D|-------------------------------------------------------------------------|-------------------------------------------------------------------|
A|-110-11121612110-11121712100-10121712100-10121712100-10121712100-10121712|-100-10121712100-10121612110-11121612110-11121612110-11121612--12--|
E|-------------------------------------------------------------------------|-------------------------------------------------------------------|


E|-----------------|-------------|----------------|------------------------|------------------------------|
B|-----------------|-------------|----------------|------------------------|------------------------------|
G|-----------------|-------------|----------------|------------------------|------------------------------|
D|-----------------|-------------|----------------|------2-----------------|------------------------------|
A|-12---12----12---|------12-----|-12-------------|--------------------0---|-3---0---5---0----------------|
E|-----------------|-------------|-----0---0------|------------------------|-----------------3---5---5----|


E|----------------------------------|---------------------------------|---------------------------------|
B|----------------------------------|---------------------------------|---------------------------------|
G|----------------------2---2---0---|-------------2-------------------|---------------------------------|
D|----------------------------------|---------------------4---5-------|---------------------------------|
A|-3----5---6---5---0---------------|-3---0---4-------5---------------|---------3---0---------------0---|
E|----------------------------------|-----------------------------0---|-2---0-----------3---5---5-------|


E|------------------------------|----------------------------------|---------------------------------|
B|------------------------------|----------------------------------|---------------------------------|
G|------------------------------|----------------------2---2---0---|-------------2-------------------|
D|------------------------------|----------------------------------|---------------------4---5-------|
A|-3---0---5---0----------------|-3----5---6---5---0---------------|-3---0---4-------5---------------|
E|-----------------3---5---5----|----------------------------------|-----------------------------0---|


E|---------------------------------|------------------------------|--------------------------------|
B|---------------------------------|------------------------------|--------------------------------|
G|---------------------------------|------------------------------|----------------5---4---4-------|
D|---------------------------------|------------------------------|-------------4------------------|
A|---------3---0---------------0---|-3---0---5---0----------------|-3----5---5-----------------0---|
E|-2---0-----------3---5---5-------|-----------------3---2---2----|--------------------------------|


E|------------------------------|-------------------------------|-------------------------------|
B|------------------------------|-------------------------------|-------------------------------|
G|------------------------------|-------------------------------|-13---12---11---10---9----8----|
D|------------------------------|----------------------2---2----|-12---11---10---9----8----7----|
A|-5---0---7---0----------------|-5----7---0--------------------|-------------------------------|
E|-----------------5---4---4----|--------------3---0------------|-------------------------------|


E|-----------------------|---------------------------|-------------------------------------|
B|-----------------------|---------------------------|-------------------------------------|
G|-7-----7---------------|---------------------------|-----------------2---2---0-----------|
D|-6-----6---------------|---------------------------|-------------------------------------|
A|-----------0---3---0---|-5---0----------------3----|-5---6---5---0---------------3---0---|
E|-----------------------|---------3---5---5---------|-------------------------------------|


E|---------------------------|-------------------------------|-----12--11---10--------|
B|---------------------------|-------------------------------|-----14--13---12--------|
G|-----2------------5--------|---------5---8---7---7---------|-----13--12---11--------|
D|---------------------------|-----7-------------------------|------------------------|
A|-4--------4---5--------5---|-9-----------------------------|------------------------|
E|---------------------------|--------------------------0----|-0-----------------0----|


E|-9----8---7---7---------------|---------------------------|-------------------------------------|
B|-9----8---7---7---------------|---------------------------|-------------------------------------|
G|-9----8---7---7---------------|---------------------------|-----------------2---2---0-----------|
D|------------------------------|---------------------------|-------------------------------------|
A|------------------0---3---0---|-5---0----------------3----|-5---6---5---0---------------3---0---|
E|------------------------------|---------3---5---5---------|-------------------------------------|


E|---------------------------------|-----------------------|------------------------|
B|---------------------------------|-----------------------|------------------------|
G|-----2---------------------------|-----------------------|------------------------|
D|-------------4---5---------------|-----------------------|------------------------|
A|-4-------5-----------------------|-3---0-----------------|------------------------|
E|---------------------0---2---0---|---------3---5---------|-5---------5--------5---|


E|------5----5-----|-----------------|-----------------|-------------|
B|------7----7-----|-----------------|-----------------|-------------|
G|------6----6-----|-------2-----2---|-2----4----2-----|-2-----------|
D|------5----5-----|-----------------|-----------------|-2-----------|
A|------0----0-----|-----------------|-----------------|-0-----------|
E|-----------------|-----------------|-----------------|-------------|





Track 2: Untitled

G|--------|--------|--------|--------|--------|--------|--------|--------|--------|
D|--------|--------|--------|--------|--------|--------|--------|--------|--------|
A|--------|--------|--------|--------|--------|--------|--------|--------|--------|
E|--------|--------|--------|--------|--------|--------|--------|--------|--------|


G|--------|--------|--------|--------|--------|--------|--------|--------|--------|
D|--------|--------|--------|--------|--------|--------|--------|--------|--------|
A|--------|--------|--------|--------|--------|--------|--------|--------|--------|
E|--------|--------|--------|--------|--------|--------|--------|--------|--------|


G|--------|--------|--------|--------|--------|--------|--------|--------|--------|
D|--------|--------|--------|--------|--------|--------|--------|--------|--------|
A|--------|--------|--------|--------|--------|--------|--------|--------|--------|
E|--------|--------|--------|--------|--------|--------|--------|--------|--------|


G|--------|--------|--------|--------|--------|--------|--------|--------|--------|
D|--------|--------|--------|--------|--------|--------|--------|--------|--------|
A|--------|--------|--------|--------|--------|--------|--------|--------|--------|
E|--------|--------|--------|--------|--------|--------|--------|--------|--------|


G|--------|--------|--------|--------|--------|--------|--------|--------|--------|
D|--------|--------|--------|--------|--------|--------|--------|--------|--------|
A|--------|--------|--------|--------|--------|--------|--------|--------|--------|
E|--------|--------|--------|--------|--------|--------|--------|--------|--------|


G|--------|--------|--------|--------|--------|--------|--------|--------|--------|
D|--------|--------|--------|--------|--------|--------|--------|--------|--------|
A|--------|--------|--------|--------|--------|--------|--------|--------|--------|
E|--------|--------|--------|--------|--------|--------|--------|--------|--------|


G|--------|--------|--------|--------|--------|--------|--------|--------|--------|
D|--------|--------|--------|--------|--------|--------|--------|--------|--------|
A|--------|--------|--------|--------|--------|--------|--------|--------|--------|
E|--------|--------|--------|--------|--------|--------|--------|--------|--------|


G|--------|--------|--------|--------|--------|--------|--------|--------|--------|
D|--------|--------|--------|--------|--------|--------|--------|--------|--------|
A|--------|--------|--------|--------|--------|--------|--------|--------|--------|
E|--------|--------|--------|--------|--------|--------|--------|--------|--------|


G|--------|--------|--------|--------|--------|--------|--------|--------|--------|
D|--------|--------|--------|--------|--------|--------|--------|--------|--------|
A|--------|--------|--------|--------|--------|--------|--------|--------|--------|
E|--------|--------|--------|--------|--------|--------|--------|--------|--------|


G|--------|--------|--------|--------|--------|--------|--------|--------|--------|
D|--------|--------|--------|--------|--------|--------|--------|--------|--------|
A|--------|--------|--------|--------|--------|--------|--------|--------|--------|
E|--------|--------|--------|--------|--------|--------|--------|--------|--------|


G|--------|--------|--------|--------|--------|--------|--------|--------|--------|
D|--------|--------|--------|--------|--------|--------|--------|--------|--------|
A|--------|--------|--------|--------|--------|--------|--------|--------|--------|
E|--------|--------|--------|--------|--------|--------|--------|--------|--------|


G|--------|--------|--------|--------|--------|--------|--------|--------|--------|
D|--------|--------|--------|--------|--------|--------|--------|--------|--------|
A|--------|--------|--------|--------|--------|--------|--------|--------|--------|
E|--------|--------|--------|--------|--------|--------|--------|--------|--------|


G|--------|--------|--------|--------|--------|--------|--------|--------|--------|
D|--------|--------|--------|--------|--------|--------|--------|--------|--------|
A|--------|--------|--------|--------|--------|--------|--------|--------|--------|
E|--------|--------|--------|--------|--------|--------|--------|--------|--------|


G|--------|--------|--------|--------|--------|--------|--------|--------|--------|
D|--------|--------|--------|--------|--------|--------|--------|--------|--------|
A|--------|--------|--------|--------|--------|--------|--------|--------|--------|
E|--------|--------|--------|--------|--------|--------|--------|--------|--------|


G|--------|--------|--------|--------|--------|--------|--------|--------|--------|
D|--------|--------|--------|--------|--------|--------|--------|--------|--------|
A|--------|--------|--------|--------|--------|--------|--------|--------|--------|
E|--------|--------|--------|--------|--------|--------|--------|--------|--------|


G|--------|--------|--------|--------|--------|--------|--------|--------|--------|
D|--------|--------|--------|--------|--------|--------|--------|--------|--------|
A|--------|--------|--------|--------|--------|--------|--------|--------|--------|
E|--------|--------|--------|--------|--------|--------|--------|--------|--------|


G|--------|--------|--------|--------|--------|--------|--------|
D|--------|--------|--------|--------|--------|--------|--------|
A|--------|--------|--------|--------|--------|--------|--------|
E|--------|--------|--------|--------|--------|--------|--------|