Menu:

 

Search:

 

joe satriani - rubinas blue sky happiness:

 



Title: Rubina's Blue Sky Happiness
Artist: 
Album: 
Author: 


Track 1: Acoustic

E|-0--2-----2--2--2--2---0---0--0--0--2----|-2--4-----4------------0------0------------|
B|-0-----0--------0--0---0---0--0--0-------|-0-----0-----0--0------0---0-----0--0------|
G|-4--------------4--4---4---------4-------|-2-----------------2---2---------------2---|
D|-----------------------------------------|-------------------------------------------|
A|-----------------------------------------|-------------------------------------------|
E|-----------------------------------------|-------------------------------------------|


E|-4--5-----5------------4---------0---------|-0--2-----2-----2--2--2--0--2----2----|
B|-0-----0-----0--0------0---0--0--0---0--0--|-0-----0-----0--0--0--0--0------------|
G|-2-----------------2---2---------2---------|-4--------------4--4--4--4------------|
D|-------------------------------------------|--------------------------------------|
A|-------------------------------------------|--------------------------------------|
E|-------------------------------------------|--------------------------------------|


E|-0--2-----2-----2--2---0---0--0--0--2--------|-2--4-----4------------0------0------------|
B|-0-----0-----0--0--0---0---0--0--0-----0--0--|-0-----0-----0--0------0---0-----0--0------|
G|-4--------------4--4---4---------4-----------|-2-----------------2---2---------------2---|
D|---------------------------------------------|-------------------------------------------|
A|---------------------------------------------|-------------------------------------------|
E|---------------------------------------------|-------------------------------------------|


E|-4--5-----5------------4---------0---------|-0--2-----2--2--2--2--2--0--2-----2--2--2--2--2--|
B|-0-----0-----0--0------0---0--0--0---0--0--|-0-----0--------0--0--0--0-----0--------0--0--0--|
G|-2-----------------2---2---------2---------|-4--------------4--4--4--4--------------4--4--4--|
D|-------------------------------------------|-------------------------------------------------|
A|-------------------------------------------|-------------------------------------------------|
E|-------------------------------------------|-------------------------------------------------|


E|-0--2----0--2----0--2----2----|-----------------0--0------0--0------|-----------------0--0------0--0------|
B|-0-------0-------0------------|-----------------0--0------0--0------|-----------------0--0------0--0------|
G|-4-------4-------4------------|-----4---6---9---------11--------13--|-----4---6---9---------11--------9---|
D|------------------------------|-----2---4---6---------9---------11--|-----2---4---6---------7---------6---|
A|------------------------------|-------------------------------------|-------------------------------------|
E|------------------------------|-0-----------------------------------|-0-----------------------------------|


E|-----------------0--0------0--0------|-----0---0--0--0-------0---0--0--0--0--|-----------------0--0------0--0------|
B|-----------------0--0------0--0------|-----0---0--0--0-------0---0--0--0--0--|-----------------0--0------0--0------|
G|-----4---6---9---------11--------13--|-----11--11-11-11------11--11-11-11-11-|-----4---6---9---------11--------13--|
D|-----2---4---6---------9---------11--|-----9---9--9--9-------9---9--9--9--9--|-----2---4---6---------9---------11--|
A|-------------------------------------|---------------------------------------|-------------------------------------|
E|-0-----------------------------------|-9-----------------7-------------------|-0-----------------------------------|


E|---------------------------------|-----------------0--0------0--0------|-----7---7--7--7--7--7---7---7--7---7--|
B|---------------------------------|-----------------0--0------0--0------|-----0---0--0--0--0--0---0---0--0---0--|
G|-----4---6---9---11--13--11--9---|-----4---6---9---------11--------13--|-----9---9--9--9--9--9---9---9--9---9--|
D|-----2---4---6---7---9---7---6---|-----2---4---6---------9---------11--|-----9---9--9--9--9--9---9---9--9---9--|
A|---------------------------------|-------------------------------------|---------------------------------------|
E|-0-------------------------------|-0-----------------------------------|-9-------------------7-----------------|


E|-----------------0--0--------------|-0-------------------------0--0--------|-----------------0--0------0--0------|
B|-----------------0--0--------------|-0-----------0---0--0--0---0--0--0--0--|-----------------0--0------0--0------|
G|-----6---8---9---------8---6-------|-4---2---1---4---4--4--4---4--4--4--4--|-----6---8---9---------11--------13--|
D|-----7---9---11--------9---7-------|-6---4---2---4---4--4--4---4--4--4--4--|-----7---9---11--------13--------14--|
A|-0---------------------------------|-------------2---2--2--2---------2--2--|-0-----------------------------------|
E|-------------------------------0---|---------------------------------------|-------------------------------------|


E|--------------------0--0--0--0---0--0--|-----------------0--0--------------|---------------------------0----|
B|--------------------0--0--0--0---0--0--|-----------------0--0--------------|-------------0---0--0--0---0----|
G|-13--14--13--11--11-11-11-11-11--11-11-|-----6---8---9---------8---6-------|-4---2---1---4---4--4--4---4----|
D|-14--16--14--13--13-13-13-13-13--13-13-|-----7---9---11--------9---7-------|-6---4---2---4---4--4--4---4----|
A|---------------------------------------|-0---------------------------------|-------------2---2--2--2--------|
E|---------------------------------------|-------------------------------0---|--------------------------------|


E|-----0--0--0--0------0--0------0-------|-----2--2--2--2--2---2---2--2--2---2---|
B|-----0--0--0--0------0--0------0-------|-----0--0--0--0--0---0---0--0--0---0---|
G|-----2--2--2--2------2--2------2-------|-4---4--4--4--4--4---4---4--4--4---4---|
D|-------------------------------2-------|-4-------------------------------------|
A|---------------------------0-------0---|-2-------------------------------------|
E|-2---------------4---------------------|---------------------------------------|


E|-----0--0--0--0------0--0------0-------|-----2--2--2--2--2---0--2---2--2---------|
B|-----0--0--0--0------0--0------0-------|-----0--0--0--0--0---0--0---0--0--0--0---|
G|-----2--2--2--2------2--2------2-------|-4---4--4--4--4--4---4--4---4--4--4--4---|
D|-------------------------------2-------|-4--------------------------------4--4---|
A|---------------------------0-------0---|-2--------------------------------2--2---|
E|-2---------------4---------------------|-----------------------------------------|


E|-0--2---2--0--2--------2---------------------|-----------------0--0------0--0------|
B|-0--0---0--0-----0--0--0---------------------|-----------------0--0------0--0------|
G|-4--4---4--4-----0--0--4---------------------|-----4---6---9---------11--------13--|
D|-----------------4--4------------2-----------|-----2---4---6---------9---------11--|
A|---------------------------2--4-----4--2-----|-------------------------------------|
E|------------------------------------------4--|-0-----------------------------------|


E|-----------------0--0------0--0------|-----------------0--0------0--0------|-----0---0--0--0--0--0---0--0--0---0--0--|
B|-----------------0--0------0--0------|-----------------0--0------0--0------|-----0---0--0--0--0--0---0--0--0---0--0--|
G|-----4---6---9---------11--------9---|-----4---6---9---------11--------13--|-----11--11-11-11-11-9---9--9--8---8--8--|
D|-----2---4---6---------7---------6---|-----2---4---6---------9---------11--|-----9---9--9--9--9--9---9--9--9---9--9--|
A|-------------------------------------|-------------------------------------|---------------------0-------------------|
E|-0-----------------------------------|-0-----------------------------------|-9-----------------------------7---------|


E|-----------------0--0------0--0------|---------------------------------|-----------------0--0------0--0------|
B|-----------------0--0------0--0------|---------------------------------|-----------------0--0------0--0------|
G|-----4---6---9---------11--------13--|-----4---6---9---11--13--11--9---|-----4---6---9---------11--------13--|
D|-----2---4---6---------9---------11--|-----2---4---6---7---9---7---6---|-----2---4---6---------9---------11--|
A|-------------------------------------|---------------------------------|-------------------------------------|
E|-0-----------------------------------|-0-------------------------------|-0-----------------------------------|


E|-----0---0--0--0---0---0--0--0--0--0---|-0---0--0--0--0--0---0---0--0--0---0---|
B|-----0---0--0--0---0---0--0--0--0--0---|-0---0--0--0--0--0---0---0--0--0---0---|
G|-----11--11-11-11--9---9--9--9--9--9---|-8---8--8--8--8--8---8---8--8--8---8---|
D|-----9---9--9--9---9---9--9--9--9--9---|-9---9--9--9--9--9---9---9--9--9---9---|
A|---------------------------------------|---------------------------------------|
E|-7-------------------------------------|-7-------------------------------------|


E|-----0--0--0--0--0--0--0---0--0--0--0--0---|---------------------0----0----|--------|
B|-----0--0--0--0--0--0--0---0--0--0--0--0---|-0---0---0--0--0--0--0----0----|--------|
G|-----11-11-11-11-11-11-9---9--9--9--9--9---|-8---8---8--8--8--8--8----8----|--------|
D|-----9--9--9--9--9--9--9---9--9--9--9--9---|-9---9---9--9--9--9--9----9----|--------|
A|-------------------------------------------|-------------------------------|--------|
E|-7-----------------------------------------|-7-----------------------------|--------|


E|--------|--------|--------|--------|--------|--------|--------|--------|--------|
B|--------|--------|--------|--------|--------|--------|--------|--------|--------|
G|--------|--------|--------|--------|--------|--------|--------|--------|--------|
D|--------|--------|--------|--------|--------|--------|--------|--------|--------|
A|--------|--------|--------|--------|--------|--------|--------|--------|--------|
E|--------|--------|--------|--------|--------|--------|--------|--------|--------|


E|--------|--------|--------|--------|--------|--------|-0---0--0--0---0---0---0--0--0--0--0---|
B|--------|--------|--------|--------|--------|--------|-0---0--0--0---0---0---0--0--0--0--0---|
G|--------|--------|--------|--------|--------|--------|-9---9--9--9---9---9---9--9--9--9--9---|
D|--------|--------|--------|--------|--------|--------|-9---9--9--9---9---9---9--9--9--9--9---|
A|--------|--------|--------|--------|--------|--------|-7---7--7--7---7---7---7--7--7--7--7---|
E|--------|--------|--------|--------|--------|--------|-0---0--0--0---0---0---0--0--0--0--0---|


E|-0-----0--0--0---0---0---0--0--0--0--0---|-0-----0--0--0---0---0--0---0--0---0---|
B|-0-----0--0--0---0---0---0--0--0--0--0---|-0-----0--0--0---0---0--0---0--0---0---|
G|-9-----9--9--9---9---9---9--9--9--9--9---|-9-----9--9--9---9---9--9---9--9---9---|
D|-7--9--9--9--9---9---9---9--9--9--9--9---|-7--9--9--9--9---9---9--9---9--9---9---|
A|-7-----7--7--7---7---7---7--7--7--7--7---|-7-----7--7--7---7---7--7---7--7---7---|
E|-0-----0--0--0---0---0---0--0--0--0--0---|-0-----0--0--0---0---0--0---0--0---0---|


E|-0---0--0--0---0---0---------------------|-----------------0--0------0--0------|
B|-0---0--0--0---0---0---------------------|-----------------0--0------0--0------|
G|-9---9--9--9---9---9---------------------|-----4---6---9---------11--------13--|
D|-9---9--9--9---9---9---------2-----------|-----2---4---6---------9---------11--|
A|-7---7--7--7---7---7---2--4-----4--2-----|-------------------------------------|
E|-0---0--0--0---0---0------------------4--|-0-----------------------------------|


E|--------|--------|--------|--------|--------|--------|--------|-----------------0--0--------------|
B|--------|--------|--------|--------|--------|--------|--------|-----------------0--0--------------|
G|--------|--------|--------|--------|--------|--------|--------|-----6---8---9---------8---6-------|
D|--------|--------|--------|--------|--------|--------|--------|-----7---9---11--------9---7-------|
A|--------|--------|--------|--------|--------|--------|--------|-0---------------------------------|
E|--------|--------|--------|--------|--------|--------|--------|-------------------------------0---|


E|-0-------------------------0--0--------|-----------------0--0------0--0------|--------------------0--0--0--0---0--0--|
B|-0-----------0---0--0--0---0--0--0--0--|-----------------0--0------0--0------|--------------------0--0--0--0---0--0--|
G|-4---2---1---4---4--4--4---4--4--4--4--|-----6---8---9---------11--------13--|-13--14--13--11--11-11-11-11-11--11-11-|
D|-6---4---2---4---4--4--4---4--4--4--4--|-----7---9---11--------13--------14--|-14--16--14--13--13-13-13-13-13--13-13-|
A|-------------2---2--2--2---------2--2--|-0-----------------------------------|---------------------------------------|
E|---------------------------------------|-------------------------------------|---------------------------------------|


E|-----------------0--0--------------|---------------------------0----|-----0--0--0--0------0--0------0-------|
B|-----------------0--0--------------|-------------0---0--0--0---0----|-----0--0--0--0------0--0------0-------|
G|-----6---8---9---------8---6-------|-4---2---1---4---4--4--4---4----|-----2--2--2--2------2--2------2-------|
D|-----7---9---11--------9---7-------|-6---4---2---4---4--4--4---4----|-------------------------------2-------|
A|-0---------------------------------|-------------2---2--2--2--------|---------------------------0-------0---|
E|-------------------------------0---|--------------------------------|-2---------------4---------------------|


E|-----2--2--2--2--2---2---2--2--2---2---|-----0--0--0--0------0--0------0-------|
B|-----0--0--0--0--0---0---0--0--0---0---|-----0--0--0--0------0--0------0-------|
G|-4---4--4--4--4--4---4---4--4--4---4---|-----2--2--2--2------2--2------2-------|
D|-4-------------------------------------|-------------------------------2-------|
A|-2-------------------------------------|---------------------------0-------0---|
E|---------------------------------------|-2---------------4---------------------|


E|-----2--2--2--2--2---0--2---2--2---------|-----0--0--0--0------0--0------0-------|
B|-----0--0--0--0--0---0--0---0--0--0--0---|-----0--0--0--0------0--0------0-------|
G|-4---4--4--4--4--4---4--4---4--4--4--4---|-----2--2--2--2------2--2------2-------|
D|-4--------------------------------4--4---|-------------------------------2-------|
A|-2--------------------------------2--2---|---------------------------0-------0---|
E|-----------------------------------------|-2---------------4---------------------|


E|-----2--2--2--2--2---2---2--2--2---2---|-----0--0--0--0------0--0------0-------|
B|-----0--0--0--0--0---0---0--0--0---0---|-----0--0--0--0------0--0------0-------|
G|-4---4--4--4--4--4---4---4--4--4---4---|-----2--2--2--2------2--2------2-------|
D|-4-------------------------------------|-------------------------------2-------|
A|-2-------------------------------------|---------------------------0-------0---|
E|---------------------------------------|-2---------------4---------------------|


E|-----2--2--2--2--2---0--2---2--2---------|-0--2---2--0--2--------0--2----2----|-0--2-----2--2---------0---------2---------|
B|-----0--0--0--0--0---0--0---0--0--0--0---|-0--0---0--0-----0--0--0------------|-0-----0--------0--0---0---0--0--0---0--0--|
G|-4---4--4--4--4--4---4--4---4--4--4--4---|-4--4---4--4-----4--4--4------------|-4---------------------4---------4---------|
D|-4--------------------------------4--4---|-----------------4--4---------------|-------------------------------------------|
A|-2--------------------------------2--2---|------------------------------------|-------------------------------------------|
E|-----------------------------------------|------------------------------------|-------------------------------------------|


E|-2--4-----4--4---------0------0------------|-4--5-----5--5---------4---------0---------|
B|-0-----0--------0------0---0-----0--0------|-0-----0--0--0--0------0---0--0--0---0--0--|
G|-2-----------------2---2---------------2---|-2-----------------2---2---------2---------|
D|-------------------------------------------|-------------------------------------------|
A|-------------------------------------------|-------------------------------------------|
E|-------------------------------------------|-------------------------------------------|


E|-0--2-----2--2--2--2--2--0--2-----2--2--2--2---|-0--2-----2--2---------0---------2---------|
B|-0-----0--------0--0--0--0-----0--------0--0---|-0-----0--------0--0---0---0--0--0---0--0--|
G|-4-----------------------4---------------------|-4---------------------4---------4---------|
D|-----------------------------------------------|-------------------------------------------|
A|-----------------------------------------------|-------------------------------------------|
E|-----------------------------------------------|-------------------------------------------|


E|-2--4-----4--4---------0------0------------|-4--5-----5--5---------4---------0---------|
B|-0-----0--------0------0---0-----0--0------|-0-----0--0--0--0------0---0--0--0---0--0--|
G|-2-----------------2---2---------------2---|-2-----------------2---2---------2---------|
D|-------------------------------------------|-------------------------------------------|
A|-------------------------------------------|-------------------------------------------|
E|-------------------------------------------|-------------------------------------------|


E|-0--2-----2--2--2--2--2--0--2-----2--2--2--2---|-0--2-----2--2---------0---------2---------|
B|-0-----0--------0--0--0--0-----0--------0--0---|-0-----0--------0--0---0---0--0--0---0--0--|
G|-4-----------------------4---------------------|-4---------------------4---------4---------|
D|-----------------------------------------------|-------------------------------------------|
A|-----------------------------------------------|-------------------------------------------|
E|-----------------------------------------------|-------------------------------------------|


E|-2--4-----4--4---------0------0------------|-4--5-----5--5---------4---------0---------|
B|-0-----0--------0------0---0-----0--0------|-0-----0--0--0--0------0---0--0--0---0--0--|
G|-2-----------------2---2---------------2---|-2-----------------2---2---------2---------|
D|-------------------------------------------|-------------------------------------------|
A|-------------------------------------------|-------------------------------------------|
E|-------------------------------------------|-------------------------------------------|


E|-0--2-----2--2--2--2--2--0--2-----2--2--2--2---|-0--2-----2--2---------0---------2---------|
B|-0-----0--------0--0--0--0-----0--------0--0---|-0-----0--------0--0---0---0--0--0---0--0--|
G|-4-----------------------4---------------------|-4---------------------4---------4---------|
D|-----------------------------------------------|-------------------------------------------|
A|-----------------------------------------------|-------------------------------------------|
E|-----------------------------------------------|-------------------------------------------|


E|-2--4-----4--4---------0------0------------|-4--5-----5--5---------4---------0---------|
B|-0-----0--------0------0---0-----0--0------|-0-----0--0--0--0------0---0--0--0---0--0--|
G|-2-----------------2---2---------------2---|-2-----------------2---2---------2---------|
D|-------------------------------------------|-------------------------------------------|
A|-------------------------------------------|-------------------------------------------|
E|-------------------------------------------|-------------------------------------------|


E|-0--2-----2--2--2--2--2--0--2-----2--2--2--2---|-0--2-----2--2---------0---------2---------|
B|-0-----0--------0--0--0--0-----0--------0--0---|-0-----0--------0--0---0---0--0--0---0--0--|
G|-4-----------------------4---------------------|-4---------------------4---------4---------|
D|-----------------------------------------------|-------------------------------------------|
A|-----------------------------------------------|-------------------------------------------|
E|-----------------------------------------------|-------------------------------------------|


E|-2--4-----4--4---------0------0------------|-4--5-----5--5---------4---------0---------|
B|-0-----0--------0------0---0-----0--0------|-0-----0--0--0--0------0---0--0--0---0--0--|
G|-2-----------------2---2---------------2---|-2-----------------2---2---------2---------|
D|-------------------------------------------|-------------------------------------------|
A|-------------------------------------------|-------------------------------------------|
E|-------------------------------------------|-------------------------------------------|


E|-0--2-----2--2--2--2--2--0--2-----2--2--2--2---|-0--2-----2--2---------0---------2---------|
B|-0-----0--------0--0--0--0-----0--------0--0---|-0-----0--------0--0---0---0--0--0---0--0--|
G|-4-----------------------4---------------------|-4---------------------4---------4---------|
D|-----------------------------------------------|-------------------------------------------|
A|-----------------------------------------------|-------------------------------------------|
E|-----------------------------------------------|-------------------------------------------|


E|-2--4-----4--4---------0------0------------|-4--5-----5--5---------4---------0---------|
B|-0-----0--------0------0---0-----0--0------|-0-----0--0--0--0------0---0--0--0---0--0--|
G|-2-----------------2---2---------------2---|-2-----------------2---2---------2---------|
D|-------------------------------------------|-------------------------------------------|
A|-------------------------------------------|-------------------------------------------|
E|-------------------------------------------|-------------------------------------------|


E|-0--2-----2--2--2--2--2--0--2-----2--2--2--2---|-0--2-----2--2---------0---------2---------|
B|-0-----0--------0--0--0--0-----0--------0--0---|-0-----0--------0--0---0---0--0--0---0--0--|
G|-4-----------------------4---------------------|-4---------------------4---------4---------|
D|-----------------------------------------------|-------------------------------------------|
A|-----------------------------------------------|-------------------------------------------|
E|-----------------------------------------------|-------------------------------------------|


E|-2--4-----4--4---------0------0------------|-4--5-----5--5---------4---------0---------|
B|-0-----0--------0------0---0-----0--0------|-0-----0--0--0--0------0---0--0--0---0--0--|
G|-2-----------------2---2---------------2---|-2-----------------2---2---------2---------|
D|-------------------------------------------|-------------------------------------------|
A|-------------------------------------------|-------------------------------------------|
E|-------------------------------------------|-------------------------------------------|


E|-0--2-----2--2--2--2--2--0--2-----2--2--2--2---|-0--2-----2--2---------0---------2---------|
B|-0-----0--------0--0--0--0-----0--------0--0---|-0-----0--------0--0---0---0--0--0---0--0--|
G|-4-----------------------4---------------------|-4---------------------4---------4---------|
D|-----------------------------------------------|-------------------------------------------|
A|-----------------------------------------------|-------------------------------------------|
E|-----------------------------------------------|-------------------------------------------|


E|-2--4-----4--4---------0------0------------|-4--5-----5--5---------4---------0---------|
B|-0-----0--------0------0---0-----0--0------|-0-----0--0--0--0------0---0--0--0---0--0--|
G|-2-----------------2---2---------------2---|-2-----------------2---2---------2---------|
D|-------------------------------------------|-------------------------------------------|
A|-------------------------------------------|-------------------------------------------|
E|-------------------------------------------|-------------------------------------------|


E|-0--2-----2--2--2--2--2--0--2-----2--2--2--2---|-0--2-----2--2---------0---------2---------|
B|-0-----0--------0--0--0--0-----0--------0--0---|-0-----0--------0--0---0---0--0--0---0--0--|
G|-4-----------------------4---------------------|-4---------------------4---------4---------|
D|-----------------------------------------------|-------------------------------------------|
A|-----------------------------------------------|-------------------------------------------|
E|-----------------------------------------------|-------------------------------------------|


E|-2--4-----4--4---------0------0------------|-4--5-----5--5---------4---------0---------|
B|-0-----0--------0------0---0-----0--0------|-0-----0--0--0--0------0---0--0--0---0--0--|
G|-2-----------------2---2---------------2---|-2-----------------2---2---------2---------|
D|-------------------------------------------|-------------------------------------------|
A|-------------------------------------------|-------------------------------------------|
E|-------------------------------------------|-------------------------------------------|


E|-0--2-----2--2--2--2--2--0--2-----2--2--2--2---|-0--2-----2--2---------0---------2---------|
B|-0-----0--------0--0--0--0-----0--------0--0---|-0-----0--------0--0---0---0--0--0---0--0--|
G|-4-----------------------4---------------------|-4---------------------4---------4---------|
D|-----------------------------------------------|-------------------------------------------|
A|-----------------------------------------------|-------------------------------------------|
E|-----------------------------------------------|-------------------------------------------|


E|-2--4-----4--4---------0------0------------|-4--5-----5--5---------4---------0---------|
B|-0-----0--------0------0---0-----0--0------|-0-----0--0--0--0------0---0--0--0---0--0--|
G|-2-----------------2---2---------------2---|-2-----------------2---2---------2---------|
D|-------------------------------------------|-------------------------------------------|
A|-------------------------------------------|-------------------------------------------|
E|-------------------------------------------|-------------------------------------------|


E|-0--2-----2--2--2--2--2--0--2-----2--2--2--2---|-0--2-----2--2---------0---------2---------|
B|-0-----0--------0--0--0--0-----0--------0--0---|-0-----0--------0--0---0---0--0--0---0--0--|
G|-4-----------------------4---------------------|-4---------------------4---------4---------|
D|-----------------------------------------------|-------------------------------------------|
A|-----------------------------------------------|-------------------------------------------|
E|-----------------------------------------------|-------------------------------------------|


E|-2--4-----4--4---------0------0------------|-4--5-----5--5---------4---------0---------|
B|-0-----0--------0------0---0-----0--0------|-0-----0--0--0--0------0---0--0--0---0--0--|
G|-2-----------------2---2---------------2---|-2-----------------2---2---------2---------|
D|-------------------------------------------|-------------------------------------------|
A|-------------------------------------------|-------------------------------------------|
E|-------------------------------------------|-------------------------------------------|


E|-0--2-----2--2--2--2--2--0--2-----2--2--2--2---|-0--2-----2------------0-----|--------|
B|-0-----0--------0--0--0--0-----0--------0--0---|-0-----0-----0--0--0---0-----|--------|
G|-4-----------------------4---------------------|-4---------------------4-----|--------|
D|-----------------------------------------------|-----------------------------|--------|
A|-----------------------------------------------|-----------------------------|--------|
E|-----------------------------------------------|-----------------------------|--------|


E|---------------------------------------|----------------------------0----------|
B|--------------------------0------------|-------------------------0--0----------|
G|-7------11-11------9------------9------|-7---7--9--9--9--11--9---9--9--7--9----|
D|-5---7--9--9--9----7---------7---------|-5---5--7--7--7--9---7---7-----7--7----|
A|-7---5--10-10-10---9---9---------------|-7---7--9--9--9--10--9-----------------|
E|--------------0--------------------0---|---------------------------------------|


E|--------0--------------------------------|---------------------------------------|
B|-----0--0----------------0---------------|--------0--0--0------------------------|
G|-11--11-11-----------9---9--9--7---7--7--|-9---9--9--9--9--9----------9----------|
D|-9---9-----9--9------7---7--7--5---5--5--|-7---7--7--7--7--7---7---7--7--7---7---|
A|-10------------------9---9--9--7---7--7--|-9---9-----------9---9---9--9--9---9---|
E|-----------------0-----------------------|---------------------------------------|


E|-------------------------------------|--------0--0--0-------------0------------|
B|-----0--0--0--0----------------------|--------0--0--0----------0-----7--7------|
G|-11--11----11-11-----9---9---7-------|-9---9-----9--9------7---7---------------|
D|-9---9-----9--9------7-------5-------|-7---7-----7--7------5---5---------------|
A|-10------------------9-------7-------|-9---9---------------7-------------------|
E|-----------------0---------------0---|-----------------0-------------------0---|


E|-------------------------------------|--------0--0-----------------------------|
B|-----0--0--0--0----------------------|--------0--0--0--------------------------|
G|-11--11-11-11-11-----9-------7-------|-----9--9--9--9-------------9------------|
D|-9---9--9--9--9------7---7---5-------|-----7--7--7--7--7---7---7-----7--7------|
A|-10--------------0---9---9---7-------|-9---9-------------------------------9---|
E|---------------------------------0---|-----------------------------------------|


E|---------------------------------------|---------------------------------------|
B|---------------------------------------|---------------------------------------|
G|-----9---9--9------9---9--9--9--9------|--------9--9---------------------------|
D|---------------7---7---7--7--7--7------|-----9--------9------------------------|
A|-9---------------------------------9---|-----------------7--------7--7--7------|
E|---------------------------------------|-0-------------------0-------------0---|


E|-----------------------|--------|
B|-----------------------|--------|
G|-----------------------|--------|
D|-----------------------|--------|
A|-----------------------|--------|
E|-0----0--0---0---0-----|--------|





Track 2: Electric w/distortion

E|--------|--------|--------|--------|--------|--------|--------|--------|--------|
B|--------|--------|--------|--------|--------|--------|--------|--------|--------|
G|--------|--------|--------|--------|--------|--------|--------|--------|--------|
D|--------|--------|--------|--------|--------|--------|--------|--------|--------|
A|--------|--------|--------|--------|--------|--------|--------|--------|--------|
E|--------|--------|--------|--------|--------|--------|--------|--------|--------|


E|--------|--------|--------|--------|--------|--------|--------|--------|------------------------------|
B|--------|--------|--------|--------|--------|--------|--------|--------|------------------------------|
G|--------|--------|--------|--------|--------|--------|--------|--------|-----6---8---9---9---8---6----|
D|--------|--------|--------|--------|--------|--------|--------|--------|------------------------------|
A|--------|--------|--------|--------|--------|--------|--------|--------|------------------------------|
E|--------|--------|--------|--------|--------|--------|--------|--------|------------------------------|


E|-----------------------|------------------------------|-----------------------|------------------------------|
B|-----------------------|---------------------7----9---|-9---10--9---7---7-----|------------------------------|
G|-----------------------|-----6---8---9---9------------|-----------------------|-----6---8---9---9---8---6----|
D|-9---7---6-------------|------------------------------|-----------------------|------------------------------|
A|-------------9---9-----|------------------------------|-----------------------|------------------------------|
E|-----------------------|------------------------------|-----------------------|------------------------------|


E|-----------------------|-----------------------------|----------------|-------------------------------------|
B|-----------------------|-7--9---9--9---9---9----5----|-5--7----7------|-7--9---9--9---10--9--10-9--7---5----|
G|-----------------------|-----------------------------|----------------|-------------------------------------|
D|-9---7---6-------------|-----------------------------|----------------|-------------------------------------|
A|-------------9---9-----|-----------------------------|----------------|-------------------------------------|
E|-----------------------|-----------------------------|----------------|-------------------------------------|


E|-----------------------|--------|--------|--------|--------|--------|--------|--------|
B|-5--7----7-------------|--------|--------|--------|--------|--------|--------|--------|
G|-------------4---4-----|--------|--------|--------|--------|--------|--------|--------|
D|-----------------------|--------|--------|--------|--------|--------|--------|--------|
A|-----------------------|-2------|--------|--------|--------|--------|--------|--------|
E|-----------------------|--------|--------|--------|--------|--------|--------|--------|


E|--------|-----------------------------|----------------|------------------------|
B|--------|-----------------------------|----------------|------------------------|
G|--------|-9--11---11---9----9--9--4---|----------------|-11----9----9--9--4--2--|
D|--------|-----------------------------|-7--9----9------|------------------------|
A|--------|-----------------------------|----------------|------------------------|
E|--------|-----------------------------|----------------|------------------------|


E|-------------------|----------12--12---12-10-----|------12-12--12--10----12----12--12-12-|
B|-------------------|-----------------------------|---------------------------------------|
G|-4-----4--2--4-----|-----------------------------|---------------------------------------|
D|-------------------|-----------------------------|---------------------------------------|
A|-------------------|-----------------------------|---------------------------------------|
E|-------------------|-----------------------------|---------------------------------------|


E|-12----10--------------------|-----12-11108-7-7------------7-8-10-8-7-----------------------|
B|----------12-10-10---10------|------------------108-7--8-10-----------108-6-5-7-8-7-5-------|
G|-----------------------------|--------------------------------------------------------7-5-4-|
D|-----------------------------|--------------------------------------------------------------|
A|-----------------------------|--------------------------------------------------------------|
E|-----------------------------|--------------------------------------------------------------|


E|--------------------------------------------------------------|------------------------------------|
B|-------------5------------------------------------------------|------------------------------------|
G|-5-7-5-4-5-7----7------------------4-4------------------------|------------------------------------|
D|-------------------4---5-7-5-4-5-7------7--5------------------|------------------------------------|
A|----------------------------------------------7--5--7--5--3---|-5--7------------2-3-5---3-3-5-7----|
E|--------------------------------------------------------------|------------------------------------|


E|-----------------|-----7--10-8--7------------------------|-----------------------14-15-15--15-15-14-|
B|-----------------|-----------------8--10-8---12--8----7--|-7--5----5--7-----------------------------|
G|-----------------|---------------------------------------|------------------------------------------|
D|-----------------|---------------------------------------|------------------------------------------|
A|-0-----0---------|---------------------------------------|------------------------------------------|
E|-----------------|---------------------------------------|------------------------------------------|


E|------------------------------------|------------------------------------------|
B|-15---15----------15-17-15----------|-------------171512-13-15-13-12----12-----|
G|------------------------------14-16-|-14---14------------------------14----1412|
D|------------------------------------|------------------------------------------|
A|------------------------------------|------------------------------------------|
E|------------------------------------|------------------------------------------|


E|--------------------------------------------------|---------------------------|-----------------------------------|
B|--------------------------------------------------|---------------------------|-----------------------------------|
G|-9--11-12-11-9------------------------------------|---------------------------|-----------------------------------|
D|----------------12-10-9--12-10-------9--109----9--|---------------------------|-----------------------------------|
A|-------------------------------10-12--------12----|-10-12---12---12--17---7---|-7----------5--------2-3-5-3-2-3-5-|
E|--------------------------------------------------|---------------------------|---------------2-3-5---------------|


E|----------------------------------------------------------------------|------------------------|
B|----------------------------------------------------------------------|------------------------|
G|-------------------5-7-9-7-5-4-5-7-5-4--------------------------------|------------------------|
D|-2-4-5-7-5-4-5-7-9----------------------4-5-7-5-4-5-7-9-7-5-----------|------------------------|
A|------------------------------------------------------------9-7-5-3---|-3--5----5--------------|
E|----------------------------------------------------------------------|--------------12---12---|


E|--------|--------|--------|-------17-16-------------------------|--------|-----------------0--0------0--0------|
B|--------|--------|--------|-------------17----------------------|--------|-----------------0--0------0--0------|
G|--------|--------|--------|----------------16-14----------------|--------|-----4---6---9---------11--------9---|
D|--------|--------|--------|----------------------18-17----------|--------|-----2---4---6---------7---------6---|
A|--------|--------|--------|----------------------------14-12----|--------|-------------------------------------|
E|-0------|-0------|-0------|-0--------------------------------16-|-12-----|-0-----------------------------------|


E|-----------------0--0------0--0------|-----0---0--0--0-------0---0--0--0--0--|-----------------0--0------0--0------|
B|-----------------0--0------0--0------|-----0---0--0--0-------0---0--0--0--0--|-----------------0--0------0--0------|
G|-----4---6---9---------11--------13--|-----11--11-11-11------11--11-11-11-11-|-----4---6---9---------11--------13--|
D|-----2---4---6---------9---------11--|-----9---9--9--9-------9---9--9--9--9--|-----2---4---6---------9---------11--|
A|-------------------------------------|---------------------------------------|-------------------------------------|
E|-0-----------------------------------|-9-----------------7-------------------|-0-----------------------------------|


E|---------------------------------|-----------------0--0------0--0------|-----7---7--7--7--7--7---7---7--7---7--|
B|---------------------------------|-----------------0--0------0--0------|-----0---0--0--0--0--0---0---0--0---0--|
G|-----4---6---9---11--13--11--9---|-----4---6---9---------11--------13--|-----9---9--9--9--9--9---9---9--9---9--|
D|-----2---4---6---7---9---7---6---|-----2---4---6---------9---------11--|-----9---9--9--9--9--9---9---9--9---9--|
A|---------------------------------|-------------------------------------|---------------------------------------|
E|-0-------------------------------|-0-----------------------------------|-9-------------------7-----------------|


E|------------------------------|-----------------------|------------------------------|
B|------------------------------|-----------------------|---------------------7----9---|
G|-----6---8---9---9---8---6----|-----------------------|-----6---8---9---9------------|
D|------------------------------|-9---7---6-------------|------------------------------|
A|------------------------------|-------------9---9-----|------------------------------|
E|------------------------------|-----------------------|------------------------------|


E|-----------------------|------------------------------|-----------------------|-----------------------------|
B|-9---10--9---7---7-----|------------------------------|-----------------------|-7--9---9--9---9---9----5----|
G|-----------------------|-----6---8---9---9---8---6----|-----------------------|-----------------------------|
D|-----------------------|------------------------------|-9---7---6-------------|-----------------------------|
A|-----------------------|------------------------------|-------------9---9-----|-----------------------------|
E|-----------------------|------------------------------|-----------------------|-----------------------------|


E|----------------|-------------------------------------|-----------------------|--------------------------------|
B|-5--7----7------|-7--9---9--9---10--9--10-9--7---5----|-5--7----7-------------|-7--9---9--9---9---9---5---5----|
G|----------------|-------------------------------------|-------------4---4-----|--------------------------------|
D|----------------|-------------------------------------|-----------------------|--------------------------------|
A|----------------|-------------------------------------|-----------------------|--------------------------------|
E|----------------|-------------------------------------|-----------------------|--------------------------------|


E|----------------|-------------------------------------|---------------------------|
B|-5--7----7------|-7--9---9--9---10--9--10-9--7--------|---------------------------|
G|----------------|--------------------------------9----|-9--11---11---14-4-----4---|
D|----------------|-------------------------------------|---------------------------|
A|----------------|-------------------------------------|---------------------------|
E|----------------|-------------------------------------|---------------------------|


E|--------|--------|--------|--------|--------|--------|--------|--------|--------------------|
B|--------|--------|--------|--------|--------|--------|--------|--------|--------------------|
G|--------|--------|--------|--------|--------|--------|--------|--------|--------------------|
D|--------|--------|--------|--------|--------|--------|--------|--------|--------------------|
A|-2------|--------|--------|--------|--------|--------|--------|--------|--------------------|
E|--------|-0------|-0------|-0------|-0------|-0------|--------|--------|-----------2---7----|


E|-----------------------|----------------------------------|-------------------------------------|
B|-----------------------|----------------------------------|-------------------------------------|
G|-----------------------|----------------------------------|-------------------------------------|
D|-----------------------|----------------------------------|-------------------------------------|
A|-------------------11--|-11-12--11-11---------------------|---------9---11--11-12--11-11-9--7---|
E|-0-----0---12--14------|--------------14-12--12-14---14---|-14--12------------------------------|


E|--------------------------|-----------------------|----------------------------------|
B|--------------------------|-----------------------|----------------------------------|
G|--------------------------|-----------------------|----------------------------------|
D|--------------------------|-----------------------|----------------------------------|
A|-9--7---7--7----7---------|-----------7---9---11--|-11-12--11-11-9--7---7--9----9----|
E|---------------------7----|-0-----0---------------|----------------------------------|


E|-------------------------------------|--------------------|-----------------------|
B|-------------------------------------|--------------------|-----------------------|
G|-------------------------------------|--------------------|-----------------------|
D|-------------------------------------|--------------------|-------9---9-----7--9--|
A|-9---7---9---11--11-12--11-11-9--7---|-9--7----7----------|-----------------------|
E|-------------------------------------|---------------7----|-0---------------------|


E|--------------------------------|--------------------------------------|---------------------------------------|
B|--------------------------------|--------------------------------------|---------------------------------------|
G|--------------------------------|------------------8---9---9---8-------|---------------------11----11----11-11-|
D|-9--11---9--7--9---9--11---11---|-11---11--9---11------------------11--|-9----9--9---9---9------9-----9--------|
A|--------------------------------|--------------------------------------|---------------------------------------|
E|--------------------------------|--------------------------------------|---------------------------------------|


E|--------------------------|----------------------------------|-------------------------------------|
B|-----------------------9--|-9--10--9--9----------------------|-------------9---9--10--9--9---------|
G|-11----9---9----9---11----|--------------11-9---9--11---11---|-11--9---11-------------------11-9---|
D|--------------------------|----------------------------------|-------------------------------------|
A|--------------------------|----------------------------------|-------------------------------------|
E|--------------------------|----------------------------------|-------------------------------------|


E|--------------------------------|---------------------------|-------------------------------|
B|--------------------------------|---------------------12-12-|-12-14---14---14-14-14-12-14---|
G|-11-9---9--9--------------------|-----------13--13-14-------|-------------------------------|
D|---------------9---9------------|---------------------------|-------------------------------|
A|----------------------7---------|---------------------------|-------------------------------|
E|---------------------------7----|-0-----0-------------------|-------------------------------|


E|----------------12-12------|-----------14--14---12|-14---14-14-12-14--14---12--14-16-|
B|-14----14--16----------12--|-12----12-------------|----------------------------------|
G|---------------------------|----------------------|----------------------------------|
D|---------------------------|----------------------|----------------------------------|
A|---------------------------|----------------------|----------------------------------|
E|---------------------------|----------------------|----------------------------------|


E|-16-16--16-16--14----14----|-14----14-161616-14--14161616161614--14-16-16-16-14--14-16-16-|
B|------------------17-------|----17-------------17--------------17--------------17---------|
G|---------------------------|--------------------------------------------------------------|
D|---------------------------|--------------------------------------------------------------|
A|---------------------------|--------------------------------------------------------------|
E|---------------------------|--------------------------------------------------------------|


E|-16161614---161616161614---161616161614--14--19--19--|-19---19-19--19--19---19-19--19--|
B|---------17-------------17-------------17------------|---------------------------------|
G|-----------------------------------------------------|---------------------------------|
D|-----------------------------------------------------|---------------------------------|
A|-----------------------------------------------------|---------------------------------|
E|-----------------------------------------------------|---------------------------------|


E|-19---19-17--19--19-19--19-19---|-19--19--19-19---19---19-17--19--|-19---19-19--19------------|
B|--------------------------------|---------------------------------|---------------------------|
G|--------------------------------|---------------------------------|---------------------------|
D|--------------------------------|---------------------------------|---------------------------|
A|--------------------------------|---------------------------------|---------------------------|
E|--------------------------------|---------------------------------|-----------------24---12---|


E|-----------------------|----------------------------------|-------------------------------------|
B|-----------------------|----------------------------------|-------------------------------------|
G|-----------------------|----------------------------------|-------------------------------------|
D|-----------------------|----------------------------------|-------------------------------------|
A|-----------7---9---11--|-11-12--11-11-9--7---7--9----9----|-9-------9---11--11-12--11-11-9--7---|
E|-0-----0---------------|----------------------------------|-----12------------------------------|


E|------------------------------|-----------------------|----------------------------------|
B|------------------------------|-----------------------|----------------------------------|
G|------------------------------|-----------------------|----------------------------------|
D|------------------------------|-----------------------|----------------------------------|
A|-9--7----7----7--7------------|-----------7---9---11--|-11-12--11-11-9--7---7--9----9----|
E|----------------------7--7----|-0-----0---------------|----------------------------------|


E|-------------------------------------|---------------------------|-------------|
B|-------------------------------------|---------------------------|-------------|
G|-------------------------------------|---------------------------|-------------|
D|-------------------------------------|---------------------------|-------------|
A|-9---7---9---11--11-12--11-11-9--7---|-9--7----7----23-----------|-------------|
E|-------------------------------------|--------------23-24---12---|-0-----0-----|


E|-------------|--------|--------|--------|--------|--------|--------|--------|--------|
B|-------------|--------|--------|--------|--------|--------|--------|--------|--------|
G|-------------|--------|--------|--------|--------|--------|--------|--------|--------|
D|-------------|--------|--------|--------|--------|--------|--------|--------|--------|
A|-------------|--------|--------|--------|--------|--------|--------|--------|--------|
E|-0-----0-----|-0------|--------|--------|--------|--------|--------|--------|--------|


E|--------|--------|--------|--------|
B|--------|--------|--------|--------|
G|--------|--------|--------|--------|
D|--------|--------|--------|--------|
A|--------|--------|--------|--------|
E|--------|--------|--------|--------|





Track 3: Acoustic

E|--------|--------|--------|--------|--------|--------|--------|--------|--------|
B|--------|--------|--------|--------|--------|--------|--------|--------|--------|
G|--------|--------|--------|--------|--------|--------|--------|--------|--------|
D|--------|--------|--------|--------|--------|--------|--------|--------|--------|
A|--------|--------|--------|--------|--------|--------|--------|--------|--------|
E|--------|--------|--------|--------|--------|--------|--------|--------|--------|


E|--------|--------|--------|--------|--------|--------|--------|--------|--------|
B|--------|--------|--------|--------|--------|--------|--------|--------|--------|
G|--------|--------|--------|--------|--------|--------|--------|--------|--------|
D|--------|--------|--------|--------|--------|--------|--------|--------|--------|
A|--------|--------|--------|--------|--------|--------|--------|--------|--------|
E|--------|--------|--------|--------|--------|--------|--------|--------|--------|


E|--------|--------|--------|--------|--------|--------|--------|--------|--------|
B|--------|--------|--------|--------|--------|--------|--------|--------|--------|
G|--------|--------|--------|--------|--------|--------|--------|--------|--------|
D|--------|--------|--------|--------|--------|--------|--------|--------|--------|
A|--------|--------|--------|--------|--------|--------|--------|--------|--------|
E|--------|--------|--------|--------|--------|--------|--------|--------|--------|


E|--------|--------|--------|--------|--------|--------|--------|--------|--------|
B|--------|--------|--------|--------|--------|--------|--------|--------|--------|
G|--------|--------|--------|--------|--------|--------|--------|--------|--------|
D|--------|--------|--------|--------|--------|--------|--------|--------|--------|
A|--------|--------|--------|--------|--------|--------|--------|--------|--------|
E|--------|--------|--------|--------|--------|--------|--------|--------|--------|


E|--------|--------|--------|-------------------------------------|-------------------------------------|
B|--------|--------|--------|--------5--5--5------7-------3---5---|--------5--5--5------7-------3-------|
G|--------|--------|--------|-------------------------------------|-------------------------------------|
D|--------|--------|--------|-----5-----------7-------4---4---5---|-----5-----------7-------4-----------|
A|--------|--------|--------|-3-----------------------------------|-3-----------------------------------|
E|--------|--------|--------|-------------------------------------|-------------------------------------|


E|-------------------------------------|--------------------------------|-------------------------------------|
B|--------7--7--7------8-------5---7---|--------7------------------3----|--------5--5--5------7-------3---5---|
G|-------------------------------------|-----------------------0--------|-------------------------------------|
D|-----7-----------9-------5---5---7---|-----7-------------4------------|-----5-----------7-------4---4---5---|
A|-5-----------------------------------|-5-------------2----------------|-3-----------------------------------|
E|-------------------------------------|--------------------------------|-------------------------------------|


E|-------------------------------------|-------------------------------------|--------------------------------|
B|--------5--5--5------7-------3-------|--------7--7--7------8-------5---7---|--------7------------------3----|
G|-------------------------------------|-------------------------------------|-----------------------0--------|
D|-----5-----------7-------4-----------|-----7-----------9-------5---5---7---|-----7-------------4------------|
A|-3-----------------------------------|-5-----------------------------------|-5-------------2----------------|
E|-------------------------------------|-------------------------------------|--------------------------------|


E|-------------------------------------|-------------------------------------|-------------------------------------|
B|--------5--5--5------7-------3---5---|--------5--5--5------7-------3-------|--------7--7--7------8-------5---7---|
G|-------------------------------------|-------------------------------------|-------------------------------------|
D|-----5-----------7-------4---4---5---|-----5-----------7-------4-----------|-----7-----------9-------5---5---7---|
A|-3-----------------------------------|-3-----------------------------------|-5-----------------------------------|
E|-------------------------------------|-------------------------------------|-------------------------------------|


E|--------------------------------|-------------------------------------|-------------------------------------|
B|--------7------------------3----|--------5--5--5------7-------3---5---|--------5--5--5------7-------3-------|
G|-----------------------0--------|-------------------------------------|-------------------------------------|
D|-----7-------------4------------|-----5-----------7-------4---4---5---|-----5-----------7-------4-----------|
A|-5-------------2----------------|-3-----------------------------------|-3-----------------------------------|
E|--------------------------------|-------------------------------------|-------------------------------------|


E|-------------------------------------|-------------------------------|--------|--------|
B|--------7--7--7------8-------5---7---|-------------------------------|--------|--------|
G|-------------------------------------|-------------------------------|--------|--------|
D|-----7-----------9-------5---5---7---|--------7-----7------7----7----|--------|--------|
A|-5-----------------------------------|-5---5-----5-----5---5----5----|--------|--------|
E|-------------------------------------|-------------------------------|--------|--------|


E|--------|--------|--------|--------|--------|--------|--------|--------|--------|
B|--------|--------|--------|--------|--------|--------|--------|--------|--------|
G|--------|--------|--------|--------|--------|--------|--------|--------|--------|
D|--------|--------|--------|--------|--------|--------|--------|--------|--------|
A|--------|--------|--------|--------|--------|--------|--------|--------|--------|
E|--------|--------|--------|--------|--------|--------|--------|--------|--------|


E|--------|--------|--------|--------|--------|--------|--------|--------|--------|
B|--------|--------|--------|--------|--------|--------|--------|--------|--------|
G|--------|--------|--------|--------|--------|--------|--------|--------|--------|
D|--------|--------|--------|--------|--------|--------|--------|--------|--------|
A|--------|--------|--------|--------|--------|--------|--------|--------|--------|
E|--------|--------|--------|--------|--------|--------|--------|--------|--------|


E|--------|--------|--------|--------|--------|--------|--------|--------|--------|
B|--------|--------|--------|--------|--------|--------|--------|--------|--------|
G|--------|--------|--------|--------|--------|--------|--------|--------|--------|
D|--------|--------|--------|--------|--------|--------|--------|--------|--------|
A|--------|--------|--------|--------|--------|--------|--------|--------|--------|
E|--------|--------|--------|--------|--------|--------|--------|--------|--------|


E|--------|--------|--------|--------|--------|--------|--------|--------|--------|
B|--------|--------|--------|--------|--------|--------|--------|--------|--------|
G|--------|--------|--------|--------|--------|--------|--------|--------|--------|
D|--------|--------|--------|--------|--------|--------|--------|--------|--------|
A|--------|--------|--------|--------|--------|--------|--------|--------|--------|
E|--------|--------|--------|--------|--------|--------|--------|--------|--------|


E|--------|--------|--------|--------|--------|--------|--------|--------|--------|
B|--------|--------|--------|--------|--------|--------|--------|--------|--------|
G|--------|--------|--------|--------|--------|--------|--------|--------|--------|
D|--------|--------|--------|--------|--------|--------|--------|--------|--------|
A|--------|--------|--------|--------|--------|--------|--------|--------|--------|
E|--------|--------|--------|--------|--------|--------|--------|--------|--------|


E|--------|--------|--------|--------|--------|--------|--------|--------|--------|
B|--------|--------|--------|--------|--------|--------|--------|--------|--------|
G|--------|--------|--------|--------|--------|--------|--------|--------|--------|
D|--------|--------|--------|--------|--------|--------|--------|--------|--------|
A|--------|--------|--------|--------|--------|--------|--------|--------|--------|
E|--------|--------|--------|--------|--------|--------|--------|--------|--------|


E|--------|--------|--------|--------|--------|--------|--------|--------|--------|
B|--------|--------|--------|--------|--------|--------|--------|--------|--------|
G|--------|--------|--------|--------|--------|--------|--------|--------|--------|
D|--------|--------|--------|--------|--------|--------|--------|--------|--------|
A|--------|--------|--------|--------|--------|--------|--------|--------|--------|
E|--------|--------|--------|--------|--------|--------|--------|--------|--------|


E|--------|--------|--------|--------|--------|--------|--------|--------|--------|
B|--------|--------|--------|--------|--------|--------|--------|--------|--------|
G|--------|--------|--------|--------|--------|--------|--------|--------|--------|
D|--------|--------|--------|--------|--------|--------|--------|--------|--------|
A|--------|--------|--------|--------|--------|--------|--------|--------|--------|
E|--------|--------|--------|--------|--------|--------|--------|--------|--------|


E|--------|--------|--------|--------|--------|--------|--------|--------|--------|
B|--------|--------|--------|--------|--------|--------|--------|--------|--------|
G|--------|--------|--------|--------|--------|--------|--------|--------|--------|
D|--------|--------|--------|--------|--------|--------|--------|--------|--------|
A|--------|--------|--------|--------|--------|--------|--------|--------|--------|
E|--------|--------|--------|--------|--------|--------|--------|--------|--------|


E|--------|--------|
B|--------|--------|
G|--------|--------|
D|--------|--------|
A|--------|--------|
E|--------|--------|





Track 4: Electric w/distortion

E|--------|--------|--------|--------|--------|--------|--------|--------|--------|
B|--------|--------|--------|--------|--------|--------|--------|--------|--------|
G|--------|--------|--------|--------|--------|--------|--------|--------|--------|
D|--------|--------|--------|--------|--------|--------|--------|--------|--------|
A|--------|--------|--------|--------|--------|--------|--------|--------|--------|
E|--------|--------|--------|--------|--------|--------|--------|--------|--------|


E|--------|--------|--------|--------|--------|--------|--------|--------|--------|
B|--------|--------|--------|--------|--------|--------|--------|--------|--------|
G|--------|--------|--------|--------|--------|--------|--------|--------|--------|
D|--------|--------|--------|--------|--------|--------|--------|--------|--------|
A|--------|--------|--------|--------|--------|--------|--------|--------|--------|
E|--------|--------|--------|--------|--------|--------|--------|--------|--------|


E|--------|--------|--------|--------|--------|--------|--------|--------|--------|
B|--------|--------|--------|--------|--------|--------|--------|--------|--------|
G|--------|--------|--------|--------|--------|--------|--------|--------|--------|
D|--------|--------|--------|--------|--------|--------|--------|--------|--------|
A|--------|--------|--------|--------|--------|--------|--------|--------|--------|
E|--------|--------|--------|--------|--------|--------|--------|--------|--------|


E|--------|--------|--------|--------|--------|--------|--------|--------|--------|
B|--------|--------|--------|--------|--------|--------|--------|--------|--------|
G|--------|--------|--------|--------|--------|--------|--------|--------|--------|
D|--------|--------|--------|--------|--------|--------|--------|--------|--------|
A|--------|--------|--------|--------|--------|--------|--------|--------|--------|
E|--------|--------|--------|--------|--------|--------|--------|--------|--------|


E|--------|--------|--------|--------|--------|--------|--------|--------|--------|
B|--------|--------|--------|--------|--------|--------|--------|--------|--------|
G|--------|--------|--------|--------|--------|--------|--------|--------|--------|
D|--------|--------|--------|--------|--------|--------|--------|--------|--------|
A|--------|--------|--------|--------|--------|--------|--------|--------|--------|
E|--------|--------|--------|--------|--------|--------|--------|--------|--------|


E|--------|--------|--------|--------|--------|--------|--------|--------|--------|
B|--------|--------|--------|--------|--------|--------|--------|--------|--------|
G|--------|--------|--------|--------|--------|--------|--------|--------|--------|
D|--------|--------|--------|--------|--------|--------|--------|--------|--------|
A|--------|--------|--------|--------|--------|--------|--------|--------|--------|
E|--------|--------|--------|--------|--------|--------|--------|--------|--------|


E|--------|-------------------------------------|-------------------------|---------------------------------|
B|--------|-5----5--5--5--5---7---9---9--10-12--|-12-14---14----12-10--12-|-12-14---14-17---17---14-12--10--|
G|--------|-------------------------------------|-------------------------|---------------------------------|
D|--------|-------------------------------------|-------------------------|---------------------------------|
A|--------|-------------------------------------|-------------------------|---------------------------------|
E|--------|-------------------------------------|-------------------------|---------------------------------|


E|----------------|--------------------|--------|--------|--------|--------|--------|
B|-10-12---12-----|-12-----------------|--------|--------|--------|--------|--------|
G|----------------|--------------------|--------|--------|--------|--------|--------|
D|----------------|--------------------|--------|--------|--------|--------|--------|
A|----------------|--------------------|--------|--------|--------|--------|--------|
E|----------------|--------------------|--------|--------|--------|--------|--------|


E|--------|--------|--------|--------|--------|--------|--------|--------|--------|
B|--------|--------|--------|--------|--------|--------|--------|--------|--------|
G|--------|--------|--------|--------|--------|--------|--------|--------|--------|
D|--------|--------|--------|--------|--------|--------|--------|--------|--------|
A|--------|--------|--------|--------|--------|--------|--------|--------|--------|
E|--------|--------|--------|--------|--------|--------|--------|--------|--------|


E|--------|--------|--------|--------|--------|--------|--------|--------|--------|
B|--------|--------|--------|--------|--------|--------|--------|--------|--------|
G|--------|--------|--------|--------|--------|--------|--------|--------|--------|
D|--------|--------|--------|--------|--------|--------|--------|--------|--------|
A|--------|--------|--------|--------|--------|--------|--------|--------|--------|
E|--------|--------|--------|--------|--------|--------|--------|--------|--------|


E|--------|--------|--------|--------|--------|--------|--------|--------|--------|
B|--------|--------|--------|--------|--------|--------|--------|--------|--------|
G|--------|--------|--------|--------|--------|--------|--------|--------|--------|
D|--------|--------|--------|--------|--------|--------|--------|--------|--------|
A|--------|--------|--------|--------|--------|--------|--------|--------|--------|
E|--------|--------|--------|--------|--------|--------|--------|--------|--------|


E|--------|--------|--------|--------|--------|--------|--------|--------|--------|
B|--------|--------|--------|--------|--------|--------|--------|--------|--------|
G|--------|--------|--------|--------|--------|--------|--------|--------|--------|
D|--------|--------|--------|--------|--------|--------|--------|--------|--------|
A|--------|--------|--------|--------|--------|--------|--------|--------|--------|
E|--------|--------|--------|--------|--------|--------|--------|--------|--------|


E|--------|--------|--------|--------|--------|--------|--------|--------|--------|
B|--------|--------|--------|--------|--------|--------|--------|--------|--------|
G|--------|--------|--------|--------|--------|--------|--------|--------|--------|
D|--------|--------|--------|--------|--------|--------|--------|--------|--------|
A|--------|--------|--------|--------|--------|--------|--------|--------|--------|
E|--------|--------|--------|--------|--------|--------|--------|--------|--------|


E|--------|--------|--------|--------|--------|--------|--------|--------|--------|
B|--------|--------|--------|--------|--------|--------|--------|--------|--------|
G|--------|--------|--------|--------|--------|--------|--------|--------|--------|
D|--------|--------|--------|--------|--------|--------|--------|--------|--------|
A|--------|--------|--------|--------|--------|--------|--------|--------|--------|
E|--------|--------|--------|--------|--------|--------|--------|--------|--------|


E|--------|--------|--------|--------|--------|--------|--------|--------|--------|
B|--------|--------|--------|--------|--------|--------|--------|--------|--------|
G|--------|--------|--------|--------|--------|--------|--------|--------|--------|
D|--------|--------|--------|--------|--------|--------|--------|--------|--------|
A|--------|--------|--------|--------|--------|--------|--------|--------|--------|
E|--------|--------|--------|--------|--------|--------|--------|--------|--------|


E|--------|--------|--------|--------|--------|--------|--------|--------|--------|
B|--------|--------|--------|--------|--------|--------|--------|--------|--------|
G|--------|--------|--------|--------|--------|--------|--------|--------|--------|
D|--------|--------|--------|--------|--------|--------|--------|--------|--------|
A|--------|--------|--------|--------|--------|--------|--------|--------|--------|
E|--------|--------|--------|--------|--------|--------|--------|--------|--------|


E|--------|--------|--------|
B|--------|--------|--------|
G|--------|--------|--------|
D|--------|--------|--------|
A|--------|--------|--------|
E|--------|--------|--------|





Track 5: Mandoline

E|-12-14--14-14-14-14--12---14---|-14-16-16-16-16-16-16--12----|-16-17--17-17-17-17--16---12---|
B|-------------------------------|-----------------------------|-------------------------------|
G|-------------------------------|-----------------------------|-------------------------------|
D|-------------------------------|-----------------------------|-------------------------------|
A|-------------------------------|-----------------------------|-------------------------------|
E|-------------------------------|-----------------------------|-------------------------------|


E|-12-14--14-14-14-14-14-12-14---14---|-12-14--14-14-14-14--12---14---|-14-16-16-16-16-16-16--12----|
B|------------------------------------|-------------------------------|-----------------------------|
G|------------------------------------|-------------------------------|-----------------------------|
D|------------------------------------|-------------------------------|-----------------------------|
A|------------------------------------|-------------------------------|-----------------------------|
E|------------------------------------|-------------------------------|-----------------------------|


E|-16-17--17-17-17-17--16---12---|-12-14--14-14-14-14-14-12-14--14-14-14-14-14-|-12-14---12-14---14----|
B|-------------------------------|---------------------------------------------|-----------------------|
G|-------------------------------|---------------------------------------------|-----------------------|
D|-------------------------------|---------------------------------------------|-----------------------|
A|-------------------------------|---------------------------------------------|-----------------------|
E|-------------------------------|---------------------------------------------|-----------------------|


E|---------9---12--12-12-12-14-14-14-14-16-|-16-16-----------12--12-12-12-14-14-14-12--|
B|-----12----------------------------------|-------12-12-14----------------------------|
G|-----------------------------------------|-------------------------------------------|
D|-----------------------------------------|-------------------------------------------|
A|-----------------------------------------|-------------------------------------------|
E|-----------------------------------------|-------------------------------------------|


E|-12-12---------12--12-12-14--14-14-16--|-16--14--14--14--14--14-14-14-14-14-14-|
B|-------12--14--------------------------|---------------------------------------|
G|---------------------------------------|---------------------------------------|
D|---------------------------------------|---------------------------------------|
A|---------------------------------------|---------------------------------------|
E|---------------------------------------|---------------------------------------|


E|-------------12--12-12-14--14-14-14-16-|-16-16---------12--14-14-16--14--12--|-12-12---------12--12-12-14--14-14-16--|
B|-----12--14----------------------------|-------12--14------------------------|-------12--14--------------------------|
G|---------------------------------------|-------------------------------------|---------------------------------------|
D|---------------------------------------|-------------------------------------|---------------------------------------|
A|---------------------------------------|-------------------------------------|---------------------------------------|
E|---------------------------------------|-------------------------------------|---------------------------------------|


E|-----19--19-19--19-19--19-19-19-19-19-19-|-------------------------------------|
B|-----------------------------------------|-----14--16--17--17-17-16--14--14-14-|
G|-----------------------------------------|-------------------------------------|
D|-----------------------------------------|-------------------------------------|
A|-----------------------------------------|-------------------------------------|
E|-----------------------------------------|-------------------------------------|


E|---------------------------------------|---------------------14---16--|-16--17--16--14--14-14-14--14--14--|
B|---------------------------------------|-----14--16--17--17-----------|-----------------------------------|
G|-16--14--13----------------------------|------------------------------|-----------------------------------|
D|-------------16--16-16-16--16-16-16-16-|------------------------------|-----------------------------------|
A|---------------------------------------|------------------------------|-----------------------------------|
E|---------------------------------------|------------------------------|-----------------------------------|


E|------------------------------|------------------------------|-14-16--16-16--16--16---12---|
B|-----14--16--17--17--16--14---|------------------------------|-----------------------------|
G|------------------------------|-16--14--13-------------------|-----------------------------|
D|------------------------------|-------------16--16--16--16---|-----------------------------|
A|------------------------------|------------------------------|-----------------------------|
E|------------------------------|------------------------------|-----------------------------|


E|-12-14--14-14--14--14-14---14--14--|-14-16--16-16--16--16--14--12---|-12-14--14-14------------|
B|-----------------------------------|--------------------------------|---------------12--12----|
G|-----------------------------------|--------------------------------|-------------------------|
D|-----------------------------------|--------------------------------|-------------------------|
A|-----------------------------------|--------------------------------|-------------------------|
E|-----------------------------------|--------------------------------|-------------------------|


E|--------|-------------12--12-12-14--14-14-14-16-|-16-16---------12--12-12-12-14-14-14-12--|
B|--------|-----12--14----------------------------|-------12--14----------------------------|
G|--------|---------------------------------------|-----------------------------------------|
D|--------|---------------------------------------|-----------------------------------------|
A|--------|---------------------------------------|-----------------------------------------|
E|--------|---------------------------------------|-----------------------------------------|


E|-12-12---------12--12-12-14--14-14-14-16-|-16--14---14--14---14-14-14-14-14-|-------------12--12-12-14--14-14-14-16-|
B|-------12--14----------------------------|----------------------------------|-----12--14----------------------------|
G|-----------------------------------------|----------------------------------|---------------------------------------|
D|-----------------------------------------|----------------------------------|---------------------------------------|
A|-----------------------------------------|----------------------------------|---------------------------------------|
E|-----------------------------------------|----------------------------------|---------------------------------------|


E|-16-16---------12--14--16--14--12--|-------------12--12-12-14--14-14-16--|-----14--14-12---------------|
B|-------12--14----------------------|-----12--14--------------------------|-----------------12----12-10-|
G|-----------------------------------|-------------------------------------|-----------------------------|
D|-----------------------------------|-------------------------------------|-----------------------------|
A|-----------------------------------|-------------------------------------|-----------------------------|
E|-----------------------------------|-------------------------------------|-----------------------------|


E|-----------------------------|----------11--------------------------|----------------------|
B|-12---12-12------------12-10-|-12-10-12-------12--------------12-10-|-12--10-12------------|
G|-----------------------------|--------------------------------------|----------------------|
D|-----------------------------|--------------------------------------|----------------------|
A|-----------------------------|--------------------------------------|----------------------|
E|-----------------------------|--------------------------------------|----------------------|


E|--------|--------|--------|--------|--------|--------|--------|--------|--------|
B|--------|--------|--------|--------|--------|--------|--------|--------|--------|
G|--------|--------|--------|--------|--------|--------|--------|--------|--------|
D|--------|--------|--------|--------|--------|--------|--------|--------|--------|
A|--------|--------|--------|--------|--------|--------|--------|--------|--------|
E|--------|--------|--------|--------|--------|--------|--------|--------|--------|


E|--------|--------|--------|--------|--------|--------|--------|--------|--------|
B|--------|--------|--------|--------|--------|--------|--------|--------|--------|
G|--------|--------|--------|--------|--------|--------|--------|--------|--------|
D|--------|--------|--------|--------|--------|--------|--------|--------|--------|
A|--------|--------|--------|--------|--------|--------|--------|--------|--------|
E|--------|--------|--------|--------|--------|--------|--------|--------|--------|


E|--------|--------|---------9---12--12-12-12-14-14-14-14-16-|-16-16-----------12--12-12-12-14-14-14-12--|
B|--------|--------|-----12----------------------------------|-------12-12-14----------------------------|
G|--------|--------|-----------------------------------------|-------------------------------------------|
D|--------|--------|-----------------------------------------|-------------------------------------------|
A|--------|--------|-----------------------------------------|-------------------------------------------|
E|--------|--------|-----------------------------------------|-------------------------------------------|


E|-12-12---------12--12-12-14--14-14-16--|-16--14--14--14--14--14-14-14-14-14-14-|
B|-------12--14--------------------------|---------------------------------------|
G|---------------------------------------|---------------------------------------|
D|---------------------------------------|---------------------------------------|
A|---------------------------------------|---------------------------------------|
E|---------------------------------------|---------------------------------------|


E|-------------12--12-12-14--14-14-14-16-|-16-16---------12--14-14-16--14--12--|-12-12---------12--12-12-14--14-14-16--|
B|-----12--14----------------------------|-------12--14------------------------|-------12--14--------------------------|
G|---------------------------------------|-------------------------------------|---------------------------------------|
D|---------------------------------------|-------------------------------------|---------------------------------------|
A|---------------------------------------|-------------------------------------|---------------------------------------|
E|---------------------------------------|-------------------------------------|---------------------------------------|


E|-----19--19-19--19-19--19-19-19-19-19-19-|-------------------------------------|
B|-----------------------------------------|-----14--16--17--17-17-16--14--14-14-|
G|-----------------------------------------|-------------------------------------|
D|-----------------------------------------|-------------------------------------|
A|-----------------------------------------|-------------------------------------|
E|-----------------------------------------|-------------------------------------|


E|---------------------------------------|---------------------14---16--|-16--17--16--14--14-14-14--14--14--|
B|---------------------------------------|-----14--16--17--17-----------|-----------------------------------|
G|-16--14--13----------------------------|------------------------------|-----------------------------------|
D|-------------16--16-16-16--16-16-16-16-|------------------------------|-----------------------------------|
A|---------------------------------------|------------------------------|-----------------------------------|
E|---------------------------------------|------------------------------|-----------------------------------|


E|------------------------------|------------------------------|-14-16--16-16--16--16---12---|
B|-----14--16--17--17--16--14---|------------------------------|-----------------------------|
G|------------------------------|-16--14--13-------------------|-----------------------------|
D|------------------------------|-------------16--16--16--16---|-----------------------------|
A|------------------------------|------------------------------|-----------------------------|
E|------------------------------|------------------------------|-----------------------------|


E|-12-14--14-14--14--14-14---14--14--|-14-16--16-16--16--16--14--12---|-12-14--14-14------------|
B|-----------------------------------|--------------------------------|---------------12--12----|
G|-----------------------------------|--------------------------------|-------------------------|
D|-----------------------------------|--------------------------------|-------------------------|
A|-----------------------------------|--------------------------------|-------------------------|
E|-----------------------------------|--------------------------------|-------------------------|


E|-14-16--16-16--16--16---12---|-12-14--14-14-14-14--14---14--14--|-16--16-16-16--17--16-17-16-14--12---|
B|-----------------------------|----------------------------------|-------------------------------------|
G|-----------------------------|----------------------------------|-------------------------------------|
D|-----------------------------|----------------------------------|-------------------------------------|
A|-----------------------------|----------------------------------|-------------------------------------|
E|-----------------------------|----------------------------------|-------------------------------------|


E|-12-14--14-14----------------------|-----------------------|-12-14--14-14-14-14--12---14---|
B|---------------12--12---12-12--12--|-12---12-12--12--12----|-------------------------------|
G|-----------------------------------|-----------------------|-------------------------------|
D|-----------------------------------|-----------------------|-------------------------------|
A|-----------------------------------|-----------------------|-------------------------------|
E|-----------------------------------|-----------------------|-------------------------------|


E|-14-16-16-16-16-16-16--12----|-16-17--17-17-17-17--16---12---|-12-14--14-14-14-14-14-12-14---14---|
B|-----------------------------|-------------------------------|------------------------------------|
G|-----------------------------|-------------------------------|------------------------------------|
D|-----------------------------|-------------------------------|------------------------------------|
A|-----------------------------|-------------------------------|------------------------------------|
E|-----------------------------|-------------------------------|------------------------------------|


E|-12-14--14-14-14-14--12---14---|-14-16-16-16-16-16-16--12----|-16-17--17-17-17-17--16---12---|
B|-------------------------------|-----------------------------|-------------------------------|
G|-------------------------------|-----------------------------|-------------------------------|
D|-------------------------------|-----------------------------|-------------------------------|
A|-------------------------------|-----------------------------|-------------------------------|
E|-------------------------------|-----------------------------|-------------------------------|


E|-12-14--14-14-14-14-14-12-14---14---|-12-14--14-14-14-14--12---14---|-14-16-16-16-16-16-16--12----|
B|------------------------------------|-------------------------------|-----------------------------|
G|------------------------------------|-------------------------------|-----------------------------|
D|------------------------------------|-------------------------------|-----------------------------|
A|------------------------------------|-------------------------------|-----------------------------|
E|------------------------------------|-------------------------------|-----------------------------|


E|-16-17--17-17-17-17--16---12---|-12-14--14-14-14-14-14-12-14---14---|-12-14--14-14-14-14--12---14---|
B|-------------------------------|------------------------------------|-------------------------------|
G|-------------------------------|------------------------------------|-------------------------------|
D|-------------------------------|------------------------------------|-------------------------------|
A|-------------------------------|------------------------------------|-------------------------------|
E|-------------------------------|------------------------------------|-------------------------------|


E|-14-16-16-16-16-16-16--12----|-16-17--17-17-17-17--16---12---|-12-14--14-14-14-14-14-12-14---14---|
B|-----------------------------|-------------------------------|------------------------------------|
G|-----------------------------|-------------------------------|------------------------------------|
D|-----------------------------|-------------------------------|------------------------------------|
A|-----------------------------|-------------------------------|------------------------------------|
E|-----------------------------|-------------------------------|------------------------------------|


E|-12-14--14-14-14-14--12---14---|-14-16-16-16-16-16-16--12----|-16-17--17-17-17-17--16---12---|
B|-------------------------------|-----------------------------|-------------------------------|
G|-------------------------------|-----------------------------|-------------------------------|
D|-------------------------------|-----------------------------|-------------------------------|
A|-------------------------------|-----------------------------|-------------------------------|
E|-------------------------------|-----------------------------|-------------------------------|


E|-12-14--14-14-14-14-14-12-14---14---|-12-14--14-14-14-14--12---14---|-14-16-16-16-16-16-16--12----|
B|------------------------------------|-------------------------------|-----------------------------|
G|------------------------------------|-------------------------------|-----------------------------|
D|------------------------------------|-------------------------------|-----------------------------|
A|------------------------------------|-------------------------------|-----------------------------|
E|------------------------------------|-------------------------------|-----------------------------|


E|-16-17--17-17-17-17--16---12---|-12-14--14-14-14-14-14-12-14---14---|-12-14--14-14-14-14--12---14---|
B|-------------------------------|------------------------------------|-------------------------------|
G|-------------------------------|------------------------------------|-------------------------------|
D|-------------------------------|------------------------------------|-------------------------------|
A|-------------------------------|------------------------------------|-------------------------------|
E|-------------------------------|------------------------------------|-------------------------------|


E|-14-16-16-16-16-16-16--12----|-16-17--17-17-17-17--16---12---|-12-14--14-14-14-14-14-12-14---14---|
B|-----------------------------|-------------------------------|------------------------------------|
G|-----------------------------|-------------------------------|------------------------------------|
D|-----------------------------|-------------------------------|------------------------------------|
A|-----------------------------|-------------------------------|------------------------------------|
E|-----------------------------|-------------------------------|------------------------------------|


E|-12-14--14-14-14-14--12---14---|-14-16-16-16-16-16-16--12----|-16-17--17-17-17-17--16---12---|
B|-------------------------------|-----------------------------|-------------------------------|
G|-------------------------------|-----------------------------|-------------------------------|
D|-------------------------------|-----------------------------|-------------------------------|
A|-------------------------------|-----------------------------|-------------------------------|
E|-------------------------------|-----------------------------|-------------------------------|


E|-12-14--14-14-14-14-14-12-14---14---|-12-14--14-14-14-14--12---14---|-14-16-16-16-16-16-16--12----|
B|------------------------------------|-------------------------------|-----------------------------|
G|------------------------------------|-------------------------------|-----------------------------|
D|------------------------------------|-------------------------------|-----------------------------|
A|------------------------------------|-------------------------------|-----------------------------|
E|------------------------------------|-------------------------------|-----------------------------|


E|-16-17--17-17-17-17--16---12---|-12-14--14-14-14-14-14-12-14---14---|-12-14--14-14-14-14--12---14---|
B|-------------------------------|------------------------------------|-------------------------------|
G|-------------------------------|------------------------------------|-------------------------------|
D|-------------------------------|------------------------------------|-------------------------------|
A|-------------------------------|------------------------------------|-------------------------------|
E|-------------------------------|------------------------------------|-------------------------------|


E|-14-16-16-16-16-16-16--12----|-16-17--17-17-17-17--16---12---|-12-14--14-14-14-14-14-12-14---14---|
B|-----------------------------|-------------------------------|------------------------------------|
G|-----------------------------|-------------------------------|------------------------------------|
D|-----------------------------|-------------------------------|------------------------------------|
A|-----------------------------|-------------------------------|------------------------------------|
E|-----------------------------|-------------------------------|------------------------------------|


E|-12-14--14-14-14-14--12---14---|-14-16-16-16-16-16-16--12----|-16-17--17-17-17-17--16---12---|
B|-------------------------------|-----------------------------|-------------------------------|
G|-------------------------------|-----------------------------|-------------------------------|
D|-------------------------------|-----------------------------|-------------------------------|
A|-------------------------------|-----------------------------|-------------------------------|
E|-------------------------------|-----------------------------|-------------------------------|


E|-12-14--14-14-14-14-14-12-14---14---|-12-14--14-14-14-14--12---14---|-14-16-16-16-16-16-16--------|
B|------------------------------------|-------------------------------|-----------------------------|
G|------------------------------------|-------------------------------|-----------------------------|
D|------------------------------------|-------------------------------|-----------------------------|
A|------------------------------------|-------------------------------|-----------------------------|
E|------------------------------------|-------------------------------|-----------------------------|


E|--------|--------|--------|--------|--------|--------|--------|--------|--------|
B|--------|--------|--------|--------|--------|--------|--------|--------|--------|
G|--------|--------|--------|--------|--------|--------|--------|--------|--------|
D|--------|--------|--------|--------|--------|--------|--------|--------|--------|
A|--------|--------|--------|--------|--------|--------|--------|--------|--------|
E|--------|--------|--------|--------|--------|--------|--------|--------|--------|


E|--------|--------|--------|
B|--------|--------|--------|
G|--------|--------|--------|
D|--------|--------|--------|
A|--------|--------|--------|
E|--------|--------|--------|





Track 6: Banjo

E|-0--2---2--2---------0----2----|-4----4--4--4------0-----|-4--5---5--5---------4----0----|
B|-0------------0--0---0----0----|-0-----------------0-----|-0------------0------0----0----|
G|-4-------------------4----4----|-2-------------2---2-----|-2---------------2---2----2----|
D|-------------------------------|-------------------------|-------------------------------|
A|-------------------------------|-------------------------|-------------------------------|
E|-------------------------------|-------------------------|-------------------------------|


E|-0--2---2--2--2------0--2----2----|-0--2-----2--2---------0-------2-------|-4----4--4---------0------0--0---------|
B|-0---------------0---0------------|-0-----0--------0--0---0---0---0---0---|-0----------0------0---0--------0------|
G|-4-------------------4------------|-4---------------------4-------4-------|-2-------------2---2---------------2---|
D|----------------------------------|---------------------------------------|---------------------------------------|
A|----------------------------------|---------------------------------------|---------------------------------------|
E|----------------------------------|---------------------------------------|---------------------------------------|


E|-4--5---5--5-----5-----4---4--4--0---0--0--|-0--2---2--2---------0--2---2--2---------|
B|-0------------0--------0---------0---------|-0------------0--0---0------------0--0---|
G|-2------------------2--2---------2---------|-4-------------------4-------------------|
D|-------------------------------------------|-----------------------------------------|
A|-------------------------------------------|-----------------------------------------|
E|-------------------------------------------|-----------------------------------------|


E|-0--2----2------|--------0----------0---------0---------|-0---------------------0---------0---------|
B|-0--------------|----------------------0---------0------|----0-----0-----0---------0---------0------|
G|-4--------------|-----4-----6---9---------11--------13--|-------4-----6-----9---------11--------9---|
D|----------------|---------------------------------------|-------------------------------------------|
A|----------------|---------------------------------------|-------------------------------------------|
E|----------------|-0-------------------------------------|-------------------------------------------|


E|-0---------------------0---------0---------|-0---------0---------------------------------|
B|----0-----0-----0---------0---------0------|----0---------0-----0---------0-----0-----0--|
G|-------4-----6-----9---------11--------13--|-------11--------11----11--11----11----11----|
D|-------------------------------------------|---------------------------------------------|
A|-------------------------------------------|---------------------------------------------|
E|-------------------------------------------|---------------------------------------------|


E|----------0----------0---------0---------|-0---------------------------------------|
B|----0-------------------0---------0------|----0-----0-----0-----0------------------|
G|-4-----4-----6---9---------11--------13--|-------4-----6-----9-----11--13--11--9---|
D|-----------------------------------------|-----------------------------------------|
A|-----------------------------------------|-----------------------------------------|
E|-----------------------------------------|-----------------------------------------|


E|-0-----------------0---------0---------|-0---------0-----------0------0------------|
B|----0-----------------0---------0------|----0---------0-----0-------------------0--|
G|-------4---6---9---------11--------13--|-------13--------16--------16----16--16----|
D|---------------------------------------|-------------------------------------------|
A|---------------------------------------|-------------------------------------------|
E|---------------------------------------|-------------------------------------------|


E|-0-----------------0-------------0-----|-----------------0---------0-----------|
B|----0-----------------0-------------0--|--------------------0---------0-----0--|
G|-------6---8---9---------8---6---------|-4---2---1-----------------------4-----|
D|---------------------------------------|-------------4---------4---------------|
A|---------------------------------------|---------------------------------------|
E|---------------------------------------|---------------------------------------|


E|-------------------0---------0---------|-----------------0---------0-----------|
B|----0-----------------0---------0------|--------------------0---------0-----0--|
G|-4-----6---8---9---------11--------13--|-13--14--13--11--------11--------11----|
D|---------------------------------------|---------------------------------------|
A|---------------------------------------|---------------------------------------|
E|---------------------------------------|---------------------------------------|


E|-------------------0-------------------|---------------------------0----|-----------0---------0---------0---------|
B|----0-----------------0-------------0--|--------------------0------0----|--------0-----0---------0---------0------|
G|-11----6---8---9---------8---6---6-----|-4---2---1-------4-----4---4----|-----4-------------------------------4---|
D|---------------------------------------|-------------4------------------|-----------------------------------------|
A|---------------------------------------|--------------------------------|---------------------------0-------------|
E|---------------------------------------|--------------------------------|-2---------------4-----------------------|


E|--------2--2---------0--2-----2------------|-----------0---------0---------0---------|
B|--------------0---------------------0------|--------0-----0---------0---------0------|
G|-----4-----------4---------4-----4-----4---|-----4-------------------------------4---|
D|-------------------------------------------|-----------------------------------------|
A|-2-----------------------------------------|---------------------------0-------------|
E|-------------------------------------------|-2---------------4-----------------------|


E|--------2--2---------0--2-----2------------|-0--2--------0--2------------------|
B|--------------0---------------------0------|----------0-----------0------------|
G|-----4-----------4---------4-----4-----4---|-------4-----------4---------------|
D|-------------------------------------------|-------------------------4---------|
A|-2-----------------------------------------|-----------------------------------|
E|-------------------------------------------|-----------------------------------|


E|-------------------0---------0---------|-0-------------------0-----------0---------|
B|----0-----------------0---------0------|----0-----0-------------0-----0-----0------|
G|-4-----4---6---9---------11--------13--|-------4-----6---9---------11----------9---|
D|---------------------------------------|-------------------------------------------|
A|---------------------------------------|-------------------------------------------|
E|---------------------------------------|-------------------------------------------|


E|-0-----------------0---------0---------|-0---------0-------------------------------|
B|----0-----------------0---------0------|----0---------0-----0----------------------|
G|-------4---6---9---------11--------13--|-------11--------11----11--11-0--11--11-0--|
D|---------------------------------------|-------------------------------------------|
A|---------------------------------------|-------------------------------------------|
E|---------------------------------------|-------------------------------------------|


E|-------------------0---------0---------|-0---------------------------------------|
B|----0-----------------0---------0------|----0-----0-----0-----0------------------|
G|-4-----4---6---9---------11--------13--|-------4-----6-----9-----11--13--11--9---|
D|---------------------------------------|-----------------------------------------|
A|---------------------------------------|-----------------------------------------|
E|---------------------------------------|-----------------------------------------|


E|-0---------------------0---------0---------|-------0----------------------------------0--|
B|----0-----0-----0---------0---------0------|----0-----------0-------------0-----0--------|
G|-------4-----6-----9---------11--------13--|-11-------9--11----11--9---9-----9-----9-----|
D|-------------------------------------------|---------------------------------------------|
A|-------------------------------------------|---------------------------------------------|
E|-------------------------------------------|---------------------------------------------|


E|-------------------------------------------|------------------------0----------------|
B|--------0-----0-------------0-----0-----0--|--------0-----0------------0------0------|
G|-8---8-----8-----8---4---4-----4-----4-----|-11--11----11----11--9---------9-----9---|
D|-------------------------------------------|-----------------------------------------|
A|-------------------------------------------|-----------------------------------------|
E|-------------------------------------------|-----------------------------------------|


E|-----------0-------0-----|--------|--------|--------|--------|--------|--------|
B|--------0-----0----0-----|--------|--------|--------|--------|--------|--------|
G|-8---8-------------8-----|--------|--------|--------|--------|--------|--------|
D|-------------------------|--------|--------|--------|--------|--------|--------|
A|-------------------------|--------|--------|--------|--------|--------|--------|
E|-------------------------|--------|--------|--------|--------|--------|--------|


E|--------|--------|--------|--------|--------|--------|--------|--------|--------|
B|--------|--------|--------|--------|--------|--------|--------|--------|--------|
G|--------|--------|--------|--------|--------|--------|--------|--------|--------|
D|--------|--------|--------|--------|--------|--------|--------|--------|--------|
A|--------|--------|--------|--------|--------|--------|--------|--------|--------|
E|--------|--------|--------|--------|--------|--------|--------|--------|--------|


E|--------|--------|--------|--------|--------|--------0----------0---------0---------|
B|--------|--------|--------|--------|--------|----------------------0---------0------|
G|--------|--------|--------|--------|--------|-----4-----6---9---------11--------13--|
D|--------|--------|--------|--------|--------|---------------------------------------|
A|--------|--------|--------|--------|--------|---------------------------------------|
E|--------|--------|--------|--------|--------|-0-------------------------------------|


E|-0---------------------0---------0---------|-0---------------------0---------0---------|
B|----0-----0-----0---------0---------0------|----0-----0-----0---------0---------0------|
G|-------4-----6-----9---------11--------9---|-------4-----6-----9---------11--------13--|
D|-------------------------------------------|-------------------------------------------|
A|-------------------------------------------|-------------------------------------------|
E|-------------------------------------------|-------------------------------------------|


E|-0---------0---------------------------------|----------0----------0---------0---------|
B|----0---------0-----0---------0-----0-----0--|----0-------------------0---------0------|
G|-------11--------11----11--11----11----11----|-4-----4-----6---9---------11--------13--|
D|---------------------------------------------|-----------------------------------------|
A|---------------------------------------------|-----------------------------------------|
E|---------------------------------------------|-----------------------------------------|


E|-0---------------------------------------|-0-----------------0---------0---------|
B|----0-----0-----0-----0------------------|----0-----------------0---------0------|
G|-------4-----6-----9-----11--13--11--9---|-------4---6---9---------11--------13--|
D|-----------------------------------------|---------------------------------------|
A|-----------------------------------------|---------------------------------------|
E|-----------------------------------------|---------------------------------------|


E|-0---------0-----------0------0------------|-0-----------------0-------------0-----|
B|----0---------0-----0-------------------0--|----0-----------------0-------------0--|
G|-------13--------16--------16----16--16----|-------6---8---9---------8---6---------|
D|-------------------------------------------|---------------------------------------|
A|-------------------------------------------|---------------------------------------|
E|-------------------------------------------|---------------------------------------|


E|-----------------0---------0-----------|-------------------0---------0---------|
B|--------------------0---------0-----0--|----0-----------------0---------0------|
G|-4---2---1-----------------------4-----|-4-----6---8---9---------11--------13--|
D|-------------4---------4---------------|---------------------------------------|
A|---------------------------------------|---------------------------------------|
E|---------------------------------------|---------------------------------------|


E|-----------------0---------0-----------|-------------------0-------------------|
B|--------------------0---------0-----0--|----0-----------------0-------------0--|
G|-13--14--13--11--------11--------11----|-11----6---8---9---------8---6---6-----|
D|---------------------------------------|---------------------------------------|
A|---------------------------------------|---------------------------------------|
E|---------------------------------------|---------------------------------------|


E|---------------------------0----|-----------0---------0---------0---------|--------2--2---------0--2-----2------------|
B|--------------------0------0----|--------0-----0---------0---------0------|--------------0---------------------0------|
G|-4---2---1-------4-----4---4----|-----4-------------------------------4---|-----4-----------4---------4-----4-----4---|
D|-------------4------------------|-----------------------------------------|-------------------------------------------|
A|--------------------------------|---------------------------0-------------|-2-----------------------------------------|
E|--------------------------------|-2---------------4-----------------------|-------------------------------------------|


E|-----------0---------0---------0---------|--------2--2---------0--2-----2------------|
B|--------0-----0---------0---------0------|--------------0---------------------0------|
G|-----4-------------------------------4---|-----4-----------4---------4-----4-----4---|
D|-----------------------------------------|-------------------------------------------|
A|---------------------------0-------------|-2-----------------------------------------|
E|-2---------------4-----------------------|-------------------------------------------|


E|-----------0---------0---------0---------|--------2--2---------0--2-----2------------|
B|--------0-----0---------0---------0------|--------------0---------------------0------|
G|-----4-------------------------------4---|-----4-----------4---------4-----4-----4---|
D|-----------------------------------------|-------------------------------------------|
A|---------------------------0-------------|-2-----------------------------------------|
E|-2---------------4-----------------------|-------------------------------------------|


E|-----------0---------0---------0---------|--------2--2---------0--2-----2------------|
B|--------0-----0---------0---------0------|--------------0---------------------0------|
G|-----4-------------------------------4---|-----4-----------4---------4-----4-----4---|
D|-----------------------------------------|-------------------------------------------|
A|---------------------------0-------------|-2-----------------------------------------|
E|-2---------------4-----------------------|-------------------------------------------|


E|-0--2---2-----2------------|-0--2-----2--2---------0---------2---------|-2--4-----4--4---------0------0------------|
B|---------------------------|-0-----0--------0--0---0---0--0--0---0--0--|-0-----0--------0------0---0-----0--0------|
G|-----------4-----4---4-----|-4---------------------4---------4---------|-2-----------------2---2---------------2---|
D|---------------------------|-------------------------------------------|-------------------------------------------|
A|---------------------------|-------------------------------------------|-------------------------------------------|
E|---------------------------|-------------------------------------------|-------------------------------------------|


E|-4--5-----5--5---------4---------0---------|-0--2-----2--2--2--2--2--0--2-----2--2--2--2---|
B|-0-----0--0--0--0------0---0--0--0---0--0--|-0-----0--------0--0--0--0-----0--------0--0---|
G|-2-----------------2---2---------2---------|-4-----------------------4---------------------|
D|-------------------------------------------|-----------------------------------------------|
A|-------------------------------------------|-----------------------------------------------|
E|-------------------------------------------|-----------------------------------------------|


E|-0--2-----2--2---------0---------2---------|-2--4-----4--4---------0------0------------|
B|-0-----0--------0--0---0---0--0--0---0--0--|-0-----0--------0------0---0-----0--0------|
G|-4---------------------4---------4---------|-2-----------------2---2---------------2---|
D|-------------------------------------------|-------------------------------------------|
A|-------------------------------------------|-------------------------------------------|
E|-------------------------------------------|-------------------------------------------|


E|-4--5-----5--5---------4---------0---------|-0--2-----2--2--2--2--2--0--2-----2--2--2--2---|
B|-0-----0--0--0--0------0---0--0--0---0--0--|-0-----0--------0--0--0--0-----0--------0--0---|
G|-2-----------------2---2---------2---------|-4-----------------------4---------------------|
D|-------------------------------------------|-----------------------------------------------|
A|-------------------------------------------|-----------------------------------------------|
E|-------------------------------------------|-----------------------------------------------|


E|-0--2-----2--2---------0---------2---------|-2--4-----4--4---------0------0------------|
B|-0-----0--------0--0---0---0--0--0---0--0--|-0-----0--------0------0---0-----0--0------|
G|-4---------------------4---------4---------|-2-----------------2---2---------------2---|
D|-------------------------------------------|-------------------------------------------|
A|-------------------------------------------|-------------------------------------------|
E|-------------------------------------------|-------------------------------------------|


E|-4--5-----5--5---------4---------0---------|-0--2-----2--2--2--2--2--0--2-----2--2--2--2---|
B|-0-----0--0--0--0------0---0--0--0---0--0--|-0-----0--------0--0--0--0-----0--------0--0---|
G|-2-----------------2---2---------2---------|-4-----------------------4---------------------|
D|-------------------------------------------|-----------------------------------------------|
A|-------------------------------------------|-----------------------------------------------|
E|-------------------------------------------|-----------------------------------------------|


E|-0--2-----2--2---------0---------2---------|-2--4-----4--4---------0------0------------|
B|-0-----0--------0--0---0---0--0--0---0--0--|-0-----0--------0------0---0-----0--0------|
G|-4---------------------4---------4---------|-2-----------------2---2---------------2---|
D|-------------------------------------------|-------------------------------------------|
A|-------------------------------------------|-------------------------------------------|
E|-------------------------------------------|-------------------------------------------|


E|-4--5-----5--5---------4---------0---------|-0--2-----2--2--2--2--2--0--2-----2--2--2--2---|
B|-0-----0--0--0--0------0---0--0--0---0--0--|-0-----0--------0--0--0--0-----0--------0--0---|
G|-2-----------------2---2---------2---------|-4-----------------------4---------------------|
D|-------------------------------------------|-----------------------------------------------|
A|-------------------------------------------|-----------------------------------------------|
E|-------------------------------------------|-----------------------------------------------|


E|-0--2-----2--2---------0---------2---------|-2--4-----4--4---------0------0------------|
B|-0-----0--------0--0---0---0--0--0---0--0--|-0-----0--------0------0---0-----0--0------|
G|-4---------------------4---------4---------|-2-----------------2---2---------------2---|
D|-------------------------------------------|-------------------------------------------|
A|-------------------------------------------|-------------------------------------------|
E|-------------------------------------------|-------------------------------------------|


E|-4--5-----5--5---------4---------0---------|-0--2-----2--2--2--2--2--0--2-----2--2--2--2---|
B|-0-----0--0--0--0------0---0--0--0---0--0--|-0-----0--------0--0--0--0-----0--------0--0---|
G|-2-----------------2---2---------2---------|-4-----------------------4---------------------|
D|-------------------------------------------|-----------------------------------------------|
A|-------------------------------------------|-----------------------------------------------|
E|-------------------------------------------|-----------------------------------------------|


E|-0--2-----2--2---------0---------2---------|-2--4-----4--4---------0------0------------|
B|-0-----0--------0--0---0---0--0--0---0--0--|-0-----0--------0------0---0-----0--0------|
G|-4---------------------4---------4---------|-2-----------------2---2---------------2---|
D|-------------------------------------------|-------------------------------------------|
A|-------------------------------------------|-------------------------------------------|
E|-------------------------------------------|-------------------------------------------|


E|-4--5-----5--5---------4---------0---------|-0--2-----2--2--2--2--2--0--2-----2--2--2--2---|
B|-0-----0--0--0--0------0---0--0--0---0--0--|-0-----0--------0--0--0--0-----0--------0--0---|
G|-2-----------------2---2---------2---------|-4-----------------------4---------------------|
D|-------------------------------------------|-----------------------------------------------|
A|-------------------------------------------|-----------------------------------------------|
E|-------------------------------------------|-----------------------------------------------|


E|-0--2-----2--2---------0---------2---------|-2--4-----4--4---------0------0------------|
B|-0-----0--------0--0---0---0--0--0---0--0--|-0-----0--------0------0---0-----0--0------|
G|-4---------------------4---------4---------|-2-----------------2---2---------------2---|
D|-------------------------------------------|-------------------------------------------|
A|-------------------------------------------|-------------------------------------------|
E|-------------------------------------------|-------------------------------------------|


E|-4--5-----5--5---------4---------0---------|-0--2-----2--2--2--2--2--0--2-----2--2--2--2---|
B|-0-----0--0--0--0------0---0--0--0---0--0--|-0-----0--------0--0--0--0-----0--------0--0---|
G|-2-----------------2---2---------2---------|-4-----------------------4---------------------|
D|-------------------------------------------|-----------------------------------------------|
A|-------------------------------------------|-----------------------------------------------|
E|-------------------------------------------|-----------------------------------------------|


E|-0--2-----2--2---------0---------2---------|-2--4-----4--4---------0------0------------|
B|-0-----0--------0--0---0---0--0--0---0--0--|-0-----0--------0------0---0-----0--0------|
G|-4---------------------4---------4---------|-2-----------------2---2---------------2---|
D|-------------------------------------------|-------------------------------------------|
A|-------------------------------------------|-------------------------------------------|
E|-------------------------------------------|-------------------------------------------|


E|-4--5-----5--5---------4---------0---------|-0--2-----2--2--2--2--2--0--2-----2--2--2--2---|
B|-0-----0--0--0--0------0---0--0--0---0--0--|-0-----0--------0--0--0--0-----0--------0--0---|
G|-2-----------------2---2---------2---------|-4-----------------------4---------------------|
D|-------------------------------------------|-----------------------------------------------|
A|-------------------------------------------|-----------------------------------------------|
E|-------------------------------------------|-----------------------------------------------|


E|-0--2-----2--2---------0---------2---------|-2--4-----4--4---------0------0------------|
B|-0-----0--------0--0---0---0--0--0---0--0--|-0-----0--------0------0---0-----0--0------|
G|-4---------------------4---------4---------|-2-----------------2---2---------------2---|
D|-------------------------------------------|-------------------------------------------|
A|-------------------------------------------|-------------------------------------------|
E|-------------------------------------------|-------------------------------------------|


E|-4--5-----5--5---------4---------0---------|-0--2-----2--2--2--2--2--0--2-----2--2--2--2---|
B|-0-----0--0--0--0------0---0--0--0---0--0--|-0-----0--------0--0--0--0-----0--------0--0---|
G|-2-----------------2---2---------2---------|-4-----------------------4---------------------|
D|-------------------------------------------|-----------------------------------------------|
A|-------------------------------------------|-----------------------------------------------|
E|-------------------------------------------|-----------------------------------------------|


E|-0--2-----2--2---------0---------2---------|-2--4-----4--4---------0------0------------|
B|-0-----0--------0--0---0---0--0--0---0--0--|-0-----0--------0------0---0-----0--0------|
G|-4---------------------4---------4---------|-2-----------------2---2---------------2---|
D|-------------------------------------------|-------------------------------------------|
A|-------------------------------------------|-------------------------------------------|
E|-------------------------------------------|-------------------------------------------|


E|-4--5-----5--5---------4---------0---------|-0--2-----2--2--2--2--2--0--2-----2--2--2--2---|
B|-0-----0--0--0--0------0---0--0--0---0--0--|-0-----0--------0--0--0--0-----0--------0--0---|
G|-2-----------------2---2---------2---------|-4-----------------------4---------------------|
D|-------------------------------------------|-----------------------------------------------|
A|-------------------------------------------|-----------------------------------------------|
E|-------------------------------------------|-----------------------------------------------|


E|-0--2-----2--2---------0---------2---------|-2--4-----4--4---------0------0------------|
B|-0-----0--------0--0---0---0--0--0---0--0--|-0-----0--------0------0---0-----0--0------|
G|-4---------------------4---------4---------|-2-----------------2---2---------------2---|
D|-------------------------------------------|-------------------------------------------|
A|-------------------------------------------|-------------------------------------------|
E|-------------------------------------------|-------------------------------------------|


E|-4--5-----5--5---------4---------0---------|-0--2-----2--2--2--2--2--0--2-----2--2--2--2---|
B|-0-----0--0--0--0------0---0--0--0---0--0--|-0-----0--------0--0--0--0-----0--------0--0---|
G|-2-----------------2---2---------2---------|-4-----------------------4---------------------|
D|-------------------------------------------|-----------------------------------------------|
A|-------------------------------------------|-----------------------------------------------|
E|-------------------------------------------|-----------------------------------------------|


E|-0--2-----2------------0-----|--------|----------0--0-----0---0-----------------------|
B|-0-----0-----0--0--0---0-----|--------|-3--5-----------0---------0-----0-----0-----0--|
G|-4---------------------4-----|--------|-------4---------------------4-----4-----4-----|
D|-----------------------------|--------|-----------------------------------------------|
A|-----------------------------|--------|-----------------------------------------------|
E|-----------------------------|--------|-----------------------------------------------|


E|-0--------0--------0---0-----------------------|-0------0--0-----0-----------------------0-----|
B|----0--------0------------0-----0-----0-----0--|-----0--------0-----0-----0-----0-----0-----0--|
G|-------4--------4------------4-----4-----4-----|-----------------------4-----4-----4-----------|
D|-----------------------------------------------|-----------------------------------------------|
A|-----------------------------------------------|-----------------------------------------------|
E|-----------------------------------------------|-----------------------------------------------|


E|-0------0--0-----0-----0--------------0-----0--|--------0--0-----0------0-----0-----0------|
B|-----0--------0-----0-----0-----0--8-----7-----|-5------------0------5-----5-----5-----0---|
G|-----------------------------2-----------------|-----4-------------------------------------|
D|-----------------------------------------------|-------------------------------------------|
A|-----------------------------------------------|-------------------------------------------|
E|-----------------------------------------------|-------------------------------------------|


E|----------0---------------------0----------|----------0---------------0--------0---------|
B|-3--5-----------0-----0---------------0----|-3--5-----------0------------0---------0-----|
G|-------4-----4-----4-----4---4-----7-------|-------4-----4-----4---4--------4---------4--|
D|-------------------------------------------|---------------------------------------------|
A|-------------------------------------------|---------------------------------------------|
E|-------------------------------------------|---------------------------------------------|


E|-0--------0--------0-----0--------0--------0-----|-------0---------0---0--------0--------0-----|
B|----0--------0--------0-----0--------0--------0--|-3--5---------0---------0--------0--------0--|
G|-------4--------4--------------4--------4--------|-----------4---------------4--------4--------|
D|-------------------------------------------------|---------------------------------------------|
A|-------------------------------------------------|---------------------------------------------|
E|-------------------------------------------------|---------------------------------------------|


E|-0--------0--------0-----0--------0--------0-----|-0--------0--------0-----0--------0--------0-----|
B|----0--------0--------0-----0--------0--------0--|----0--------0--------0-----0--------0--------0--|
G|-------4--------4--------------4--------4--------|-------4--------4--------------4--------4--------|
D|-------------------------------------------------|-------------------------------------------------|
A|-------------------------------------------------|-------------------------------------------------|
E|-------------------------------------------------|-------------------------------------------------|


E|--------|
B|--------|
G|--------|
D|--------|
A|--------|
E|--------|