Menu:

 

Search:

 

joe satriani - ride:

 



Title: Ride
Artist: 
Album: Flying in a blue dream
Author: 


Track 1: Gtr. 1

E|-------------|--------------------|--------7--7--|-7--7--1--------------------------------|
B|-------------|--------------------|--------7--9--|-9--7--3--------------------------------|
G|------7------|-7------------------|--------------|----------------------------------------|
D|------7------|-7------9-----7--9--|-9------------|----------9-----7--9---9----7--9-----9--|
A|-------------|--------------------|--------------|----------------------------------------|
E|-------------|--------------------|--------------|----------------------------------------|


E|-----------------------------------------|---------------------------------------------|
B|--------------10----10-9--10--9----------|--------------10----10-9--10--9--------9--9--|
G|-----9--11-11-11-11----9--11--9----------|-----9--11-11-11-11-11-9--11--9--------9--9--|
D|-----9------------------------9------9---|-9---9------------------------------9--------|
A|-----------------------------------------|---------------------------------------------|
E|-----------------------------------------|---------------------------------------------|


E|-----------------------------------|-----------------------------------------|-----------------------------------------|
B|-----------------------------------|-----0---0-------------------------------|--------------10-10-10-9--10--9----------|
G|-----------------------------------|------------------4--7--4--7--4--7--4----|-9---9--11-11-11-11-11-9--11--9----------|
D|-------------------------------4---|-4----------------4--7--4--7--4--7--4----|-9---9-------------------------------9---|
A|-------7---7-------------------2---|-2----------5--7-------------------------|-----------------------------------------|
E|-7--0--5---4---0---4----0--0-------|-----------------------------------------|-----------------------------------------|


E|---------------------------------------------|-----------------------------------|
B|--------------10-10----9--10--9--------9--9--|-----------------------------------|
G|-----9--11-11-11-11-11-9--11--9-----7--9--9--|-----------------------------------|
D|-9---9-----------------9---------------9--9--|-------------------------------4---|
A|---------------------------------------------|-------7---7-------------------2---|
E|---------------------------------------------|-7--0--5---4---0---4----0--0-------|


E|------7----------------------|---------------------------------------|-----------------------------------------|
B|------9----7-----------------|---------------------------------------|-----------------------------------------|
G|-----------7-----------7-----|---------------------------------------|-----------------------------------------|
D|-4------------9----9---9-----|---------------------------7--9-----7--|-9---------------------------------------|
A|-2------------------------9--|-9--9--9---9---9---9---9------------7--|-9--9--9---9---9---9---9--9--12-12-12-12-|
E|--------------------------7--|-7--7--7---7---7---7---7---------7-----|----7--7---7---7---7---7--7--10-10-10-10-|


E|---------------------------------------|---------------------------------|---------------------------------------|
B|---------------------------------------|-----------7---------------------|---------------------------------------|
G|---------------------------------------|--------7------------------------|---------------------------------------|
D|---------------------------------------|----7----------7--7--7-----------|---------------------------9-----7--7--|
A|-7--7--7---7---7---7---7---7--7--5--5--|-5-------------------------9--9--|-9--9--9---9---9---9---9---9-----7--7--|
E|-5--5--5---5---5---5---5---5--5--3--3--|-3-------------------------7--7--|-7--7--7---7---7---7---7---7-----------|


E|---------------------------------------|---------------------------------------|
B|---------------------------------------|---------------------------------------|
G|---------------------------------------|---------------------------------------|
D|-7--9----------------------------------|---------------------------------------|
A|-7--9--9---9---9---9---9---12-12-12-12-|-7--7--7---7---7---7---7---7--7--5--5--|
E|-------7---7---7---7---7---10-10-10-10-|-5--5--5---5---5---5---5---5--5--3--3--|


E|-----------7--------------------------|-----------------------------------------|
B|--------------------------------------|--------------10----10-9--10--9----------|
G|--------7-----------------0--0--0--0--|-----9--11-11-11-11----9--11--9----------|
D|----7----------7--7--7----------------|-----9------------------------9------9---|
A|-5------------------------------------|-----------------------------------------|
E|-3------------------------------------|-----------------------------------------|


E|---------------------------------------------|-----------------------------------|
B|--------------10----10-9--10--9--------9--9--|-----------------------------------|
G|-----9--11-11-11-11-11-9--11--9--------9--9--|-----------------------------------|
D|-9---9------------------------------9--------|-------------------------------4---|
A|---------------------------------------------|-------7---7-------------------2---|
E|---------------------------------------------|-7--0--5---4---0---4----0--0-------|


E|-----------------------------------------|-----------------------------------------|
B|-----0---0-------------------------------|--------------10-10-10-9--10--9----------|
G|------------------4--7--4--7--4--7--4----|-9---9--11-11-11-11-11-9--11--9----------|
D|-4----------------4--7--4--7--4--7--4----|-9---9-------------------------------9---|
A|-2----------5--7-------------------------|-----------------------------------------|
E|-----------------------------------------|-----------------------------------------|


E|---------------------------------------------|-----------------------------------|
B|--------------10-10----9--10--9--------9--9--|-----------------------------------|
G|-----9--11-11-11-11-11-9--11--9-----7--9--9--|-----------------------------------|
D|-9---9-----------------9---------------9--9--|-------------------------------4---|
A|---------------------------------------------|-------7---7-------------------2---|
E|---------------------------------------------|-7--0--5---4---0---4----0--0-------|


E|------7-------------------|---------------------------------------|-----------------------------------------|
B|------9----7--------------|---------------------------------------|-----------------------------------------|
G|-----------7--------------|---------------------------------------|-----------------------------------------|
D|-4------------9-----0-----|---------------------------7--9-----7--|-9---------------------------------------|
A|-2------------------0--9--|-9--9--9---9---9---9---9------------7--|-9--9--9---9---9---9---9--9--12-12-12-12-|
E|-----------------------7--|-7--7--7---7---7---7---7---------7-----|----7--7---7---7---7---7--7--10-10-10-10-|


E|---------------------------------------|---------------------------------|---------------------------------------|
B|---------------------------------------|-----------7---------------------|---------------------------------------|
G|---------------------------------------|--------7------7-----------------|---------------------------------------|
D|---------------------------------------|----7-------------7--7-----7-----|---------------------------9-----7--7--|
A|-7--7--7---7---7---7---7---7--7--5--5--|-5----------------------------9--|-9--9--9---9---9---9---9---9-----7--7--|
E|-5--5--5---5---5---5---5---5--5--3--3--|-3----------------------------7--|-7--7--7---7---7---7---7---7-----------|


E|---------------------------------------|---------------------------------------|
B|---------------------------------------|---------------------------------------|
G|---------------------------------------|---------------------------------------|
D|-7--9----------------------------------|---------------------------------------|
A|-7--9--9---9---9---9---9---12-12-12-12-|-7--7--7---7---7---7---7---7--7--5--5--|
E|-------7---7---7---7---7---10-10-10-10-|-5--5--5---5---5---5---5---5--5--3--3--|


E|------------------------------------|-------------------------------------------|
B|---------------------------------0--|-----9--10-10-9-----9--9--10--9-----9--9---|
G|-----------7--------------2--0---0--|-----9--------9-----9--9------9-----9--9---|
D|----7---7------7--7--7----0------0--|-----9--11-11-9-----9--9--11--9-----9--9---|
A|-5----------------------------------|-------------------------------------------|
E|-3----------------------------------|-0-----------------------------------------|


E|---------------------------------------|-----------------------------------------------|
B|-----0-----1--0---0--12-13--12-12--12--|----2-----3-----2--------2--3------------------|
G|-----0--0--2--0---0--12-----12-12--12--|-2-----2--2-----2--2-----2------2--------------|
D|-0-------------------12-14--12-12--12--|-2--------------------2--2--4---2-----0--------|
A|---------------------------------------|-0------------------------------0-----0--------|
E|-3-------------------------------------|-----------------------------------------2--2--|


E|-----2---2--6--6-----6------6--6-----------|-----------------|-----------------------------------------|
B|-----2---2--7--7--7--7---7--7--7-----7--7--|-------10--10----|--------------10----10-9--10--9----------|
G|------------6--6--6------6--------6--6--6--|-------9---9-----|-----9--11-11-11-11----9--11--9----------|
D|-------------------------------------------|-----------------|-----9------------------------9------9---|
A|-------------------------------------------|-9---------------|-----------------------------------------|
E|-2-----------------------------------------|-----------------|-----------------------------------------|


E|---------------------------------------------|-----------------------------------|
B|--------------10----10-9--10--9--------9--9--|-----------------------------------|
G|-----9--11-11-11-11-11-9--11--9--------9--9--|-----------------------------------|
D|-9---9------------------------------9--------|-------------------------------4---|
A|---------------------------------------------|-------7---7-------------------2---|
E|---------------------------------------------|-7--0--5---4---0---4----0--0-------|


E|-----------------------------------------|-----------------------------------------|
B|-----0---0-------------------------------|--------------10-10-10-9--10--9----------|
G|------------------4--7--4--7--4--7--4----|-9---9--11-11-11-11-11-9--11--9----------|
D|-4----------------4--7--4--7--4--7--4----|-9---9-------------------------------9---|
A|-2----------5--7-------------------------|-----------------------------------------|
E|-----------------------------------------|-----------------------------------------|


E|---------------------------------------------|-----------------------------------|
B|--------------10-10----9--10--9--------9--9--|-----------------------------------|
G|-----9--11-11-11-11-11-9--11--9-----7--9--9--|-----------------------------------|
D|-9---9-----------------9---------------9--9--|-------------------------------4---|
A|---------------------------------------------|-------7---7-------------------2---|
E|---------------------------------------------|-7--0--5---4---0---4----0--0-------|


E|---------------------------------------------|-----------------------------------------|
B|------------0-----0--------0--0-----0--------|--------------10----10-9--10--9----------|
G|-----4---4-----4-----2--4--------2-----2--4--|-----9--11-11-11-11----9--11--9----------|
D|-4---4---4-----------------------------------|-----9------------------------9------9---|
A|-2-------------------------------------------|-----------------------------------------|
E|---------------------------------------------|-----------------------------------------|


E|---------------------------------------------|-----------------------------------|
B|--------------10----10-9--10--9--------9--9--|-----------------------------------|
G|-----9--11-11-11-11-11-9--11--9--------9--9--|-----------------------------------|
D|-9---9------------------------------9--------|-------------------------------4---|
A|---------------------------------------------|-------7---7-------------------2---|
E|---------------------------------------------|-7--0--5---4---0---4----0--0-------|


E|-----------------------------------------|-----------------------------------------|
B|-----0---0-------------------------------|--------------10-10-10-9--10--9----------|
G|------------------4--7--4--7--4--7--4----|-9---9--11-11-11-11-11-9--11--9----------|
D|-4----------------4--7--4--7--4--7--4----|-9---9-------------------------------9---|
A|-2----------5--7-------------------------|-----------------------------------------|
E|-----------------------------------------|-----------------------------------------|


E|---------------------------------------------|-----------------------------------|
B|--------------10-10----9--10--9--------9--9--|-----------------------------------|
G|-----9--11-11-11-11-11-9--11--9-----7--9--9--|-----------------------------------|
D|-9---9-----------------9---------------9--9--|-------------------------------4---|
A|---------------------------------------------|-------7---7-------------------2---|
E|---------------------------------------------|-7--0--5---4---0---4----0--0-------|


E|--------|-------------------------------------|-------------------------------------|
B|--------|-------------------------------------|-------------------------------------|
G|--------|-------------------------------------|-------------------------------------|
D|-4------|------------------------7-----0--9---|------------------------9-----0--7---|
A|-2------|------------------------5-----0--7---|------------------------7-----0--5---|
E|--------|-0---0---2---3---4---0---------------|-0---0---2---3---4---0---------------|


E|-------------------------------------|-------------------------------------|-------------------------------------|
B|-------------------------------------|-------------------------------------|-------------------------------------|
G|------------------------------0--9---|-------------------------------------|-------------------------------------|
D|------------------------7-----0--7---|------------------------7-----0--9---|------------------------7-----0--9---|
A|------------------------5------------|------------------------5-----0--7---|------------------------5-----0--7---|
E|-0---0---2---3---4---4---------------|-0---0---2---3---4---0---------------|-0---0---2---3---4---0---------------|


E|-------------------------------------|-------------------------------------|-------------------------------------|
B|-------------------------------------|-------------------------------------|-------------------------------------|
G|-------------------------------------|------------------------------0--9---|-------------------------------------|
D|------------------------9-----0--7---|------------------------7-----0--7---|------------------------7-----0--9---|
A|------------------------7-----0--5---|------------------------5------------|------------------------5-----0--7---|
E|-0---0---2---3---4---0---------------|-0---0---2---3---4---0---------------|-0---0---2---3---4---0---------------|


E|-------------------------------------|-------------------------------------|-------------------------------------|
B|-------------------------------------|-------------------------------------|-------------------------------------|
G|-------------------------------------|-------------------------------------|------------------------------0--9---|
D|------------------------7-----0--9---|------------------------9-----0--7---|------------------------7-----0--7---|
A|------------------------5-----0--7---|------------------------7-----0--5---|------------------------5------------|
E|-0---0---2---3---4---0---------------|-0---0---2---3---4---0---------------|-0---0---2---3---4---0---------------|


E|-------------------------------------|-------------------------------------|-------------------------------------|
B|-------------------------------------|-------------------------------------|-------------------------------------|
G|-------------------------------------|-------------------------------------|-------------------------------------|
D|------------------------7-----0--9---|------------------------7-----0--9---|------------------------9-----0--7---|
A|------------------------5-----0--7---|------------------------5-----0--7---|------------------------7-----0--5---|
E|-0---0---2---3---4---0---------------|-0---0---2---3---4---0---------------|-0---0---2---3---4---0---------------|


E|-------------------------------------|------------------------------|--------------------------------|
B|-------------------------------------|------------------------------|------------------------5----5--|
G|------------------------------0--9---|------------------------------|-----------4----4-------4----4--|
D|------------------------7-----0--7---|-2---2---2---2---2---2---2----|-4--4--4------------4-----------|
A|------------------------5------------|-2---2---2---2---2---2---2----|-2--2---------------------------|
E|-0---0---2---3---4---0---------------|-0---0---0---0---0---0---0----|--------------------------------|


E|---------------------------------------|-----------------------------------|-----------------------------------0---|
B|-5-----5---5--4------------------------|-----------------------------------|-----------------------------------0---|
G|-4--2--4---4--4------4--4--4---4-------|----------------------0--0---------|-----4---4----4--3--2--1--2--1--4------|
D|----2--2---2--4---4--4--2--4---4---4---|----------------------------4--4---|-4---4---4-----------------------------|
A|---------------------2--2--2---2---2---|-----7---7------------------2--2---|-2-------------------------------------|
E|---------------------------------------|-0---5---4---0---4-----------------|---------------------------------------|


E|-----------------------------------------|-------------------------------------|
B|-----------------------------------------|-------------------------------------|
G|-----------------------------------------|-----------4-------2----2--4---4--4--|
D|----4--4---4-----4---4-----4---4------4--|-4-----4-------4---------------4--4--|
A|----2--2---2--2--2---2--2--2---2---2--2--|-2--2--------------------------------|
E|-----------------------------------------|-------------------------------------|


E|-------------------------------------|---------------------------------|---------------------------------------|
B|-------------------------------------|---------------------------------|---------------------------------------|
G|-4-----------------------------------|---------4-------------------4---|---------------------------------------|
D|-4----------------------------0--4---|-4---4---4-------------------5---|---------------------------7--9-----7--|
A|-------7---7------------------0--2---|-2------------2---5---16-----7---|-9--9--9---9---9---9---9------------7--|
E|----0--5---4---0---4----0--0---------|-------------------------16------|-7--7--7---7---7---7---7---------7-----|


E|-----------------------------------------|---------------------------------------|
B|-----------------------------------------|---------------------------------------|
G|-----------------------------------------|---------------------------------------|
D|-9---------------------------------------|---------------------------------------|
A|-9--9--9---9---9---9---9--9--12-12-12-12-|-7--7--7---7---7---7---7---7--7--5--5--|
E|----7--7---7---7---7---7--7--10-10-10-10-|-5--5--5---5---5---5---5---5--5--3--3--|


E|-----------7------12-12----------|---------------------------------------|---------------------------------------|
B|-----------7---------------------|---------------------------------------|---------------------------------------|
G|--------7------------------------|---------------------------------------|---------------------------------------|
D|----7----------7-----------------|---------------------------9-----7--7--|-7--9----------------------------------|
A|-5-------------------------9--9--|-9--9--9---9---9---9---9---9-----7--7--|-7--9--9---9---9---9---9---12-12-12-12-|
E|-3-------------------------7--7--|-7--7--7---7---7---7---7---7-----------|-------7---7---7---7---7---10-10-10-10-|


E|---------------------------------------|-----------7--------------------------|-----------------------------------------|
B|---------------------------------------|--------------------------------------|--------------10----10-9--10--9----------|
G|---------------------------------------|--------7-----------------0--0--0--0--|-----9--11-11-11-11----9--11--9----------|
D|---------------------------------------|----7----------7--7--7----------------|-----9------------------------9------9---|
A|-7--7--7---7---7---7---7---7--7--5--5--|-5------------------------------------|-----------------------------------------|
E|-5--5--5---5---5---5---5---5--5--3--3--|-3------------------------------------|-----------------------------------------|


E|---------------------------------------------|-----------------------------------|
B|--------------10----10-9--10--9--------9--9--|-----------------------------------|
G|-----9--11-11-11-11-11-9--11--9--------9--9--|-----------------------------------|
D|-9---9------------------------------9--------|-------------------------------4---|
A|---------------------------------------------|-------7---7-------------------2---|
E|---------------------------------------------|-7--0--5---4---0---4----0--0-------|


E|-----------------------------------------|-----------------------------------------|
B|-----0---0-------------------------------|--------------10-10-10-9--10--9----------|
G|------------------4--7--4--7--4--7--4----|-9---9--11-11-11-11-11-9--11--9----------|
D|-4----------------4--7--4--7--4--7--4----|-9---9-------------------------------9---|
A|-2----------5--7-------------------------|-----------------------------------------|
E|-----------------------------------------|-----------------------------------------|


E|---------------------------------------------|-----------------------------------|
B|--------------10-10----9--10--9--------9--9--|-----------------------------------|
G|-----9--11-11-11-11-11-9--11--9-----7--9--9--|-----------------------------------|
D|-9---9-----------------9---------------9--9--|-------------------------------4---|
A|---------------------------------------------|-------7---7-------------------2---|
E|---------------------------------------------|-7--0--5---4---0---4----0--0-------|


E|------7-----------------|-----------------------------------------|---------------------------------------------|
B|------9----7------------|--------------10----10-9--10--9----------|--------------10----10-9--10--9--------9--9--|
G|-----------7------------|-----9--11-11-11-11----9--11--9----------|-----9--11-11-11-11-11-9--11--9--------9--9--|
D|-4------------9----9----|-----9------------------------9------9---|-9---9------------------------------9--------|
A|-2----------------------|-----------------------------------------|---------------------------------------------|
E|------------------------|-----------------------------------------|---------------------------------------------|


E|-----------------------------------|-----------------------------------------|-----------------------------------------|
B|-----------------------------------|-----0---0-------------------------------|--------------10-10-10-9--10--9----------|
G|-----------------------------------|------------------4--7--4--7--4--7--4----|-9---9--11-11-11-11-11-9--11--9----------|
D|-------------------------------4---|-4----------------4--7--4--7--4--7--4----|-9---9-------------------------------9---|
A|-------7---7-------------------2---|-2----------5--7-------------------------|-----------------------------------------|
E|-7--0--5---4---0---4----0--0-------|-----------------------------------------|-----------------------------------------|


E|---------------------------------------------|-----------------------------------|
B|--------------10-10----9--10--9--------9--9--|-----------------------------------|
G|-----9--11-11-11-11-11-9--11--9-----7--9--9--|-----------------------------------|
D|-9---9-----------------9---------------9--9--|-------------------------------4---|
A|---------------------------------------------|-------7---7-------------------2---|
E|---------------------------------------------|-7--0--5---4---0---4----0--0-------|


E|----------0------------------------0--|-0--2--2--2--2--2------2---2--2--0---0--0--|
B|-----0-------0--0---4-----0--0--0-----|-0-----0--0--0--0--0-------0--0--0---0--0--|
G|-----4-----------------4--------------|-------------------------------------------|
D|-4---4--------------------------------|-------------------------------------------|
A|-2------------------------------------|-------------------------------------------|
E|--------------------------------------|-------------------------------------------|


E|-0--2--2--2--2--2------2---2--2--0--2--2--2--|-4--4--4---4---4--4--0---0--0--0---0--0--|
B|-0-----0--0--0--0--0---0---0--0--0-----0--0--|-0--0--0---0---0--0--0---0--0--0---0--0--|
G|---------------------------------------------|-----------------------------------------|
D|---------------------------------------------|-----------------------------------------|
A|---------------------------------------------|-----------------------------------------|
E|---------------------------------------------|-----------------------------------------|


E|-0--2--2--2--2--2------2---2--2--0--2--2--2--|-0--2--2--2--2--2------2---2--2--0---0--0--|
B|-0-----0--0--0--0--0---0---0--0--0-----0--0--|-0-----0--0--0--0--0-------0--0--0---0--0--|
G|---------------------------------------------|-------------------------------------------|
D|---------------------------------------------|-------------------------------------------|
A|---------------------------------------------|-------------------------------------------|
E|---------------------------------------------|-------------------------------------------|


E|-0--2--2--2--2--2------2---2--2--0--2--2--2--|-4--4--4---4---4--4--0---0--0--0---0--0--|
B|-0-----0--0--0--0--0---0---0--0--0-----0--0--|-0--0--0---0---0--0--0---0--0--0---0--0--|
G|---------------------------------------------|-----------------------------------------|
D|---------------------------------------------|-----------------------------------------|
A|---------------------------------------------|-----------------------------------------|
E|---------------------------------------------|-----------------------------------------|


E|-0--2--2--2--2--2------2---2--2--0--2--2--2--|-0--2--2--2--2--2------2---2--2--4------5--|
B|-0-----0--0--0--0--0---0---0--0--0-----0--0--|-0-----0--0--0--0--0-------0--0--0---0--0--|
G|---------------------------------------------|-------------------------------------------|
D|---------------------------------------------|-------------------------------------------|
A|---------------------------------------------|-------------------------------------------|
E|---------------------------------------------|-------------------------------------------|


E|-5--5--5---5--5--5---5---5--5--0--2--2--2--|-4--4--4---4---4--4--0---0--0--0---0--0--|
B|-0--0--0---0--0--0---0---0--0--0-----0--0--|-0--0--0---0---0--0--0---0--0--0---0--0--|
G|-------------------------------------------|-----------------------------------------|
D|-------------------------------------------|-----------------------------------------|
A|-------------------------------------------|-----------------------------------------|
E|-------------------------------------------|-----------------------------------------|


E|-0--2--2--2--2--2------2---2--2--0--2--2--2--|-0--2--2--2--2--2------2---2--2--0---0--0--|
B|-0-----0--0--0--0--0---0---0--0--0-----0--0--|-0-----0--0--0--0--0-------0--0--0---0--0--|
G|---------------------------------------------|-------------------------------------------|
D|---------------------------------------------|-------------------------------------------|
A|---------------------------------------------|-------------------------------------------|
E|---------------------------------------------|-------------------------------------------|


E|-0--2--2--2--2--2------2---2--2--0--2--2--2--|-4--4--4---4---4--4--0---0--0--0---0--0--|
B|-0-----0--0--0--0--0---0---0--0--0-----0--0--|-0--0--0---0---0--0--0---0--0--0---0--0--|
G|---------------------------------------------|-----------------------------------------|
D|---------------------------------------------|-----------------------------------------|
A|---------------------------------------------|-----------------------------------------|
E|---------------------------------------------|-----------------------------------------|


E|-0--2--2--2--2--2------2---2--2--0--2--2--2--|-----------------------------------------|
B|-0-----0--0--0--0--0---0---0--0--0-----0--0--|--------------10----10-9--10--9----------|
G|---------------------------------------------|-----9--11-11-11-11----9--11--9----------|
D|---------------------------------------------|-----9------------------------9------9---|
A|---------------------------------------------|-----------------------------------------|
E|---------------------------------------------|-----------------------------------------|


E|---------------------------------------------|-----------------------------------|
B|--------------10----10-9--10--9--------9--9--|-----------------------------------|
G|-----9--11-11-11-11-11-9--11--9--------9--9--|-----------------------------------|
D|-9---9------------------------------9--------|-------------------------------4---|
A|---------------------------------------------|-------7---7-------------------2---|
E|---------------------------------------------|-7--0--5---4---0---4----0--0-------|


E|-----------10----------------------------|-----------------------------------------|
B|-----------10--9--9--9--9--9---9---------|--------------10-10-10-9--10--9----------|
G|-----4--0------9--9--9--9--9---9--7------|-9---9--11-11-11-11-11-9--11--9----------|
D|-4---4--0----------------------------9---|-9---9-------------------------------9---|
A|-2---------------------------------------|-----------------------------------------|
E|-----------------------------------------|-----------------------------------------|


E|---------------------------------------------|-----------------------------------|
B|--------------10-10----9--10--9--------9--9--|-----------------------------------|
G|-----9--11-11-11-11-11-9--11--9-----7--9--9--|-----------------------------------|
D|-9---9-----------------9---------------9--9--|-------------------------------4---|
A|---------------------------------------------|-------7---7-------------------2---|
E|---------------------------------------------|-7--0--5---4---0---4----0--0-------|


E|----------------|--------|
B|----------------|--------|
G|----------------|--------|
D|-4--------------|--------|
A|-2---2---0------|--------|
E|----------------|--------|





Track 2: Gtr. 2

E|--------|--------|--------|--------|--------|--------|--------|--------|--------|
B|--------|--------|--------|--------|--------|--------|--------|--------|--------|
G|--------|--------|--------|--------|--------|--------|--------|--------|--------|
D|--------|--------|--------|--------|--------|--------|--------|--------|--------|
A|--------|--------|--------|--------|--------|--------|--------|--------|--------|
E|--------|--------|--------|--------|--------|--------|--------|--------|--------|


E|--------|--------|----------7---------------------|---------------------------------------|
B|--------|--------|-----------------------------7--|-7-------------------------------------|
G|--------|--------|-----4----7--9--7------------9--|-9-------------------------------------|
D|--------|--------|-4---4-------------9----9----9--|-9-------------------------7--9-----7--|
A|--------|--------|-2------------------------------|----9--9---9---9---9---9------------7--|
E|--------|--------|--------------------------------|----7--7---7---7---7---7---------7-----|


E|-----------------------------------------|--------|--------|--------|---------------------------------------|
B|-----------------------------------------|--------|--------|--------|---------------------------------------|
G|-----------------------------------------|--------|--------|--------|---------------------------------------|
D|-9---------------------------------------|--------|--------|--------|-7--9----------------------------------|
A|-9--9--9---9---9---9---9--9--12-12-12-12-|--------|--------|--------|-7--9--9---9---9---9---9---12-12-12-12-|
E|----7--7---7---7---7---7--7--10-10-10-10-|--------|--------|--------|-------7---7---7---7---7---10-10-10-10-|


E|---------------------------------------|---------------------------------------|
B|---------------------------------------|---------------7---------7-------------|
G|---------------------------------------|-----------7---------------------------|
D|---------------------------------------|----0---7---------7--7--------------0--|
A|-7--7--7---7---7---7---7---7--7--5--5--|-5----------------------------------0--|
E|-5--5--5---5---5---5---5---5--5--3--3--|-3---------------------------5---7-----|


E|--------|--------|--------|--------|--------|--------|--------|--------|--------|
B|--------|--------|--------|--------|--------|--------|--------|--------|--------|
G|--------|--------|--------|--------|--------|--------|--------|--------|--------|
D|--------|--------|--------|--------|--------|--------|--------|--------|--------|
A|--------|--------|--------|--------|--------|--------|--------|--------|--------|
E|--------|--------|--------|--------|--------|--------|--------|--------|--------|


E|--------|--------|--------|--------|--------|---------------------------------------|
B|--------|--------|--------|--------|--------|---------------------------------------|
G|--------|--------|--------|--------|--------|---------------------------------------|
D|--------|--------|--------|--------|--------|---------------------------------------|
A|--------|--------|--------|--------|--------|-7--7--7---7---7---7---7---7--7--5--5--|
E|--------|--------|--------|--------|--------|-5--5--5---5---5---5---5---5--5--3--3--|


E|------------------------------------|-----------------------------------------------|
B|---------------------------------0--|-------9--10-10-9--9--9--9--10--9--------9--9--|
G|-----------7--------------2--0---0--|-------9--------9--9--9--9------9--------9--9--|
D|----7---7------7--7--7----0------0--|-------9--11-11-9--9--9--9--11--9-----9--------|
A|-5----------------------------------|-0--0------------------------------------------|
E|-3----------------------------------|-----------------------------------------------|


E|-----------------------------------------------|---------------------------------------------|
B|-0--0---------12-12-12-12-12-12-12-------------|----------------14-14----14--14-14-14-15-14--|
G|-0--0--0---0--12-12-12-12-12-12-12----0--12-12-|-12-0--12-14-14-14-14----14--14-14-14-14-14--|
D|-1--0---------12-12-12-12-12-12-12----0--12-12-|-12----12-14-14----------14--14-14-14--------|
A|-----------------------------------------------|----------------------12---------------------|
E|-----------------------------------------------|---------------------------------------------|


E|---------------------------------------------|------------------------------------|
B|---------------------------------------------|-12----10-----10-----10--10-10-10---|
G|---------------------11-11-11-11-11----11-11-|-0-----9------9------9---9--9--9----|
D|-11--11--11-11-11-9--11-11-11-11-11-9--11-11-|-----------0------------------------|
A|-9---9---9--9--9--9--9--9--9--9--9--9--9--9--|----9------0------9-----------------|
E|---------------------------------------------|------------------------------------|


E|--------|--------|--------|--------|--------|--------|-----------------------------------|
B|--------|--------|--------|--------|--------|--------|-----------------------------------|
G|--------|--------|--------|--------|--------|--------|-----------------------------------|
D|--------|--------|--------|--------|--------|--------|-------------------------------4---|
A|--------|--------|--------|--------|--------|--------|-------7---7-------------------2---|
E|--------|--------|--------|--------|--------|--------|-7--0--5---4---0---4----0--0-------|


E|----------------------------------|--------|--------|--------|--------|--------|
B|----------0-----------------------|--------|--------|--------|--------|--------|
G|-----4----4---2--2--2--2--2--4----|--------|--------|--------|--------|--------|
D|-4---4----------------------------|--------|--------|--------|--------|--------|
A|-2--------------------------------|--------|--------|--------|--------|--------|
E|----------------------------------|--------|--------|--------|--------|--------|


E|--------|--------|--------|--------|--------|--------|--------|--------|--------|
B|--------|--------|--------|--------|--------|--------|--------|--------|--------|
G|--------|--------|--------|--------|--------|--------|--------|--------|--------|
D|--------|--------|--------|--------|--------|--------|--------|--------|--------|
A|--------|--------|--------|--------|--------|--------|--------|--------|--------|
E|--------|--------|--------|--------|--------|--------|--------|--------|--------|


E|--------|--------|--------|--------|--------|--------|--------|--------|--------|
B|--------|--------|--------|--------|--------|--------|--------|--------|--------|
G|--------|--------|--------|--------|--------|--------|--------|--------|--------|
D|--------|--------|--------|--------|--------|--------|--------|--------|--------|
A|--------|--------|--------|--------|--------|--------|--------|--------|--------|
E|--------|--------|--------|--------|--------|--------|--------|--------|--------|


E|--------|--------|--------|--------|--------|--------|--------|--------|--------|
B|--------|--------|--------|--------|--------|--------|--------|--------|--------|
G|--------|--------|--------|--------|--------|--------|--------|--------|--------|
D|--------|--------|--------|--------|--------|--------|--------|--------|--------|
A|--------|--------|--------|--------|--------|--------|--------|--------|--------|
E|--------|--------|--------|--------|--------|--------|--------|--------|--------|


E|--------|--------|--------|--------|--------|--------|---------------------------------------|
B|--------|--------|--------|--------|--------|--------|---------------------------------------|
G|--------|--------|--------|--------|--------|--------|---------------------------------------|
D|--------|--------|--------|--------|--------|--------|---------------------------------------|
A|--------|--------|--------|--------|--------|--------|-7--7--7---7---7---7---7---7--7--5--5--|
E|--------|--------|--------|--------|--------|--------|-5--5--5---5---5---5---5---5--5--3--3--|


E|---------------------------------------|--------|--------|--------|--------|--------|
B|---------------7---------7-------------|--------|--------|--------|--------|--------|
G|-----------7---------------------------|--------|--------|--------|--------|--------|
D|----0---7---------7--7--------------0--|--------|--------|--------|--------|--------|
A|-5----------------------------------0--|--------|--------|--------|--------|--------|
E|-3---------------------------5---7-----|--------|--------|--------|--------|--------|


E|--------|--------|--------|--------|--------|--------|--------|--------|--------|
B|--------|--------|--------|--------|--------|--------|--------|--------|--------|
G|--------|--------|--------|--------|--------|--------|--------|--------|--------|
D|--------|--------|--------|--------|--------|--------|--------|--------|--------|
A|--------|--------|--------|--------|--------|--------|--------|--------|--------|
E|--------|--------|--------|--------|--------|--------|--------|--------|--------|


E|--------|--------|--------|--------|--------|--------|--------|--------|--------|
B|--------|--------|--------|--------|--------|--------|--------|--------|--------|
G|--------|--------|--------|--------|--------|--------|--------|--------|--------|
D|--------|--------|--------|--------|--------|--------|--------|--------|--------|
A|--------|--------|--------|--------|--------|--------|--------|--------|--------|
E|--------|--------|--------|--------|--------|--------|--------|--------|--------|


E|--------|--------|--------|--------|--------|--------|--------|--------|--------|
B|--------|--------|--------|--------|--------|--------|--------|--------|--------|
G|--------|--------|--------|--------|--------|--------|--------|--------|--------|
D|--------|--------|--------|--------|--------|--------|--------|--------|--------|
A|--------|--------|--------|--------|--------|--------|--------|--------|--------|
E|--------|--------|--------|--------|--------|--------|--------|--------|--------|


E|--------|--------|--------|--------|--------|--------|--------|--------|--------|
B|--------|--------|--------|--------|--------|--------|--------|--------|--------|
G|--------|--------|--------|--------|--------|--------|--------|--------|--------|
D|--------|--------|--------|--------|--------|--------|--------|--------|--------|
A|--------|--------|--------|--------|--------|--------|--------|--------|--------|
E|--------|--------|--------|--------|--------|--------|--------|--------|--------|





Track 3: Harmonica

E|--------|--------|--------|--------|--------|--------|--------|--------|--------|
B|--------|--------|--------|--------|--------|--------|--------|--------|--------|
G|--------|--------|--------|--------|--------|--------|--------|--------|--------|
D|--------|--------|--------|--------|--------|--------|--------|--------|--------|
A|--------|--------|--------|--------|--------|--------|--------|--------|--------|
E|--------|--------|--------|--------|--------|--------|--------|--------|--------|


E|--------|--------|--------|--------|--------|--------|--------|--------|--------|
B|--------|--------|--------|--------|--------|--------|--------|--------|--------|
G|--------|--------|--------|--------|--------|--------|--------|--------|--------|
D|--------|--------|--------|--------|--------|--------|--------|--------|--------|
A|--------|--------|--------|--------|--------|--------|--------|--------|--------|
E|--------|--------|--------|--------|--------|--------|--------|--------|--------|


E|--------|--------|-16---16----16---|-------16------------------------|--------|--------|
B|--------|--------|-17---17----17---|-17-17-17----17---20-17-16-------|--------|--------|
G|--------|--------|-----------------|---------------------------16-16-|--------|--------|
D|--------|--------|-----------------|---------------------------------|--------|--------|
A|--------|--------|-----------------|---------------------------------|--------|--------|
E|--------|--------|-----------------|---------------------------------|--------|--------|


E|--------|--------|--------|--------|--------|--------|--------|--------|--------|
B|--------|--------|--------|--------|--------|--------|--------|--------|--------|
G|--------|--------|--------|--------|--------|--------|--------|--------|--------|
D|--------|--------|--------|--------|--------|--------|--------|--------|--------|
A|--------|--------|--------|--------|--------|--------|--------|--------|--------|
E|--------|--------|--------|--------|--------|--------|--------|--------|--------|


E|--------|--------|--------|--------|--------|--------|--------|--------|-16---16----16---|
B|--------|--------|--------|--------|--------|--------|--------|--------|-17---17----17---|
G|--------|--------|--------|--------|--------|--------|--------|--------|-----------------|
D|--------|--------|--------|--------|--------|--------|--------|--------|-----------------|
A|--------|--------|--------|--------|--------|--------|--------|--------|-----------------|
E|--------|--------|--------|--------|--------|--------|--------|--------|-----------------|


E|-------16------------------------|--------|--------|--------|--------|--------|--------|
B|-17-17-17----17---20-17-16-------|--------|--------|--------|--------|--------|--------|
G|---------------------------16-16-|--------|--------|--------|--------|--------|--------|
D|---------------------------------|--------|--------|--------|--------|--------|--------|
A|---------------------------------|--------|--------|--------|--------|--------|--------|
E|---------------------------------|--------|--------|--------|--------|--------|--------|


E|--------|--------|--------|--------|--------|--------|--------|--------|--------|
B|--------|--------|--------|--------|--------|--------|--------|--------|--------|
G|--------|--------|--------|--------|--------|--------|--------|--------|--------|
D|--------|--------|--------|--------|--------|--------|--------|--------|--------|
A|--------|--------|--------|--------|--------|--------|--------|--------|--------|
E|--------|--------|--------|--------|--------|--------|--------|--------|--------|


E|--------|--------|--------|--------|--------|--------|--------|--------|--------|
B|--------|--------|--------|--------|--------|--------|--------|--------|--------|
G|--------|--------|--------|--------|--------|--------|--------|--------|--------|
D|--------|--------|--------|--------|--------|--------|--------|--------|--------|
A|--------|--------|--------|--------|--------|--------|--------|--------|--------|
E|--------|--------|--------|--------|--------|--------|--------|--------|--------|


E|--------|--------|--------|--------|--------|--------|--------|--------|--------|
B|--------|--------|--------|--------|--------|--------|--------|--------|--------|
G|--------|--------|--------|--------|--------|--------|--------|--------|--------|
D|--------|--------|--------|--------|--------|--------|--------|--------|--------|
A|--------|--------|--------|--------|--------|--------|--------|--------|--------|
E|--------|--------|--------|--------|--------|--------|--------|--------|--------|


E|--------|--------|--------|--------|--------|--------|--------|--------|--------|
B|--------|--------|--------|--------|--------|--------|--------|--------|--------|
G|--------|--------|--------|--------|--------|--------|--------|--------|--------|
D|--------|--------|--------|--------|--------|--------|--------|--------|--------|
A|--------|--------|--------|--------|--------|--------|--------|--------|--------|
E|--------|--------|--------|--------|--------|--------|--------|--------|--------|


E|--------|--------|--------|--------|-16---16----16---|-------16------------------------|
B|--------|--------|--------|--------|-17---17----17---|-17-17-17----17---20-17-16-------|
G|--------|--------|--------|--------|-----------------|---------------------------16-16-|
D|--------|--------|--------|--------|-----------------|---------------------------------|
A|--------|--------|--------|--------|-----------------|---------------------------------|
E|--------|--------|--------|--------|-----------------|---------------------------------|


E|--------|--------|--------|--------|--------|--------|-16---16----16---|-------16------------------------|
B|--------|--------|--------|--------|--------|--------|-17---17----17---|-17-17-17----17---20-17-16-------|
G|--------|--------|--------|--------|--------|--------|-----------------|---------------------------16-16-|
D|--------|--------|--------|--------|--------|--------|-----------------|---------------------------------|
A|--------|--------|--------|--------|--------|--------|-----------------|---------------------------------|
E|--------|--------|--------|--------|--------|--------|-----------------|---------------------------------|


E|--------|--------|--------|--------|--------|--------|--------|--------|--------|
B|--------|--------|--------|--------|--------|--------|--------|--------|--------|
G|--------|--------|--------|--------|--------|--------|--------|--------|--------|
D|--------|--------|--------|--------|--------|--------|--------|--------|--------|
A|--------|--------|--------|--------|--------|--------|--------|--------|--------|
E|--------|--------|--------|--------|--------|--------|--------|--------|--------|


E|--------|--------|--------|--------|--------|--------|--------|--------|--------|
B|--------|--------|--------|--------|--------|--------|--------|--------|--------|
G|--------|--------|--------|--------|--------|--------|--------|--------|--------|
D|--------|--------|--------|--------|--------|--------|--------|--------|--------|
A|--------|--------|--------|--------|--------|--------|--------|--------|--------|
E|--------|--------|--------|--------|--------|--------|--------|--------|--------|


E|--------|--------|--------|--------|--------|--------|--------|--------|--------|
B|--------|--------|--------|--------|--------|--------|--------|--------|--------|
G|--------|--------|--------|--------|--------|--------|--------|--------|--------|
D|--------|--------|--------|--------|--------|--------|--------|--------|--------|
A|--------|--------|--------|--------|--------|--------|--------|--------|--------|
E|--------|--------|--------|--------|--------|--------|--------|--------|--------|


E|--------|--------|--------|--------|
B|--------|--------|--------|--------|
G|--------|--------|--------|--------|
D|--------|--------|--------|--------|
A|--------|--------|--------|--------|
E|--------|--------|--------|--------|





Track 4: Gtr. 1

E|--------|--------|--------|--------|--------|--------|--------|--------|--------|
B|--------|--------|--------|--------|--------|--------|--------|--------|--------|
G|--------|--------|--------|--------|--------|--------|--------|--------|--------|
D|--------|--------|--------|--------|--------|--------|--------|--------|--------|
A|--------|--------|--------|--------|--------|--------|--------|--------|--------|
E|--------|--------|--------|--------|--------|--------|--------|--------|--------|


E|--------|--------|--------|--------|--------|--------|--------|--------|--------|
B|--------|--------|--------|--------|--------|--------|--------|--------|--------|
G|--------|--------|--------|--------|--------|--------|--------|--------|--------|
D|--------|--------|--------|--------|--------|--------|--------|--------|--------|
A|--------|--------|--------|--------|--------|--------|--------|--------|--------|
E|--------|--------|--------|--------|--------|--------|--------|--------|--------|


E|--------|--------|--------|--------|--------|--------|--------|--------|--------|
B|--------|--------|--------|--------|--------|--------|--------|--------|--------|
G|--------|--------|--------|--------|--------|--------|--------|--------|--------|
D|--------|--------|--------|--------|--------|--------|--------|--------|--------|
A|--------|--------|--------|--------|--------|--------|--------|--------|--------|
E|--------|--------|--------|--------|--------|--------|--------|--------|--------|


E|--------|--------|--------|--------|--------|--------|--------|--------|--------|
B|--------|--------|--------|--------|--------|--------|--------|--------|--------|
G|--------|--------|--------|--------|--------|--------|--------|--------|--------|
D|--------|--------|--------|--------|--------|--------|--------|--------|--------|
A|--------|--------|--------|--------|--------|--------|--------|--------|--------|
E|--------|--------|--------|--------|--------|--------|--------|--------|--------|


E|--------|--------|--------|--------|--------|--------|--------|--------|--------|
B|--------|--------|--------|--------|--------|--------|--------|--------|--------|
G|--------|--------|--------|--------|--------|--------|--------|--------|--------|
D|--------|--------|--------|--------|--------|--------|--------|--------|--------|
A|--------|--------|--------|--------|--------|--------|--------|--------|--------|
E|--------|--------|--------|--------|--------|--------|--------|--------|--------|


E|--------|--------|--------|--------|--------|--------|--------|--------|--------|
B|--------|--------|--------|--------|--------|--------|--------|--------|--------|
G|--------|--------|--------|--------|--------|--------|--------|--------|--------|
D|--------|--------|--------|--------|--------|--------|--------|--------|--------|
A|--------|--------|--------|--------|--------|--------|--------|--------|--------|
E|--------|--------|--------|--------|--------|--------|--------|--------|--------|


E|--------|--------|--------|--------|--------|--------|--------|--------|--------|
B|--------|--------|--------|--------|--------|--------|--------|--------|--------|
G|--------|--------|--------|--------|--------|--------|--------|--------|--------|
D|--------|--------|--------|--------|--------|--------|--------|--------|--------|
A|--------|--------|--------|--------|--------|--------|--------|--------|--------|
E|--------|--------|--------|--------|--------|--------|--------|--------|--------|


E|--------|--------|--------|--------|--------|--------|--------|--------|--------|
B|--------|--------|--------|--------|--------|--------|--------|--------|--------|
G|--------|--------|--------|--------|--------|--------|--------|--------|--------|
D|--------|--------|--------|--------|--------|--------|--------|--------|--------|
A|--------|--------|--------|--------|--------|--------|--------|--------|--------|
E|--------|--------|--------|--------|--------|--------|--------|--------|--------|


E|--------|--------|--------|--------|--------|--------|--------|--------|--------|
B|--------|--------|--------|--------|--------|--------|--------|--------|--------|
G|--------|--------|--------|--------|--------|--------|--------|--------|--------|
D|--------|--------|--------|--------|--------|--------|--------|--------|--------|
A|--------|--------|--------|--------|--------|--------|--------|--------|--------|
E|--------|--------|--------|--------|--------|--------|--------|--------|--------|


E|--------|--------|--------|--------|--------|--------|--------|--------|--------|
B|--------|--------|--------|--------|--------|--------|--------|--------|--------|
G|--------|--------|--------|--------|--------|--------|--------|--------|--------|
D|--------|--------|--------|--------|--------|--------|--------|--------|--------|
A|--------|--------|--------|--------|--------|--------|--------|--------|--------|
E|--------|--------|--------|--------|--------|--------|--------|--------|--------|


E|--------|--------|--------|--------|--------|--------|--------|--------|--------|
B|--------|--------|--------|--------|--------|--------|--------|--------|--------|
G|--------|--------|--------|--------|--------|--------|--------|--------|--------|
D|--------|--------|--------|--------|--------|--------|--------|--------|--------|
A|--------|--------|--------|--------|--------|--------|--------|--------|--------|
E|--------|--------|--------|--------|--------|--------|--------|--------|--------|


E|--------|--------|--------|--------|--------|--------|--------|--------|--------|
B|--------|--------|--------|--------|--------|--------|--------|--------|--------|
G|--------|--------|--------|--------|--------|--------|--------|--------|--------|
D|--------|--------|--------|--------|--------|--------|--------|--------|--------|
A|--------|--------|--------|--------|--------|--------|--------|--------|--------|
E|--------|--------|--------|--------|--------|--------|--------|--------|--------|


E|--------|--------|--------|--------|--------|--------|--------|--------|--------|
B|--------|--------|--------|--------|--------|--------|--------|--------|--------|
G|--------|--------|--------|--------|--------|--------|--------|--------|--------|
D|--------|--------|--------|--------|--------|--------|--------|--------|--------|
A|--------|--------|--------|--------|--------|--------|--------|--------|--------|
E|--------|--------|--------|--------|--------|--------|--------|--------|--------|


E|--------|--------|--------|--------|--------|--------|--------|--------|--------|
B|--------|--------|--------|--------|--------|--------|--------|--------|--------|
G|--------|--------|--------|--------|--------|--------|--------|--------|--------|
D|--------|--------|--------|--------|--------|--------|--------|--------|--------|
A|--------|--------|--------|--------|--------|--------|--------|--------|--------|
E|--------|--------|--------|--------|--------|--------|--------|--------|--------|


E|--------|--------|--------|--------|
B|--------|--------|--------|--------|
G|--------|--------|--------|--------|
D|--------|--------|--------|--------|
A|--------|--------|--------|--------|
E|--------|--------|--------|--------|





Track 5: Solo

E|--------|--------|--------|--------|--------|--------|--------|--------|--------|
B|--------|--------|--------|--------|--------|--------|--------|--------|--------|
G|--------|--------|--------|--------|--------|--------|--------|--------|--------|
D|--------|--------|--------|--------|--------|--------|--------|--------|--------|
A|--------|--------|--------|--------|--------|--------|--------|--------|--------|
E|--------|--------|--------|--------|--------|--------|--------|--------|--------|


E|--------|--------|--------|--------|--------|--------|--------|--------|--------|
B|--------|--------|--------|--------|--------|--------|--------|--------|--------|
G|--------|--------|--------|--------|--------|--------|--------|--------|--------|
D|--------|--------|--------|--------|--------|--------|--------|--------|--------|
A|--------|--------|--------|--------|--------|--------|--------|--------|--------|
E|--------|--------|--------|--------|--------|--------|--------|--------|--------|


E|--------|--------|--------|--------|--------|--------|--------|--------|--------|
B|--------|--------|--------|--------|--------|--------|--------|--------|--------|
G|--------|--------|--------|--------|--------|--------|--------|--------|--------|
D|--------|--------|--------|--------|--------|--------|--------|--------|--------|
A|--------|--------|--------|--------|--------|--------|--------|--------|--------|
E|--------|--------|--------|--------|--------|--------|--------|--------|--------|


E|--------|--------|--------|--------|--------|--------|--------|--------|--------|
B|--------|--------|--------|--------|--------|--------|--------|--------|--------|
G|--------|--------|--------|--------|--------|--------|--------|--------|--------|
D|--------|--------|--------|--------|--------|--------|--------|--------|--------|
A|--------|--------|--------|--------|--------|--------|--------|--------|--------|
E|--------|--------|--------|--------|--------|--------|--------|--------|--------|


E|--------|--------|--------|--------|--------|--------|--------|--------|--------|
B|--------|--------|--------|--------|--------|--------|--------|--------|--------|
G|--------|--------|--------|--------|--------|--------|--------|--------|--------|
D|--------|--------|--------|--------|--------|--------|--------|--------|--------|
A|--------|--------|--------|--------|--------|--------|--------|--------|--------|
E|--------|--------|--------|--------|--------|--------|--------|--------|--------|


E|--------|--------|--------|--------|--------|--------|--------|--------|--------|
B|--------|--------|--------|--------|--------|--------|--------|--------|--------|
G|--------|--------|--------|--------|--------|--------|--------|--------|--------|
D|--------|--------|--------|--------|--------|--------|--------|--------|--------|
A|--------|--------|--------|--------|--------|--------|--------|--------|--------|
E|--------|--------|--------|--------|--------|--------|--------|--------|--------|


E|--------|--------|------------------------|---------------------------|---------------------------|
B|--------|--------|--------------------0---|-0---15----15--15--15------|-15---15-15--15--15--15----|
G|--------|--------|--------------0---------|-0---14----14---------14---|-14----------14--14--14----|
D|--------|--------|--------------0---------|-0-------------------------|---------------------------|
A|--------|--------|--------------0---------|---------------------------|---------------------------|
E|--------|--------|----------2-------------|---------------------------|---------------------------|


E|---------------------------12-----------|----12---------------------------------------------|
B|-14-12-15--15---17----15------15-12-15--|-15---15121512-------------------------------------|
G|-14-12-------------14-------------------|--------------1414-14-12----14-12----12-12-12---19-|
D|----------------------------------------|-------------------------14-------14---------------|
A|----------------------------------------|---------------------------------------------------|
E|----------------------------------------|---------------------------------------------------|


E|-0---15--15-15---12----12----12-15--15-|-15--12----15--15--15--12----12-15-16-1512--12|
B|-0------------------15----15-----------|--------15----------------15--------------16--|
G|-0-------------------------------------|----------------------------------------------|
D|-0-------------------------------------|----------------------------------------------|
A|---------------------------------------|----------------------------------------------|
E|---------------------------------------|----------------------------------------------|


E|-1617161215161512161215161512161214151412-------12-151412------|-------------------------------------------|
B|-----------------------------------------151215----------151214|-151412-----15------------------0--0---0---|
G|---------------------------------------------------------------|-------1414----14-14-12----12---0--0---0---|
D|---------------------------------------------------------------|------------------------14-------------0---|
A|---------------------------------------------------------------|-------------------------------------------|
E|---------------------------------------------------------------|-------------------------------------------|


E|-0-----0-----------0--------0--------0-----0-----|-0--3--0---------------0-3-0----0-3-0----0-3-0---0--3-0---0--4-|
B|-0--3-----0--3--0-----3--0-----3--0-----3--0--3--|----------3--0--3--0-3-------3--------3--------3-0------3------|
G|-------------------------------------------------|---------------------------------------------------------------|
D|-------------------------------------------------|---------------------------------------------------------------|
A|-------------------------------------------------|---------------------------------------------------------------|
E|-------------------------------------------------|---------------------------------------------------------------|


E|-0----0-2-0----0-4-0--3-0-2-0-3-0----0----------------------|-----------------------------------0--0--|
B|---3------0--4---------------------3---3-0-3-0---0----------|-----------------------------------0--0--|
G|-----------------------------------------------3-----3-0--3-|-3--3-2-0--3--2--3--2--0-----0-----0--0--|
D|------------------------------------------------------------|--------------------------2--------------|
A|------------------------------------------------------------|-----------------------------------------|
E|------------------------------------------------------------|-----------------------------------------|


E|-12-12-15---15--12----------------------|-----------------------------------------|
B|-12-12-------------15-12----------------|-----------------------------------------|
G|-12-12-------------------14-14-12-9-----|-------12----9---------------------------|
D|-------------------------------------12-|-9--11----11----12-9---------------------|
A|----------------------------------------|----------------------12-10---9--2---11--|
E|----------------------------------------|-----------------------------------------|


E|-----17--17---17--17--17-17---|-17-17-17-17-17-17-17-17-17---17-----------|-0-----22--22---22---22---|
B|------------------------------|-------------------------------------------|-0--0--22--22---22---22---|
G|-12---------------------------|---------------------------------0--19-0---|-0--0--0---0----0---------|
D|-12---------------------------|---------------------------------0--19-0---|----0---------------------|
A|------------------------------|---------------------------------0---------|--------------------------|
E|------------------------------|-------------------------------------------|--------------------------|


E|-22--22--22-22---19---22--22--|-----10--10--7-----107----7--------------------|-------------------------------------------|
B|-22---------------------------|-0--------------7------7-----7-----------------|-------------------------------------9--7--|
G|------------------------------|-0------------------------------9--9--7--9--7--|-9--9--7-----9--7-----7--7-----------9--7--|
D|------------------------------|-----------------------------------------------|----------9--------9--------9--------------|
A|------------------------------|-----------------------------------------------|---------------------------------0---------|
E|------------------------------|-----------------------------------------------|-------------------------------------------|


E|----7-----------------10-10-------------10--10-|-10----10----10----10-------7----------------|
B|-9--9--7--7--9--10-9--9--9--7--9-----9--9------|-9-----9-----9-----9-----9--7--7-------------|
G|----7--------7--7--7--------7--7--7------------|----7-----7-----7-----7-----7------------7---|
D|-----------------------------------------------|----------------------------------9--9-------|
A|-----------------------------------------------|---------------------------------------------|
E|-----------------------------------------------|---------------------------------------------|


E|----------7--------7--------7--------7--------7--|-19--22--22-22--22-19-22-19---19--|
B|-------7--------7--------7--------7--------7-----|----------------------------------|
G|-7--9--------9--------9--------9--------9--------|----------------------------------|
D|-------------------------------------------------|----------------------------------|
A|-------------------------------------------------|----------------------------------|
E|-------------------------------------------------|----------------------------------|


E|--------|--------|--------|--------|--------|--------|--------|--------|--------|
B|--------|--------|--------|--------|--------|--------|--------|--------|--------|
G|--------|--------|--------|--------|--------|--------|--------|--------|--------|
D|--------|--------|--------|--------|--------|--------|--------|--------|--------|
A|--------|--------|--------|--------|--------|--------|--------|--------|--------|
E|--------|--------|--------|--------|--------|--------|--------|--------|--------|


E|--------|--------|--------|--------|--------|--------|--------|--------|--------|
B|--------|--------|--------|--------|--------|--------|--------|--------|--------|
G|--------|--------|--------|--------|--------|--------|--------|--------|--------|
D|--------|--------|--------|--------|--------|--------|--------|--------|--------|
A|--------|--------|--------|--------|--------|--------|--------|--------|--------|
E|--------|--------|--------|--------|--------|--------|--------|--------|--------|


E|--------|--------|--------|--------|--------|--------|--------|--------|--------|
B|--------|--------|--------|--------|--------|--------|--------|--------|--------|
G|--------|--------|--------|--------|--------|--------|--------|--------|--------|
D|--------|--------|--------|--------|--------|--------|--------|--------|--------|
A|--------|--------|--------|--------|--------|--------|--------|--------|--------|
E|--------|--------|--------|--------|--------|--------|--------|--------|--------|


E|--------|--------|--------|--------|--------|--------|--------|--------|--------|
B|--------|--------|--------|--------|--------|--------|--------|--------|--------|
G|--------|--------|--------|--------|--------|--------|--------|--------|--------|
D|--------|--------|--------|--------|--------|--------|--------|--------|--------|
A|--------|--------|--------|--------|--------|--------|--------|--------|--------|
E|--------|--------|--------|--------|--------|--------|--------|--------|--------|


E|--------|--------|--------|--------|--------|--------|--------|--------|--------|
B|--------|--------|--------|--------|--------|--------|--------|--------|--------|
G|--------|--------|--------|--------|--------|--------|--------|--------|--------|
D|--------|--------|--------|--------|--------|--------|--------|--------|--------|
A|--------|--------|--------|--------|--------|--------|--------|--------|--------|
E|--------|--------|--------|--------|--------|--------|--------|--------|--------|


E|--------|--------|--------|--------|
B|--------|--------|--------|--------|
G|--------|--------|--------|--------|
D|--------|--------|--------|--------|
A|--------|--------|--------|--------|
E|--------|--------|--------|--------|





Track 6: Gtr. 1

E|---------------------------------|---------------------------------|---------------------------------|
B|---------------------------------|---------------------------------|---------------------------------|
G|---------------------------------|---------------------------------|---------------------------------|
D|---------------------------------|---------------------------------|---------------------------------|
A|-2---2---2---2---2---2---2---2---|-2---2---2---2---2---2---2---2---|-2---2---2---2---2---2---2---2---|
E|---------------------------------|---------------------------------|---------------------------------|


E|---------------------------------|---------------------------------|---------------------------------|
B|---------------------------------|---------------------------------|---------------------------------|
G|---------------------------------|---------------------------------|---------------------------------|
D|---------------------------------|---------------------------------|---------------------------------|
A|-2---2---2---2---2---2---0-------|-2---2---2---2---2---2---2---2---|-2---2---2---2---2---2---2---2---|
E|-----------------------------4---|---------------------------------|---------------------------------|


E|-----------------------------------|-----------------------|---------------------------------|
B|-----------------------------------|-----------------------|---------------------------------|
G|-----------------------------------|-----------------------|---------------------------------|
D|-----------------------------------|-----------4---0---2---|---------------------------------|
A|-----0-----------------------2---2-|-2-----2---------------|-2---2---2---2---2---2---2---2---|
E|-0-------4---0---4----0---0--------|-----------------------|---------------------------------|


E|---------------------------------|-----------------------------------|---------------------------------|
B|---------------------------------|-----------------------------------|---------------------------------|
G|---------------------------------|-----------------------------------|---------------------------------|
D|---------------------------------|-----------------------------------|---------------------------------|
A|-2---2---2---2---2---2---2---2---|-----0-----------------------2---2-|-2---2---2---2---2---2---2---2---|
E|---------------------------------|-0-------4---0---4----0---0--------|---------------------------------|


E|---------------------------------|-----------------------------------|-----------------------------------|
B|---------------------------------|-----------------------------------|-----------------------------------|
G|---------------------------------|-----------------------------------|-----------------------------------|
D|---------------------------------|-----------------------------0--0--|-0---------------------------------|
A|-2---2---2---2---2---2---2---2---|-2---2---2---2---2---2---2---------|----0--0---0---0---0---0---0---0---|
E|---------------------------------|-----------------------------------|-----------------------------------|


E|---------------------------------|---------------------------------|-----------------------------------|
B|---------------------------------|---------------------------------|-----------------------------------|
G|---------------------------------|---------------------------------|-----------------------------------|
D|---------------------------------|---------------------------------|-----------------------------0--0--|
A|---------------------------------|-2---2---2---2---2---2---2---2---|-2---2---2---2---2---2---2---------|
E|-3---3---3---3---3---3---3---3---|---------------------------------|-----------------------------------|


E|-----------------------------------|---------------------------------|---------------------------------|
B|-----------------------------------|---------------------------------|---------------------------------|
G|-----------------------------------|---------------------------------|---------------------------------|
D|-0---------------------------------|---------------------------------|---------------------------------|
A|----0--0---0---0---0---0---0---0---|---------------------------------|-2---2---2---2---2---2---2---2---|
E|-----------------------------------|-3---3---3---3---3---3---3---3---|---------------------------------|


E|---------------------------------|-----------------------------------|-----------------------|
B|---------------------------------|-----------------------------------|-----------------------|
G|---------------------------------|-----------------------------------|-----------------------|
D|---------------------------------|-----------------------------------|-----------4---0---2---|
A|-2---2---2---2---2---2---2---2---|-----0-----------------------2---2-|-2-----2---------------|
E|---------------------------------|-0-------4---0---4----0---0--------|-----------------------|


E|---------------------------------|---------------------------------|-----------------------------------|
B|---------------------------------|---------------------------------|-----------------------------------|
G|---------------------------------|---------------------------------|-----------------------------------|
D|---------------------------------|---------------------------------|-----------------------------------|
A|-2---2---2---2---2---2---2---2---|-2---2---2---2---2---2---2---2---|-----0-----------------------2---2-|
E|---------------------------------|---------------------------------|-0-------4---0---4----0---0--------|


E|---------------------------------|---------------------------------|-----------------------------------|
B|---------------------------------|---------------------------------|-----------------------------------|
G|---------------------------------|---------------------------------|-----------------------------------|
D|---------------------------------|---------------------------------|-----------------------------0--0--|
A|-2---2---2---2---2---2---2---2---|-2---2---2---2---2---2---2---2---|-2---2---2---2---2---2---2---------|
E|---------------------------------|---------------------------------|-----------------------------------|


E|-----------------------------------|---------------------------------|---------------------------------|
B|-----------------------------------|---------------------------------|---------------------------------|
G|-----------------------------------|---------------------------------|---------------------------------|
D|-0---------------------------------|---------------------------------|---------------------------------|
A|----0--0---0---0---0---0---0---0---|---------------------------------|-2---2---2---2---2---2---2---2---|
E|-----------------------------------|-3---3---3---3---3---3---3---3---|---------------------------------|


E|-----------------------------------|-----------------------------------|---------------------------------|
B|-----------------------------------|-----------------------------------|---------------------------------|
G|-----------------------------------|-----------------------------------|---------------------------------|
D|-----------------------------0--0--|-0---------------------------------|---------------------------------|
A|-2---2---2---2---2---2---2---------|----0--0---0---0---0---0---0---0---|---------------------------------|
E|-----------------------------------|-----------------------------------|-3---3---3---3---3---3---3---3---|


E|---------------------------------|---------------------------------|---------------------------------|
B|---------------------------------|---------------------------------|---------------------------------|
G|---------------------------------|---------------------------------|---------------------------------|
D|---------------------------------|---------------------------------|---------------------------------|
A|---------------------------------|---------------------------------|-0---0---0---0---0---0---0---0---|
E|-0---0---0---0---0---0---0---2---|-3---3---3---3---3---3---3---3---|---------------------------------|


E|---------------------------------|-----------------------------------------|---------------------------------|
B|---------------------------------|-----------------------------------------|---------------------------------|
G|---------------------------------|-----------------------------------------|---------------------------------|
D|---------------------------------|-----------------4--4--4--4--4--4--4--4--|---------------------------------|
A|---------------------------------|-----------------------------------------|-2---2---2---2---2---2---2---2---|
E|-2---2---2---2---2---2---2---2---|-2---2---2---2---------------------------|---------------------------------|


E|---------------------------------|-----------------------------------|-----------------------|
B|---------------------------------|-----------------------------------|-----------------------|
G|---------------------------------|-----------------------------------|-----------------------|
D|---------------------------------|-----------------------------------|-----------4---0---2---|
A|-2---2---2---2---2---2---2---2---|-----0-----------------------2---2-|-2-----2---------------|
E|---------------------------------|-0-------4---0---4----0---0--------|-----------------------|


E|---------------------------------|---------------------------------|-----------------------------------|
B|---------------------------------|---------------------------------|-----------------------------------|
G|---------------------------------|---------------------------------|-----------------------------------|
D|---------------------------------|---------------------------------|-----------------------------------|
A|-2---2---2---2---2---2---2---2---|-2---2---2---2---2---2---2---2---|-----0-----------------------2---2-|
E|---------------------------------|---------------------------------|-0-------4---0---4----0---0--------|


E|---------------------------------|---------------------------------|---------------------------------|
B|---------------------------------|---------------------------------|---------------------------------|
G|---------------------------------|---------------------------------|---------------------------------|
D|---------------------------------|---------------------------------|---------------------------------|
A|-2---2---2---2---2---2---2---2---|-2---2---2---2---2---2---2---2---|-2---2---2---2---2---2---2---2---|
E|---------------------------------|---------------------------------|---------------------------------|


E|-----------------------------------|-----------------------|---------------------------------|
B|-----------------------------------|-----------------------|---------------------------------|
G|-----------------------------------|-----------------------|---------------------------------|
D|-----------------------------------|-----------4---0---2---|---------------------------------|
A|-----0-----------------------2---2-|-2-----2---------------|-2---2---2---2---2---2---2---2---|
E|-0-------4---0---4----0---0--------|-----------------------|---------------------------------|


E|---------------------------------|-----------------------------------|---------------------------------|
B|---------------------------------|-----------------------------------|---------------------------------|
G|---------------------------------|-----------------------------------|---------------------------------|
D|---------------------------------|-----------------------------------|---------------------------------|
A|-2---2---2---2---2---2---2---2---|-----0-----------------------2---2-|-2---2---2---2---2---2---2---2---|
E|---------------------------------|-0-------4---0---4----0---0--------|---------------------------------|


E|--------------------------------------------|---------------------------------------|
B|--------------------------------------------|---------------------------------------|
G|--------------------------------------------|---------------------------------------|
D|-------------------------------0-----0--2---|--------------------------2-----2--0---|
A|--------------------------------------------|---------------------------------------|
E|-0-----0---2---3---4--4---------------------|-0-----0---2---3---4-------------------|


E|--------------------------------------------|--------------------------------------------|
B|--------------------------------------------|--------------------------------------------|
G|--------------------------------------------|--------------------------------------------|
D|-------------------------------0-----0--2---|-------------------------------0-----0--2---|
A|--------------------------------------------|--------------------------------------------|
E|-0-----0---2---3---4--4---------------------|-0-----0---2---3---4--4---------------------|


E|--------------------------------------------|---------------------------------------|
B|--------------------------------------------|---------------------------------------|
G|--------------------------------------------|---------------------------------------|
D|-------------------------------0-----0--2---|--------------------------2-----2--0---|
A|--------------------------------------------|---------------------------------------|
E|-0-----0---2---3---4--4---------------------|-0-----0---2---3---4-------------------|


E|--------------------------------------------|--------------------------------------------|
B|--------------------------------------------|--------------------------------------------|
G|--------------------------------------------|--------------------------------------------|
D|-------------------------------0-----0--2---|-------------------------------0-----0--2---|
A|--------------------------------------------|--------------------------------------------|
E|-0-----0---2---3---4--4---------------------|-0-----0---2---3---4--4---------------------|


E|--------------------------------------------|---------------------------------------|
B|--------------------------------------------|---------------------------------------|
G|--------------------------------------------|---------------------------------------|
D|-------------------------------0-----0--2---|--------------------------2-----2--0---|
A|--------------------------------------------|---------------------------------------|
E|-0-----0---2---3---4--4---------------------|-0-----0---2---3---4-------------------|


E|--------------------------------------------|--------------------------------------------|
B|--------------------------------------------|--------------------------------------------|
G|--------------------------------------------|--------------------------------------------|
D|-------------------------------0-----0--2---|-------------------------------0-----0--2---|
A|--------------------------------------------|--------------------------------------------|
E|-0-----0---2---3---4--4---------------------|-0-----0---2---3---4--4---------------------|


E|--------------------------------------------|---------------------------------------|
B|--------------------------------------------|---------------------------------------|
G|--------------------------------------------|---------------------------------------|
D|-------------------------------0-----0--2---|--------------------------2-----2--0---|
A|--------------------------------------------|---------------------------------------|
E|-0-----0---2---3---4--4---------------------|-0-----0---2---3---4-------------------|


E|--------------------------------------------|---------------------------------|---------------------------------|
B|--------------------------------------------|---------------------------------|---------------------------------|
G|--------------------------------------------|---------------------------------|---------------------------------|
D|-------------------------------0-----0--2---|---------------------------------|---------------------------------|
A|--------------------------------------------|---------------------------------|-2---2---2---2---2---2---2---2---|
E|-0-----0---2---3---4--4---------------------|-0---0---0---0---0---0---0---0---|---------------------------------|


E|---------------------------------|-----------------------------------|-----------------------|
B|---------------------------------|-----------------------------------|-----------------------|
G|---------------------------------|-----------------------------------|-----------------------|
D|---------------------------------|-----------------------------------|-----------4---0---2---|
A|-2---2---2---2---2---2---2---2---|-----0-----------------------2---2-|-2-----2---------------|
E|---------------------------------|-0-------4---0---4----0---0--------|-----------------------|


E|---------------------------------|---------------------------------|-----------------------------------|
B|---------------------------------|---------------------------------|-----------------------------------|
G|---------------------------------|---------------------------------|-----------------------------------|
D|---------------------------------|---------------------------------|-----------------------------------|
A|-2---2---2---2---2---2---2---2---|-2---2---2---2---2---2---2---2---|-----0-----------------------2---2-|
E|---------------------------------|---------------------------------|-0-------4---0---4----0---0--------|


E|---------------------------------|---------------------------------|-----------------------------------|
B|---------------------------------|---------------------------------|-----------------------------------|
G|---------------------------------|---------------------------------|-----------------------------------|
D|---------------------------------|---------------------------------|-----------------------------0--0--|
A|-2---2---2---2---2---2---2---2---|-2---2---2---2---2---2---2---2---|-2---2---2---2---2---2---2---------|
E|---------------------------------|---------------------------------|-----------------------------------|


E|-----------------------------------|---------------------------------|---------------------------------|
B|-----------------------------------|---------------------------------|---------------------------------|
G|-----------------------------------|---------------------------------|---------------------------------|
D|-0---------------------------------|---------------------------------|---------------------------------|
A|----0--0---0---0---0---0---0---0---|---------------------------------|-2---2---2---2---2---2---2---2---|
E|-----------------------------------|-3---3---3---3---3---3---3---3---|---------------------------------|


E|-----------------------------------|-----------------------------------|---------------------------------|
B|-----------------------------------|-----------------------------------|---------------------------------|
G|-----------------------------------|-----------------------------------|---------------------------------|
D|-----------------------------0--0--|-0---------------------------------|---------------------------------|
A|-2---2---2---2---2---2---2---------|----0--0---0---0---0---0---0---0---|---------------------------------|
E|-----------------------------------|-----------------------------------|-3---3---3---3---3---3---3---3---|


E|---------------------------------|---------------------------------|-----------------------------------|
B|---------------------------------|---------------------------------|-----------------------------------|
G|---------------------------------|---------------------------------|-----------------------------------|
D|---------------------------------|---------------------------------|-----------------------------------|
A|-2---2---2---2---2---2---2---2---|-2---2---2---2---2---2---2---2---|-----0-----------------------2---2-|
E|---------------------------------|---------------------------------|-0-------4---0---4----0---0--------|


E|-----------------------|---------------------------------|---------------------------------|
B|-----------------------|---------------------------------|---------------------------------|
G|-----------------------|---------------------------------|---------------------------------|
D|-----------4---0---2---|---------------------------------|---------------------------------|
A|-2-----2---------------|-2---2---2---2---2---2---2---2---|-2---2---2---2---2---2---2---2---|
E|-----------------------|---------------------------------|---------------------------------|


E|-----------------------------------|---------------------------------|---------------------------------|
B|-----------------------------------|---------------------------------|---------------------------------|
G|-----------------------------------|---------------------------------|---------------------------------|
D|-----------------------------------|---------------------------------|---------------------------------|
A|-----0-----------------------2---2-|-2---2---2---2---2---2---2---2---|-2---2---2---2---2---2---2---2---|
E|-0-------4---0---4----0---0--------|---------------------------------|---------------------------------|


E|---------------------------------|-----------------------------------|-----------------------|
B|---------------------------------|-----------------------------------|-----------------------|
G|---------------------------------|-----------------------------------|-----------------------|
D|---------------------------------|-----------------------------------|-----------4---0---2---|
A|-2---2---2---2---2---2---2---2---|-----0-----------------------2---2-|-2-----2---------------|
E|---------------------------------|-0-------4---0---4----0---0--------|-----------------------|


E|---------------------------------|---------------------------------|-----------------------------------|
B|---------------------------------|---------------------------------|-----------------------------------|
G|---------------------------------|---------------------------------|-----------------------------------|
D|---------------------------------|---------------------------------|-----------------------------------|
A|-2---2---2---2---2---2---2---2---|-2---2---2---2---2---2---2---2---|-----0-----------------------2---2-|
E|---------------------------------|---------------------------------|-0-------4---0---4----0---0--------|


E|---------------------------------|---------------------------------|---------------------------------|
B|---------------------------------|---------------------------------|---------------------------------|
G|---------------------------------|---------------------------------|---------------------------------|
D|---------------------------------|---------------------------------|---------------------------------|
A|-2---2---2---2---2---2---2---2---|-2---2---2---2---2---2---2---2---|-2---2---2---2---2---2---2---2---|
E|---------------------------------|---------------------------------|---------------------------------|


E|-----------------------------------|---------------------------------|---------------------------------|
B|-----------------------------------|---------------------------------|---------------------------------|
G|-----------------------------------|---------------------------------|---------------------------------|
D|-----------------------------------|---------------------------------|---------------------------------|
A|-----0-----------------------2---2-|-2---2---2---2---2---2---2---2---|-2---2---2---2---2---2---2---2---|
E|-0-------4---0---4----0---0--------|---------------------------------|---------------------------------|


E|---------------------------------|-----------------------------------|---------------------------------|
B|---------------------------------|-----------------------------------|---------------------------------|
G|---------------------------------|-----------------------------------|---------------------------------|
D|---------------------------------|-----------------------------------|---------------------------------|
A|-2---2---2---2---2---2---2---2---|-----0-----------------------2---2-|-2---2---2---2---2---2---2---2---|
E|---------------------------------|-0-------4---0---4----0---0--------|---------------------------------|


E|---------------------------------|---------------------------------|-----------------------------------|
B|---------------------------------|---------------------------------|-----------------------------------|
G|---------------------------------|---------------------------------|-----------------------------------|
D|---------------------------------|---------------------------------|-----------------------------------|
A|-2---2---2---2---2---2---2---2---|-2---2---2---2---2---2---2---2---|-----0-----------------------2---2-|
E|---------------------------------|---------------------------------|-0-------4---0---4----0---0--------|


E|---------------------------------|---------------------------------|---------------------------------|
B|---------------------------------|---------------------------------|---------------------------------|
G|---------------------------------|---------------------------------|---------------------------------|
D|---------------------------------|---------------------------------|---------------------------------|
A|-2---2---2---2---2---2---2---2---|-2---2---2---2---2---2---2---2---|-2---2---2---2---2---2---2---2---|
E|---------------------------------|---------------------------------|---------------------------------|


E|-----------------------------------|---------------------------------|---------------------------------|
B|-----------------------------------|---------------------------------|---------------------------------|
G|-----------------------------------|---------------------------------|---------------------------------|
D|-----------------------------------|---------------------------------|---------------------------------|
A|-----0-----------------------2---2-|-2---2---2---2---2---2---2---2---|-2---2---2---2---2---2---2---2---|
E|-0-------4---0---4----0---0--------|---------------------------------|---------------------------------|


E|---------------------------------|-----------------------------------|-----------------------|
B|---------------------------------|-----------------------------------|-----------------------|
G|---------------------------------|-----------------------------------|-----------------------|
D|---------------------------------|-----------------------------------|-----------4---0---2---|
A|-2---2---2---2---2---2---2---2---|-----0-----------------------2---2-|-2-----2---------------|
E|---------------------------------|-0-------4---0---4----0---0--------|-----------------------|


E|---------------------------------|---------------------------------|-----------------------------------|
B|---------------------------------|---------------------------------|-----------------------------------|
G|---------------------------------|---------------------------------|-----------------------------------|
D|---------------------------------|---------------------------------|-----------------------------------|
A|-2---2---2---2---2---2---2---2---|-2---2---2---2---2---2---2---2---|-----0-----------------------2---2-|
E|---------------------------------|---------------------------------|-0-------4---0---4----0---0--------|


E|----------------|--------|
B|----------------|--------|
G|----------------|--------|
D|----------------|--------|
A|-2---2---2------|--------|
E|----------------|--------|