Menu:

 

Search:

 

joe satriani - power cosmic:

 



Title: Power Cosmic ('88)
Artist: 
Album: Guitar Player 
Author: Joe Satriani


Track 1: Joe Satriani

E|----------------10-------------------------------|----19----------------------------------15-------|
B|-------------8-----8-----------------------------|-17----17----------------------------13----13----|
G|----------5-----------5-----------------------14-|----------14----------------------10----------10-|
D|-------9-----------------9-----------------17----|-------------17----------------14----------------|
A|----7-----------------------7-----7-----15-------|----------------15----15----12-------------------|
E|-5-----------------------------5-----13----------|-------------------13----10----------------------|


E|----------------------------12-------------------|----------------10-------------------------------|
B|-------------------------10----10----------------|-------------8-----8-----------------------------|
G|----------------------7-----------7--------------|----------5-----------5-----------------------14-|
D|-14----------------10----------------10----------|-------9-----------------9-----------------17----|
A|----12----12----8-----------------------8-----8--|----7-----------------------7-----7-----15-------|
E|-------10----6-----------------------------6-----|-5-----------------------------5-----13----------|


E|----19----------------------------------16-------|----------------------------12-------------------|
B|-17----17----------------------------14----14----|-------------------------10----10----------------|
G|----------14----------------------11----------11-|----------------------7-----------7--------------|
D|-------------17----------------14----------------|-14----------------10----------------10----------|
A|----------------15----15----12-------------------|----12----12----8-----------------------8-----8--|
E|-------------------13----10----------------------|-------10----6-----------------------------6-----|


E|----------------12-------------------------------|----21----------------------------------17-------|
B|-------------10----10----------------------------|-19----19----------------------------15----15----|
G|----------7-----------7-----------------------16-|----------16----------------------12----------12-|
D|-------11----------------11----------------19----|-------------19----------------16----------------|
A|----9-----------------------9-----9-----17-------|----------------17----17----14-------------------|
E|-7-----------------------------7-----15----------|-------------------15----12----------------------|


E|----------------------------14-------------------|----------------14-------------------------------|
B|-------------------------12----12----------------|-------------12----12----------------------------|
G|----------------------9-----------9--------------|----------9-----------9-----------------------7--|
D|-16----------------12----------------12----------|-------13----------------13----------------10----|
A|----14----14----10----------------------10----10-|----11----------------------11----11----8--------|
E|-------12----8-----------------------------8-----|-9-----------------------------9-----6-----------|


E|----12----------------------------------10-------|----------------------------10-------------------|
B|-10----10----------------------------8-----8-----|-------------------------8-----8-----------------|
G|----------7-----------------------5-----------5--|----------------------5-----------5--------------|
D|-------------10----------------9-----------------|-9-----------------9-----------------9-----------|
A|----------------8-----8-----7--------------------|----7-----7-----7-----------------------7-----7--|
E|-------------------6-----5-----------------------|-------5-----5-----------------------------5-----|


E|----------------11-------------------------------|----11----------------------------------11-------|
B|-------------9-----9-----------------------------|-9-----9-----------------------------9-----9-----|
G|----------6-----------6-----------------------6--|----------6-----------------------6-----------6--|
D|-------9-----------------9-----------------9-----|-------------9-----------------10----------------|
A|----7-----------------------7-----7-----7--------|----------------7-----7-----8--------------------|
E|-5-----------------------------5-----5-----------|-------------------5-----6-----------------------|


E|----------------------------12-------------------|----------------11-------------------------------|
B|-------------------------10----10----------------|-------------9-----9-----------------------------|
G|----------------------7-----------7--------------|----------6-----------6-----------------------7--|
D|-10----------------11----------------11----------|-------10----------------10----------------11----|
A|----8-----8-----9-----------------------9-----9--|----8-----------------------8-----8-----9--------|
E|-------6-----7-----------------------------7-----|-6-----------------------------6-----7-----------|


E|----12----------------------------------13-------|----------------------------17-------------------|
B|-10----10----------------------------11----11----|-------------------------15----15----------------|
G|----------7-----------------------8-----------8--|----------------------12----------12-------------|
D|-------------11----------------12----------------|-12----------------16----------------16----------|
A|----------------9-----9-----10-------------------|----10----10----14----------------------14----14-|
E|-------------------7-----8-----------------------|-------8-----12----------------------------12----|


E|----------------13-------------------------------|----17----------------------------------18-------|
B|-------------11----11----------------------------|-15----15----------------------------16----16----|
G|----------8-----------8-----------------------12-|----------12----------------------13----------13-|
D|-------12----------------12----------------16----|-------------16----------------17----------------|
A|----10----------------------10----10----14-------|----------------14----14----15-------------------|
E|-8-----------------------------8-----12----------|-------------------12----13----------------------|


E|----------------------------18-------------------|----------------18-------------------------------|
B|-------------------------16----16----------------|-------------16----16----------------------------|
G|----------------------13----------13-------------|----------13----------13----------------------13-|
D|-17----------------17----------------17----------|-------16----------------16----------------16----|
A|----15----15----15----------------------15----15-|----14----------------------14----14----14-------|
E|-------13----13----------------------------13----|-12----------------------------12----12----------|


E|----18----------------------------------16-------|----------------------------16-------------------|
B|-16----16----------------------------14----14----|-------------------------14----14----------------|
G|----------13----------------------11----------11-|----------------------11----------11-------------|
D|-------------16----------------15----------------|-15----------------15----------------15----------|
A|----------------14----14----13-------------------|----13----13----13----------------------13----13-|
E|-------------------12----11----------------------|-------11----11----------------------------11----|


E|----------------16-------------------------------|----16----------------------------------14-------|
B|-------------14----14----------------------------|-14----14----------------------------12----12----|
G|----------11----------11----------------------11-|----------11----------------------9-----------9--|
D|-------14----------------14----------------14----|-------------14----------------13----------------|
A|----12----------------------12----12----12-------|----------------12----12----11-------------------|
E|-10----------------------------10----10----------|-------------------10----9-----------------------|


E|----------------------------14-------------------|----------------14-------------------------------|
B|-------------------------12----12----------------|-------------12----12----------------------------|
G|----------------------9-----------9--------------|----------9-----------9-----------------------9--|
D|-13----------------13----------------13----------|-------12----------------12----------------12----|
A|----11----11----11----------------------11----11-|----10----------------------10----10----10-------|
E|-------9-----9-----------------------------9-----|-8-----------------------------8-----8-----------|


E|----14----------------------------------12-------|----------------------------12-------------------|
B|-12----12----------------------------10----10----|-------------------------10----10----------------|
G|----------9-----------------------7-----------7--|----------------------7-----------7--------------|
D|-------------12----------------11----------------|-11----------------11----------------11----------|
A|----------------10----10----9--------------------|----9-----9-----9-----------------------9-----9--|
E|-------------------8-----7-----------------------|-------7-----7-----------------------------7-----|


E|----------------12-------------------------------|----12----------------------------------12-------|
B|-------------10----10----------------------------|-10----10----------------------------10----10----|
G|----------7-----------7-----------------------7--|----------7-----------------------7-----------7--|
D|-------10----------------10----------------10----|-------------10----------------9-----------------|
A|----8-----------------------8-----8-----8--------|----------------8-----8-----7--------------------|
E|-6-----------------------------6-----6-----------|-------------------6-----5-----------------------|


E|----------------------------11-------------------|----------------10-------------------------------|
B|-------------------------9-----9-----------------|-------------8-----8-----------------------------|
G|----------------------6-----------6--------------|----------5-----------5-----------------------6--|
D|-9-----------------9-----------------9-----------|-------9-----------------9-----------------9-----|
A|----7-----7-----7-----------------------7-----7--|----7-----------------------7-----7-----7--------|
E|-------5-----5-----------------------------5-----|-5-----------------------------5-----5-----------|


E|----11----------------------------------16-------|----------------------------15-------------------|
B|-9-----9-----------------------------15----15----|-------------------------13----13----------------|
G|----------6-----------------------13----------13-|----------------------10----------10-------------|
D|-------------9-----------------15----------------|-15----------------14----------------14----------|
A|----------------7-----7-----14-------------------|----14----14----12----------------------12----12-|
E|-------------------5-----12----------------------|-------12----10----------------------------10----|


E|----------------12-------------------------------|----10-------------------------|
B|-------------10----12----------------------------|-8-----8-----------------------|
G|----------9-----------9-----------------------7--|----------7--------------------|
D|-------12----------------12----------------10----|-------------10----------------|
A|----10----------------------10----10----8--------|----------------8-----8--------|
E|-8-----------------------------8-----6-----------|-------------------6-----5-----|





Track 2: Untitled

G|--------|--------|--------|--------|--------|--------|--------|--------|--------|
D|--------|--------|--------|--------|--------|--------|--------|--------|--------|
A|--------|--------|--------|--------|--------|--------|--------|--------|--------|
E|--------|--------|--------|--------|--------|--------|--------|--------|--------|


G|--------|--------|--------|--------|--------|--------|--------|--------|--------|
D|--------|--------|--------|--------|--------|--------|--------|--------|--------|
A|--------|--------|--------|--------|--------|--------|--------|--------|--------|
E|--------|--------|--------|--------|--------|--------|--------|--------|--------|


G|--------|--------|--------|--------|--------|--------|--------|--------|--------|
D|--------|--------|--------|--------|--------|--------|--------|--------|--------|
A|--------|--------|--------|--------|--------|--------|--------|--------|--------|
E|--------|--------|--------|--------|--------|--------|--------|--------|--------|


G|--------|--------|--------|--------|--------|--------|--------|--------|--------|
D|--------|--------|--------|--------|--------|--------|--------|--------|--------|
A|--------|--------|--------|--------|--------|--------|--------|--------|--------|
E|--------|--------|--------|--------|--------|--------|--------|--------|--------|


G|--------|--------|
D|--------|--------|
A|--------|--------|
E|--------|--------|