Menu:

 

Search:

 

joe satriani - mind storm:

 



Title: Mind Storm
Artist: 
Album: Strange Beautiful Music
Author: Joe


Track 1: Untitled

E|-2----2----2----2----2--2--2---|-2----2----2----2----2--2--2---|-2----2----2----2----2--2--2---|
B|-2----2----2----2----2--3--2---|-2----2----2----2----2--3--2---|-2----2----2----2----2--3--2---|
G|-4----4----4----4----4--4--4---|-2----2----2----2----2--2--2---|-4----4----4----4----4--4--4---|
D|-4----4----4----4----4--4--4---|-4----4----4----4----4--4--4---|-4----4----4----4----4--4--4---|
A|-2----2----2----2----2--2--2---|-5----5----5----5----5--5--5---|-2----2----2----2----2--2--2---|
E|-------------------------------|-------------------------------|-------------------------------|
B|-------------------------------|-------------------------------|-------------------------------|


E|-2------------------|---------------------------------------------|---------------------------------------------|
B|-2------------------|---------------------------------------------|---------------------------------------------|
G|-2------------------|---------------------------------------------|---------------------------------------------|
D|-4------------------|---------------------------------------------|---------------------------------------------|
A|-5------------------|-2------2--------2------2--------4--5--4--0--|-5------5--------5------5--------4--5--4--0--|
E|--------------------|-2---2--2--2--2--2------2--2--2--------------|-5---5--5--5--5--5------5--5--5--------------|
B|--------------15----|-0---0-----0--0--0---0-----0--0--------------|-3---3-----3--3--3---3-----3--3--------------|


E|---------------------------------------------|-----------------------------------------|
B|---------------------------------------------|-----------------------------------------|
G|---------------------------------------------|-----------------------------------------|
D|---------------------------------------------|----------------------9---9--------------|
A|-2------2--------2------2--------4--5--4--0--|---------------7---7---------7-----7-----|
E|-2---2--2--2--2--2------2--2--2--------------|--------5---5-------------------5-----5--|
B|-0---0-----0--0--0---0-----0--0--------------|-3---3-----------------------------------|


E|---------------------------------------------|---------------------------------------------|
B|---------------------------------------------|---------------------------------------------|
G|---------------------------------------------|---------------------------------------------|
D|---------------------------------------------|---------------------------------------------|
A|-2------2--------2------2--------4--5--4--0--|-5------5--------5------5--------4--5--4--0--|
E|-2---2--2--2--2--2------2--2--2--------------|-5---5--5--5--5--5------5--5--5--------------|
B|-0---0-----0--0--0---0-----0--0--------------|-3---3-----3--3--3---3-----3--3--------------|


E|---------------------------------------------|-----------------------------------------|
B|---------------------------------------------|-----------------------------------------|
G|---------------------------------------------|-----------------------------------------|
D|---------------------------------------------|----------------------9---9--------------|
A|-2------2--------2------2--------4--5--4--0--|---------------7---7---------7-----7-----|
E|-2---2--2--2--2--2------2--2--2--------------|--------5---5-------------------5-----5--|
B|-0---0-----0--0--0---0-----0--0--------------|-3---3-----------------------------------|


E|-----------------------------------------|---------------------------------------------|
B|-----------------------------------------|---------------------------------------------|
G|-----------------------------------------|---------------------------------------------|
D|----------------------9---9--------------|---------------------------------------------|
A|---------------7---7---------7-----7-----|-2------2--------2------2--------4--5--4--0--|
E|--------5---5-------------------5-----5--|-2---2--2--2--2--2------2--2--2--------------|
B|-3---3-----------------------------------|-0---0-----0--0--0---0-----0--0--------------|


E|---------------------------------------------|---------------------------------------------|
B|---------------------------------------------|---------------------------------------------|
G|---------------------------------------------|---------------------------------------------|
D|---------------------------------------------|---------------------------------------------|
A|-5------5--------5------5--------4--5--4--0--|-2------2--------2------2--------4--5--4--0--|
E|-5---5--5--5--5--5------5--5--5--------------|-2---2--2--2--2--2------2--2--2--------------|
B|-3---3-----3--3--3---3-----3--3--------------|-0---0-----0--0--0---0-----0--0--------------|


E|---------------------------------------------|---------------------------------------------|
B|---------------------------------------------|---------------------------------------------|
G|---------------------------------------------|---------------------------------------------|
D|---------------------------------------------|---------------------------------------------|
A|-5------5--------5------5--------4--5--4--0--|-2------2--------2------2--------4--5--4--0--|
E|-5---5--5--5--5--5------5--5--5--------------|-2---2--2--2--2--2------2--2--2--------------|
B|-3---3-----3--3--3---3-----3--3--------------|-0---0-----0--0--0---0-----0--0--------------|


E|---------------------------------------------|---------------------------------------------|
B|---------------------------------------------|---------------------------------------------|
G|---------------------------------------------|---------------------------------------------|
D|---------------------------------------------|---------------------------------------------|
A|-5------5--------5------5--------4--5--4--0--|-2------2--------2------2--------4--5--4--0--|
E|-5---5--5--5--5--5------5--5--5--------------|-2---2--2--2--2--2------2--2--2--------------|
B|-3---3-----3--3--3---3-----3--3--------------|-0---0-----0--0--0---0-----0--0--------------|


E|---------------------------------------------|-------------------------------------------------|
B|---------------------------------------------|-5--5--5--5--5--5--7--7--7--7--7--7--8--8--8--8--|
G|---------------------------------------------|-------------------------------------------------|
D|---------------------------------------------|-2--2--2--2--2--2--4--4--4--4--4--4--5--5--5--5--|
A|-5------5--------5------5--------4--5--4--0--|-------------------------------------------------|
E|-5---5--5--5--5--5------5--5--5--------------|-------------------------------------------------|
B|-3---3-----3--3--3---3-----3--3--------------|-------------------------------------------------|


E|-------------------------------------------------|-------------------------------------------------|
B|-8--8--8--8--8--8--10-10-10-10-10-10-12-12-12-12-|-12-12-12-12-12-12-12-12-12-12-12-12-12-12-12-12-|
G|-------------------------------------------------|-------------------------------------------------|
D|-5--5--5--5--5--5--7--7--7--7--7--7--9--9--9--9--|-9--9--9--9--9--9--9--9--9--9--9--9--9--9--9--9--|
A|-------------------------------------------------|-------------------------------------------------|
E|-------------------------------------------------|-------------------------------------------------|
B|-------------------------------------------------|-------------------------------------------------|


E|-------------------------------------------------|-------------------------------------------------|
B|-15-15-15-15-15-15-14-14-14-14-14-14-15-15-15-15-|-12-12-12-12-12-12-14-14-14-14-14-14-15-15-15-15-|
G|-------------------------------------------------|-------------------------------------------------|
D|-12-12-12-12-12-12-11-11-11-11-11-11-12-12-12-12-|-9--9--9--9--9--9--11-11-11-11-11-11-12-12-12-12-|
A|-------------------------------------------------|-------------------------------------------------|
E|-------------------------------------------------|-------------------------------------------------|
B|-------------------------------------------------|-------------------------------------------------|


E|-------------------------------------------------|-------------------------------------------------|
B|-14-14-14-14-14-14-12-12-12-12-12-12-10-10-10-10-|-12-12-12-12-12-12-12-12-12-12-12-12-12-12-12-12-|
G|-------------------------------------------------|-------------------------------------------------|
D|-11-11-11-11-11-11-9--9--9--9--9--9--7--7--7--7--|-9--9--9--9--9--9--9--9--9--9--9--9--9--9--9--9--|
A|-------------------------------------------------|-------------------------------------------------|
E|-------------------------------------------------|-------------------------------------------------|
B|-------------------------------------------------|-------------------------------------------------|


E|-14-14-14-14-14-14-14-14-14-14-14-14-14-14-14-14-|-------------------------------------------------|
B|-------------------------------------------------|-5--5--5--5--5--5--7--7--7--7--7--7--8--8--8--8--|
G|-11-11-11-11-11-11-11-11-11-11-11-11-11-11-11-11-|-------------------------------------------------|
D|-------------------------------------------------|-2--2--2--2--2--2--4--4--4--4--4--4--5--5--5--5--|
A|-------------------------------------------------|-------------------------------------------------|
E|-------------------------------------------------|-------------------------------------------------|
B|-------------------------------------------------|-------------------------------------------------|


E|-------------------------------------------------|-------------------------------------------------|
B|-8--8--8--8--8--8--10-10-10-10-10-10-12-12-12-12-|-12-12-12-12-12-12-12-12-12-12-12-12-12-12-12-12-|
G|-------------------------------------------------|-------------------------------------------------|
D|-5--5--5--5--5--5--7--7--7--7--7--7--9--9--9--9--|-9--9--9--9--9--9--9--9--9--9--9--9--9--9--9--9--|
A|-------------------------------------------------|-------------------------------------------------|
E|-------------------------------------------------|-------------------------------------------------|
B|-------------------------------------------------|-------------------------------------------------|


E|-------------------------------------------------|-------------------------------------------------|
B|-15-15-15-15-15-15-14-14-14-14-14-14-15-15-15-15-|-12-12-12-12-12-12-14-14-14-14-14-14-15-15-15-15-|
G|-------------------------------------------------|-------------------------------------------------|
D|-12-12-12-12-12-12-11-11-11-11-11-11-12-12-12-12-|-9--9--9--9--9--9--11-11-11-11-11-11-12-12-12-12-|
A|-------------------------------------------------|-------------------------------------------------|
E|-------------------------------------------------|-------------------------------------------------|
B|-------------------------------------------------|-------------------------------------------------|


E|-------------------------------------------------|-------------------------------------------------|
B|-14-14-14-14-14-14-14-14-14-14-14-14-14-14-14-14-|-14-14-14-14-14-14-14-14-14-14-14-14-14-14-14-14-|
G|-------------------------------------------------|-------------------------------------------------|
D|-11-11-11-11-11-11-11-11-11-11-11-11-11-11-11-11-|-11-11-11-11-11-11-11-11-11-11-11-11-11-11-11-11-|
A|-------------------------------------------------|-------------------------------------------------|
E|-------------------------------------------------|-------------------------------------------------|
B|-------------------------------------------------|-------------------------------------------------|


E|-------------------------------------------------|-------------------------------------------------|
B|-19-19-19-19-19-19-19-19-19-19-19-19-19-19-19-19-|-19-19-19-19-19-19-19-19-19-19-19-19-19-19-19-19-|
G|-------------------------------------------------|-------------------------------------------------|
D|-16-16-16-16-16-16-16-16-16-16-16-16-16-16-16-16-|-16-16-16-16-16-16-16-16-16-16-16-16-16-16-16-16-|
A|-------------------------------------------------|-------------------------------------------------|
E|-------------------------------------------------|-------------------------------------------------|
B|-------------------------------------------------|-------------------------------------------------|


E|-19-19-19-19-19-19-19-19-19-19-19-19-19-19-19-19-|-17-17-17-17-17-17-17-17-17-17-17-17-17-17-17-17-|
B|-------------------------------------------------|-------------------------------------------------|
G|-16-16-16-16-16-16-16-16-16-16-16-16-16-16-16-16-|-14-14-14-14-14-14-14-14-14-14-14-14-14-14-14-14-|
D|-------------------------------------------------|-------------------------------------------------|
A|-------------------------------------------------|-------------------------------------------------|
E|-------------------------------------------------|-------------------------------------------------|
B|-------------------------------------------------|-------------------------------------------------|


E|-14-14-14-14-14-14-14-14-14-14-14-14-14-14-14-14-|-12-12-12-12-12-12-12-12-12-12-12-12-12-12-12-12-|
B|-------------------------------------------------|-------------------------------------------------|
G|-11-11-11-11-11-11-11-11-11-11-11-11-11-11-11-11-|-9--9--9--9--9--9--9--9--9--9--9--9--9--9--9--9--|
D|-------------------------------------------------|-------------------------------------------------|
A|-------------------------------------------------|-------------------------------------------------|
E|-------------------------------------------------|-------------------------------------------------|
B|-------------------------------------------------|-------------------------------------------------|


E|-14-14-14----14----14----14----14----------------|-14-14-14----14-14-14-14-14----14----------------|
B|-14-14-14-14-14-14-14-14-14-14-14-14-14-15-14-12-|-14-14-14-14-14-14-14-14-14-14-14-14-14-15-14-12-|
G|-11-11-11-11-11-11-11-11-11-11-11-11-------------|-11-11-11-11-11-11-11-11-11-11-11-11-------------|
D|-------------------------------------------------|-------------------------------------------------|
A|-------------------------------------------------|-------------------------------------------------|
E|-------------------------------------------------|-------------------------------------------------|
B|-------------------------------------------------|-------------------------------------------------|


E|-14-14-14----14-14-14-14-14----14----------------|----------------|--------|----------------------------------|
B|-14-14-14-14-14-14-14-14-14-14-14-14-14-15-14-12-|-14-------------|--------|-20----20-20-17-------------------|
G|-11-11-11-11-11-11-11-11-11-11-11-11-------------|-11-------------|--------|----------------19-19-19-17-------|
D|-------------------------------------------------|----------------|--------|----------------------------------|
A|-------------------------------------------------|----------------|--------|----------------------------------|
E|-------------------------------------------------|----------------|--------|----------------------------------|
B|-------------------------------------------------|----------------|--------|----------------------------------|


E|-19---19-17-15--17--17--17---|-17--15--19--15--17--15-17-15-14--15-14-15-14-12-14-12-|
B|-----------------------------|-------------------------------------------------------|
G|-----------------------------|-------------------------------------------------------|
D|-----------------------------|-------------------------------------------------------|
A|-----------------------------|-------------------------------------------------------|
E|-----------------------------|-------------------------------------------------------|
B|-----------------------------|-------------------------------------------------------|


E|-141210-12109--109-7--9-7-5--7-3----5-7-5---5---|-8----5-----5----------------------------------|
B|--------------------------------------------5---|---------8-----8--5----------------------------|
G|------------------------------------------------|---------------------7--7--7--5----------------|
D|------------------------------------------------|---------------------------------7--5----------|
A|------------------------------------------------|---------------------------------------7--7----|
E|------------------------------------------------|-----------------------------------------------|
B|------------------------------------------------|-----------------------------------------------|


E|-----------------------------|-----------------------------------------------------|
B|-----------------------------|--------------------------------7--8--8--7-----7--8--|
G|----1---1--6---6---9----12---|-------------6--7--6--9---7--9--------------9--------|
D|------------------------12---|----5--7--9------------------------------------------|
A|-----------------------------|-----------------------------------------------------|
E|-----------------------------|-----------------------------------------------------|
B|-----------------------------|-----------------------------------------------------|


E|----------10-12-14-15--17----17--|--------|--------|--------|--------|--------|-----------------|
B|-10-12-14------------------------|--------|--------|--------|--------|--------|-----------------|
G|---------------------------------|--------|--------|--------|--------|--------|-----------------|
D|---------------------------------|--------|--------|--------|--------|--------|-----------------|
A|---------------------------------|--------|--------|--------|--------|-16-----|-16----19---15---|
E|---------------------------------|--------|--------|--------|--------|--------|-----------------|
B|---------------------------------|--------|--------|--------|--------|--------|-----------------|


E|--------|-----------------|-------------1621-16---------------------1621-16---------|
B|--------|-----------------|-----------17--------------------------17----------------|
G|--------|-----------------|---------18--------------1813--------18--------------1813|
D|--------|-----------------|-------18------------1618----------18------------1618----|
A|-16-----|-16----14---15---|-16--19----------------------16--19----------------------|
E|--------|-----------------|---------------------------------------------------------|
B|--------|-----------------|---------------------------------------------------------|


E|-------------162116------------141914------------162016--------------|-------------1621-16---------------------1621-16---------|
B|-----------17------17--------16------16--------16------16------------|-----------17--------------------------17----------------|
G|---------18----------18----16----------16----17----------17------1813|---------18--------------1813--------18--------------1813|
D|-------18--------------1816--------------1618--------------181618----|-------18------------1618----------18------------1618----|
A|-16--19--------------------------------------------------------------|-16--19----------------------16--19----------------------|
E|---------------------------------------------------------------------|---------------------------------------------------------|
B|---------------------------------------------------------------------|---------------------------------------------------------|


E|-------------162116------------141914------------1620------|-----20---16-20-21-16-20-16-16-20-21-16-|
B|-----------17------17--------16------16--------16----------|----------------------------------------|
G|---------18----------18----16----------16----17--------16--|----------------------------------------|
D|-------18--------------1816--------------1618----------16--|----------------------------------------|
A|-16--19------------------------------------------------16--|----------------------------------------|
E|-----------------------------------------------------------|----------------------------------------|
B|-----------------------------------------------------------|----------------------------------------|


E|-20-16-16-20-21-16-17----16----------------------|----------------------------------------------9--|
B|----------------------19----17-19-16-17----16----|-------------------------------------------9--9--|
G|----------------------------------------18----17-|-18-14-17-13-14-13-11--13-11-13119-119--11-------|
D|-------------------------------------------------|-------------------------------------------------|
A|-------------------------------------------------|-------------------------------------------------|
E|-------------------------------------------------|-------------------------------------------------|
B|-------------------------------------------------|-------------------------------------------------|


E|----9--9-----9--9------------|-15----17-12-15--15----|----17---17---16----|-----9----9---9---9---9--9--7--5--7--9--|
B|-12-------12-------12--14----|-----------------------|--------------------|----------------------------------------|
G|-----------------------------|-----------------------|--------------------|----------------------------------------|
D|-----------------------------|-----------------------|--------------------|----------------------------------------|
A|-----------------------------|-----------------------|--------------------|----------------------------------------|
E|-----------------------------|-----------------------|--------------------|----------------------------------------|
B|-----------------------------|-----------------------|--------------------|----------------------------------------|


E|-109-7-------------------------------------------------|-------------------------------------------|
B|-------107-8---8----7----------------------------------|-------------------------------------------|
G|-----------------------9--7--6--7--9--7-6--------------|-------------------5---------------5---5---|
D|------------------------------------------9-7-5---7----|-7--5--7--5--7--5------7--5--7--5----------|
A|-------------------------------------------------------|-------------------------------------------|
E|-------------------------------------------------------|-------------------------------------------|
B|-------------------------------------------------------|-------------------------------------------|


E|-----4---5--0--4---5--0--4---5----|----------------10-12-10----10-12-14----------|
B|----------------------------------|-----10---12-14----------14----------10-12-14-|
G|----------------------------------|----------------------------------------------|
D|----------------------------------|----------------------------------------------|
A|----------------------------------|----------------------------------------------|
E|----------------------------------|----------------------------------------------|
B|----------------------------------|----------------------------------------------|


E|-10-12-14----12-14-15----------12-14-15--17--|-2----2----2----2----2--2--2---|-2----2----2----2----2--2--2---|
B|----------15----------12-14-15---------------|-2----2----2----2----2--3--2---|-2----2----2----2----2--3--2---|
G|---------------------------------------------|-4----4----4----4----4--4--4---|-2----2----2----2----2--2--2---|
D|---------------------------------------------|-4----4----4----4----4--4--4---|-4----4----4----4----4--4--4---|
A|---------------------------------------------|-2----2----2----2----2--2--2---|-5----5----5----5----5--5--5---|
E|---------------------------------------------|-------------------------------|-------------------------------|
B|---------------------------------------------|-------------------------------|-------------------------------|


E|-2----2----2----2----2--2--2---|-2------------------|---------------------------------------------|
B|-2----2----2----2----2--3--2---|-2------------------|---------------------------------------------|
G|-4----4----4----4----4--4--4---|-2------------------|---------------------------------------------|
D|-4----4----4----4----4--4--4---|-4------------------|---------------------------------------------|
A|-2----2----2----2----2--2--2---|-5------------------|-2------2--------2------2--------4--5--4--0--|
E|-------------------------------|--------------------|-2---2--2--2--2--2------2--2--2--------------|
B|-------------------------------|--------------15----|-0---0-----0--0--0---0-----0--0--------------|


E|---------------------------------------------|---------------------------------------------|
B|---------------------------------------------|---------------------------------------------|
G|---------------------------------------------|---------------------------------------------|
D|---------------------------------------------|---------------------------------------------|
A|-5------5--------5------5--------4--5--4--0--|-2------2--------2------2--------4--5--4--0--|
E|-5---5--5--5--5--5------5--5--5--------------|-2---2--2--2--2--2------2--2--2--------------|
B|-3---3-----3--3--3---3-----3--3--------------|-0---0-----0--0--0---0-----0--0--------------|


E|---------------------------------------------|---------------------------------------------|
B|---------------------------------------------|---------------------------------------------|
G|---------------------------------------------|---------------------------------------------|
D|---------------------------------------------|---------------------------------------------|
A|-5------5--------5------5--------4--5--4--0--|-2------2--------2------2--------4--5--4--0--|
E|-5---5--5--5--5--5------5--5--5--------------|-2---2--2--2--2--2------2--2--2--------------|
B|-3---3-----3--3--3---3-----3--3--------------|-0---0-----0--0--0---0-----0--0--------------|


E|---------------------------------------------|---------------------------------------------|
B|---------------------------------------------|---------------------------------------------|
G|---------------------------------------------|---------------------------------------------|
D|---------------------------------------------|---------------------------------------------|
A|-5------5--------5------5--------4--5--4--0--|-2------2--------2------2--------4--5--4--0--|
E|-5---5--5--5--5--5------5--5--5--------------|-2---2--2--2--2--2------2--2--2--------------|
B|-3---3-----3--3--3---3-----3--3--------------|-0---0-----0--0--0---0-----0--0--------------|


E|---------------------------------------------|-------------------------------------------------|
B|---------------------------------------------|-5--5--5--5--5--5--7--7--7--7--7--7--8--8--8--8--|
G|---------------------------------------------|-------------------------------------------------|
D|---------------------------------------------|-2--2--2--2--2--2--4--4--4--4--4--4--5--5--5--5--|
A|-5------5--------5------5--------4--5--4--0--|-------------------------------------------------|
E|-5---5--5--5--5--5------5--5--5--------------|-------------------------------------------------|
B|-3---3-----3--3--3---3-----3--3--------------|-------------------------------------------------|


E|-------------------------------------------------|-------------------------------------------------|
B|-8--8--8--8--8--8--10-10-10-10-10-10-12-12-12-12-|-12-12-12-12-12-12-12-12-12-12-12-12-12-12-12-12-|
G|-------------------------------------------------|-------------------------------------------------|
D|-5--5--5--5--5--5--7--7--7--7--7--7--9--9--9--9--|-9--9--9--9--9--9--9--9--9--9--9--9--9--9--9--9--|
A|-------------------------------------------------|-------------------------------------------------|
E|-------------------------------------------------|-------------------------------------------------|
B|-------------------------------------------------|-------------------------------------------------|


E|-------------------------------------------------|-------------------------------------------------|
B|-15-15-15-15-15-15-14-14-14-14-14-14-15-15-15-15-|-12-12-12-12-12-12-14-14-14-14-14-14-15-15-15-15-|
G|-------------------------------------------------|-------------------------------------------------|
D|-12-12-12-12-12-12-11-11-11-11-11-11-12-12-12-12-|-9--9--9--9--9--9--11-11-11-11-11-11-12-12-12-12-|
A|-------------------------------------------------|-------------------------------------------------|
E|-------------------------------------------------|-------------------------------------------------|
B|-------------------------------------------------|-------------------------------------------------|


E|-------------------------------------------------|-------------------------------------------------|
B|-14-14-14-14-14-14-12-12-12-12-12-12-10-10-10-10-|-12-12-12-12-12-12-12-12-12-12-12-12-12-12-12-12-|
G|-------------------------------------------------|-------------------------------------------------|
D|-11-11-11-11-11-11-9--9--9--9--9--9--7--7--7--7--|-9--9--9--9--9--9--9--9--9--9--9--9--9--9--9--9--|
A|-------------------------------------------------|-------------------------------------------------|
E|-------------------------------------------------|-------------------------------------------------|
B|-------------------------------------------------|-------------------------------------------------|


E|-14-14-14-14-14-14-14-14-14-14-14-14-14-14-14-14-|-------------------------------------------------|
B|-------------------------------------------------|-5--5--5--5--5--5--7--7--7--7--7--7--8--8--8--8--|
G|-11-11-11-11-11-11-11-11-11-11-11-11-11-11-11-11-|-------------------------------------------------|
D|-------------------------------------------------|-2--2--2--2--2--2--4--4--4--4--4--4--5--5--5--5--|
A|-------------------------------------------------|-------------------------------------------------|
E|-------------------------------------------------|-------------------------------------------------|
B|-------------------------------------------------|-------------------------------------------------|


E|-------------------------------------------------|-------------------------------------------------|
B|-8--8--8--8--8--8--10-10-10-10-10-10-12-12-12-12-|-12-12-12-12-12-12-12-12-12-12-12-12-12-12-12-12-|
G|-------------------------------------------------|-------------------------------------------------|
D|-5--5--5--5--5--5--7--7--7--7--7--7--9--9--9--9--|-9--9--9--9--9--9--9--9--9--9--9--9--9--9--9--9--|
A|-------------------------------------------------|-------------------------------------------------|
E|-------------------------------------------------|-------------------------------------------------|
B|-------------------------------------------------|-------------------------------------------------|


E|-------------------------------------------------|-------------------------------------------------|
B|-15-15-15-15-15-15-14-14-14-14-14-14-15-15-15-15-|-12-12-12-12-12-12-14-14-14-14-14-14-15-15-15-15-|
G|-------------------------------------------------|-------------------------------------------------|
D|-12-12-12-12-12-12-11-11-11-11-11-11-12-12-12-12-|-9--9--9--9--9--9--11-11-11-11-11-11-12-12-12-12-|
A|-------------------------------------------------|-------------------------------------------------|
E|-------------------------------------------------|-------------------------------------------------|
B|-------------------------------------------------|-------------------------------------------------|


E|-------------------------------------------------|-------------------------------------------------|
B|-14-14-14-14-14-14-14-14-14-14-14-14-14-14-14-14-|-14-14-14-14-14-14-14-14-14-14-14-14-14-14-14-14-|
G|-------------------------------------------------|-------------------------------------------------|
D|-11-11-11-11-11-11-11-11-11-11-11-11-11-11-11-11-|-11-11-11-11-11-11-11-11-11-11-11-11-11-11-11-11-|
A|-------------------------------------------------|-------------------------------------------------|
E|-------------------------------------------------|-------------------------------------------------|
B|-------------------------------------------------|-------------------------------------------------|


E|-------------------------------------------------|-------------------------------------------------|
B|-19-19-19-19-19-19-19-19-19-19-19-19-19-19-19-19-|-19-19-19-19-19-19-19-19-19-19-19-19-19-19-19-19-|
G|-------------------------------------------------|-------------------------------------------------|
D|-16-16-16-16-16-16-16-16-16-16-16-16-16-16-16-16-|-16-16-16-16-16-16-16-16-16-16-16-16-16-16-16-16-|
A|-------------------------------------------------|-------------------------------------------------|
E|-------------------------------------------------|-------------------------------------------------|
B|-------------------------------------------------|-------------------------------------------------|


E|-19-19-19-19-19-19-19-19-19-19-19-19-19-19-19-19-|-17-17-17-17-17-17-17-17-17-17-17-17-17-17-17-17-|
B|-------------------------------------------------|-------------------------------------------------|
G|-16-16-16-16-16-16-16-16-16-16-16-16-16-16-16-16-|-14-14-14-14-14-14-14-14-14-14-14-14-14-14-14-14-|
D|-------------------------------------------------|-------------------------------------------------|
A|-------------------------------------------------|-------------------------------------------------|
E|-------------------------------------------------|-------------------------------------------------|
B|-------------------------------------------------|-------------------------------------------------|


E|-14-14-14-14-14-14-14-14-14-14-14-14-14-14-14-14-|-12-12-12-12-12-12-12-12-12-12-12-12-12-12-12-12-|
B|-------------------------------------------------|-------------------------------------------------|
G|-11-11-11-11-11-11-11-11-11-11-11-11-11-11-11-11-|-9--9--9--9--9--9--9--9--9--9--9--9--9--9--9--9--|
D|-------------------------------------------------|-------------------------------------------------|
A|-------------------------------------------------|-------------------------------------------------|
E|-------------------------------------------------|-------------------------------------------------|
B|-------------------------------------------------|-------------------------------------------------|


E|-14-14-14----14----14----14----14----------------|-14-14-14----14-14-14-14-14----14----------------|
B|-14-14-14-14-14-14-14-14-14-14-14-14-14-15-14-12-|-14-14-14-14-14-14-14-14-14-14-14-14-14-15-14-12-|
G|-11-11-11-11-11-11-11-11-11-11-11-11-------------|-11-11-11-11-11-11-11-11-11-11-11-11-------------|
D|-------------------------------------------------|-------------------------------------------------|
A|-------------------------------------------------|-------------------------------------------------|
E|-------------------------------------------------|-------------------------------------------------|
B|-------------------------------------------------|-------------------------------------------------|


E|-14-14-14----14-14-14-14-14----14----------------|----------------|--------|--------|
B|-14-14-14-14-14-14-14-14-14-14-14-14-14-15-14-12-|-14-------------|--------|--------|
G|-11-11-11-11-11-11-11-11-11-11-11-11-------------|-11-------------|--------|--------|
D|-------------------------------------------------|----------------|--------|--------|
A|-------------------------------------------------|----------------|--------|--------|
E|-------------------------------------------------|----------------|--------|--------|
B|-------------------------------------------------|----------------|--------|--------|


E|--------|-7----9----12---12---14---14-|-14----17---17---19--------|
B|--------|-7----9----12---12---14---14-|-14----17---17---19--------|
G|--------|-4----6----11---11---14---14-|-14----18---18---16--------|
D|--------|-----------------------------|---------------------------|
A|--------|-----------------------------|---------------------------|
E|--------|-----------------------------|---------------------------|
B|--------|-----------------------------|---------------------------|





Track 2: Untitled

E|--------|--------|--------|------9-----9---21---|--------|--------|--------|--------|
B|--------|--------|--------|---------------------|--------|--------|--------|--------|
G|--------|--------|--------|---------------------|--------|--------|--------|--------|
D|--------|--------|--------|---------------------|--------|--------|--------|--------|
A|--------|--------|--------|---------------------|--------|--------|--------|--------|
E|--------|--------|--------|---------------------|--------|--------|--------|--------|
B|--------|--------|--------|---------------------|--------|--------|--------|--------|


E|--------|--------|--------|--------|--------|-------------------------------------|
B|--------|--------|--------|--------|--------|-------------------------------------|
G|--------|--------|--------|--------|--------|-------4--4--6--6--6--6--6--6--6--6--|
D|--------|--------|--------|--------|--------|-------4--4--------6--6--------6--6--|
A|--------|--------|--------|--------|--------|-------------------------------------|
E|--------|--------|--------|--------|--------|-------------------------------------|
B|--------|--------|--------|--------|--------|-------------------------------------|


E|-----------------------|---------------------|----------------|-------------------------------------|
B|-----------------------|---------------------|----------------|-------------------------------------|
G|-6---2---2-------------|-----------------2---|-4----2---------|-------4--4--6--6--6--6--6--6--6--6--|
D|-------------4---4-----|-4-----2----4--------|---------4------|-4-----4--4--------6--6--------6--6--|
A|-----------------------|---------------------|----------------|-------------------------------------|
E|-----------------------|---------------------|----------------|-------------------------------------|
B|-----------------------|---------------------|----------------|-------------------------------------|


E|------------------------|--------------------------------|----------------|-------------------------------------------------|
B|------------------------|--------------------------------|----------------|-8--8--8--8--8--8--10-10-10-10-10-10-12-12-12-12-|
G|-6---9----6----4----6---|-6-----4---6---7---6--7--6--4---|-2---4---4------|-------------------------------------------------|
D|------------------------|--------------------------------|----------------|-5--5--5--5--5--5--7--7--7--7--7--7--9--9--9--9--|
A|------------------------|--------------------------------|----------------|-------------------------------------------------|
E|------------------------|--------------------------------|----------------|-------------------------------------------------|
B|------------------------|--------------------------------|----------------|-------------------------------------------------|


E|-------------------------------------------------|-------------------------------------------------|
B|-12-12-12-12-12-12-14-14-14-14-14-14-15-15-15-15-|-15-15-15-15-15-15-15-15-15-15-15-15-15-15-15-15-|
G|-------------------------------------------------|-------------------------------------------------|
D|-9--9--9--9--9--9--11-11-11-11-11-11-12-12-12-12-|-12-12-12-12-12-12-12-12-12-12-12-12-12-12-12-12-|
A|-------------------------------------------------|-------------------------------------------------|
E|-------------------------------------------------|-------------------------------------------------|
B|-------------------------------------------------|-------------------------------------------------|


E|-------------------------------------------------|-------------------------------------------------|
B|-19-19-19-19-19-19-17-17-17-17-17-17-19-19-19-19-|-15-15-15-15-15-15-17-17-17-17-17-17-19-19-19-19-|
G|-------------------------------------------------|-------------------------------------------------|
D|-16-16-16-16-16-16-14-14-14-14-14-14-16-16-16-16-|-12-12-12-12-12-12-14-14-14-14-14-14-16-16-16-16-|
A|-------------------------------------------------|-------------------------------------------------|
E|-------------------------------------------------|-------------------------------------------------|
B|-------------------------------------------------|-------------------------------------------------|


E|-------------------------------------------------|-------------------------------------------------|
B|-17-17-17-17-17-17-15-15-15-15-15-15-14-14-14-14-|-15-15-15-15-15-15-15-15-15-15-15-15-15-15-15-15-|
G|-------------------------------------------------|-------------------------------------------------|
D|-14-14-14-14-14-14-12-12-12-12-12-12-11-11-11-11-|-12-12-12-12-12-12-12-12-12-12-12-12-12-12-12-12-|
A|-------------------------------------------------|-------------------------------------------------|
E|-------------------------------------------------|-------------------------------------------------|
B|-------------------------------------------------|-------------------------------------------------|


E|-19-19-19-19-19-19-19-19-19-19-19-19-19-19-19-19-|-------------------------------------------------|
B|-------------------------------------------------|-8--8--8--8--8--8--10-10-10-10-10-10-12-12-12-12-|
G|-16-16-16-16-16-16-16-16-16-16-16-16-16-16-16-16-|-------------------------------------------------|
D|-------------------------------------------------|-5--5--5--5--5--5--7--7--7--7--7--7--9--9--9--9--|
A|-------------------------------------------------|-------------------------------------------------|
E|-------------------------------------------------|-------------------------------------------------|
B|-------------------------------------------------|-------------------------------------------------|


E|-------------------------------------------------|-------------------------------------------------|
B|-12-12-12-12-12-12-14-14-14-14-14-14-15-15-15-15-|-15-15-15-15-15-15-15-15-15-15-15-15-15-15-15-15-|
G|-------------------------------------------------|-------------------------------------------------|
D|-9--9--9--9--9--9--11-11-11-11-11-11-12-12-12-12-|-12-12-12-12-12-12-12-12-12-12-12-12-12-12-12-12-|
A|-------------------------------------------------|-------------------------------------------------|
E|-------------------------------------------------|-------------------------------------------------|
B|-------------------------------------------------|-------------------------------------------------|


E|-------------------------------------------------|-------------------------------------------------|
B|-19-19-19-19-19-19-17-17-17-17-17-17-19-19-19-19-|-15-15-15-15-15-15-17-17-17-17-17-17-19-19-19-19-|
G|-------------------------------------------------|-------------------------------------------------|
D|-16-16-16-16-16-16-14-14-14-14-14-14-16-16-16-16-|-12-12-12-12-12-12-14-14-14-14-14-14-16-16-16-16-|
A|-------------------------------------------------|-------------------------------------------------|
E|-------------------------------------------------|-------------------------------------------------|
B|-------------------------------------------------|-------------------------------------------------|


E|-------------------------------------------------|-------------------------------------------------|
B|-17-17-17-17-17-17-17-17-17-17-17-17-17-17-17-17-|-19-19-19-19-19-19-19-19-19-19-19-19-19-19-19-19-|
G|-------------------------------------------------|-------------------------------------------------|
D|-14-14-14-14-14-14-14-14-14-14-14-14-14-14-14-14-|-16-16-16-16-16-16-16-16-16-16-16-16-16-16-16-16-|
A|-------------------------------------------------|-------------------------------------------------|
E|-------------------------------------------------|-------------------------------------------------|
B|-------------------------------------------------|-------------------------------------------------|


E|-18-18-18-18-18-18-18-18-18-18-18-18-18-18-18-18-|-21-21-21-21-21-21-21-21-21-21-21-21-21-21-21-21-|
B|-------------------------------------------------|-------------------------------------------------|
G|-15-15-15-15-15-15-15-15-15-15-15-15-15-15-15-15-|-18-18-18-18-18-18-18-18-18-18-18-18-18-18-18-18-|
D|-------------------------------------------------|-------------------------------------------------|
A|-------------------------------------------------|-------------------------------------------------|
E|-------------------------------------------------|-------------------------------------------------|
B|-------------------------------------------------|-------------------------------------------------|


E|-22-22-22-22-22-22-22-22-22-22-22-22-22-22-22-22-|-21-21-21-21-21-21-21-21-21-21-21-21-21-21-21-21-|
B|-------------------------------------------------|-------------------------------------------------|
G|-19-19-19-19-19-19-19-19-19-19-19-19-19-19-19-19-|-18-18-18-18-18-18-18-18-18-18-18-18-18-18-18-18-|
D|-------------------------------------------------|-------------------------------------------------|
A|-------------------------------------------------|-------------------------------------------------|
E|-------------------------------------------------|-------------------------------------------------|
B|-------------------------------------------------|-------------------------------------------------|


E|-19-19-19-19-19-19-19-19-19-19-19-19-19-19-19-19-|-17-17-17-17-17-17-17-17-17-17-17-17-17-17-17-17-|
B|-------------------------------------------------|-------------------------------------------------|
G|-16-16-16-16-16-16-16-16-16-16-16-16-16-16-16-16-|-14-14-14-14-14-14-14-14-14-14-14-14-14-14-14-14-|
D|-------------------------------------------------|-------------------------------------------------|
A|-------------------------------------------------|-------------------------------------------------|
E|-------------------------------------------------|-------------------------------------------------|
B|-------------------------------------------------|-------------------------------------------------|


E|--------|--------|--------|--------|--------|--------|--------|--------|--------|
B|--------|--------|--------|--------|--------|--------|--------|--------|--------|
G|--------|--------|--------|--------|--------|--------|--------|--------|--------|
D|--------|--------|--------|--------|--------|--------|--------|--------|--------|
A|--------|--------|--------|--------|--------|--------|--------|--------|--------|
E|--------|--------|--------|--------|--------|--------|--------|--------|--------|
B|--------|--------|--------|--------|--------|--------|--------|--------|--------|


E|--------|--------|--------|--------|--------|--------|--------|--------|--------|
B|--------|--------|--------|--------|--------|--------|--------|--------|--------|
G|--------|--------|--------|--------|--------|--------|--------|--------|--------|
D|--------|--------|--------|--------|--------|--------|--------|--------|--------|
A|--------|--------|--------|--------|--------|--------|--------|--------|--------|
E|--------|--------|--------|--------|--------|--------|--------|--------|--------|
B|--------|--------|--------|--------|--------|--------|--------|--------|--------|


E|--------|--------|--------|--------|--------|--------|--------|--------|--------|
B|--------|--------|--------|--------|--------|--------|--------|--------|--------|
G|--------|--------|--------|--------|--------|--------|--------|--------|--------|
D|--------|--------|--------|--------|--------|--------|--------|--------|--------|
A|--------|--------|--------|--------|--------|--------|--------|--------|--------|
E|--------|--------|--------|--------|--------|--------|--------|--------|--------|
B|--------|--------|--------|--------|--------|--------|--------|--------|--------|


E|--------|--------|--------|--------|--------|--------|--------|--------|--------|
B|--------|--------|--------|--------|--------|--------|--------|--------|--------|
G|--------|--------|--------|--------|--------|--------|--------|--------|--------|
D|--------|--------|--------|--------|--------|--------|--------|--------|--------|
A|--------|--------|--------|--------|--------|--------|--------|--------|--------|
E|--------|--------|--------|--------|--------|--------|--------|--------|--------|
B|--------|--------|--------|--------|--------|--------|--------|--------|--------|


E|--------|-17-----|-17-----|-17-----|-----------------|-------------------------------------|
B|--------|--------|--------|--------|-----------------|-------------------------------------|
G|--------|--------|--------|--------|-----------------|-------4--4--6--6--6--6--6--6--6--6--|
D|--------|--------|--------|--------|-----------------|-------4--4--------6--6--------6--6--|
A|--------|--------|--------|--------|-----------------|-------------------------------------|
E|--------|--------|--------|--------|-----------------|-------------------------------------|
B|--------|--------|--------|--------|------19----7----|-------------------------------------|


E|-----------------------|---------------------|----------------|-------------------------------------|
B|-----------------------|---------------------|----------------|-------------------------------------|
G|-6---2---2-------------|-----------------2---|-4----2---------|-------4--4--6--6--6--6--6--6--6--6--|
D|-------------4---4-----|-4-----2----4--------|---------4------|-4-----4--4--------6--6--------6--6--|
A|-----------------------|---------------------|----------------|-------------------------------------|
E|-----------------------|---------------------|----------------|-------------------------------------|
B|-----------------------|---------------------|----------------|-------------------------------------|


E|------------------------|--------------------------------|----------------|-------------------------------------------------|
B|------------------------|--------------------------------|----------------|-8--8--8--8--8--8--10-10-10-10-10-10-12-12-12-12-|
G|-6---9----6----4----6---|-6-----4---6---7---6--7--6--4---|-2---4---4------|-------------------------------------------------|
D|------------------------|--------------------------------|----------------|-5--5--5--5--5--5--7--7--7--7--7--7--9--9--9--9--|
A|------------------------|--------------------------------|----------------|-------------------------------------------------|
E|------------------------|--------------------------------|----------------|-------------------------------------------------|
B|------------------------|--------------------------------|----------------|-------------------------------------------------|


E|-------------------------------------------------|-------------------------------------------------|
B|-12-12-12-12-12-12-14-14-14-14-14-14-15-15-15-15-|-15-15-15-15-15-15-15-15-15-15-15-15-15-15-15-15-|
G|-------------------------------------------------|-------------------------------------------------|
D|-9--9--9--9--9--9--11-11-11-11-11-11-12-12-12-12-|-12-12-12-12-12-12-12-12-12-12-12-12-12-12-12-12-|
A|-------------------------------------------------|-------------------------------------------------|
E|-------------------------------------------------|-------------------------------------------------|
B|-------------------------------------------------|-------------------------------------------------|


E|-------------------------------------------------|-------------------------------------------------|
B|-19-19-19-19-19-19-17-17-17-17-17-17-19-19-19-19-|-15-15-15-15-15-15-17-17-17-17-17-17-19-19-19-19-|
G|-------------------------------------------------|-------------------------------------------------|
D|-16-16-16-16-16-16-14-14-14-14-14-14-16-16-16-16-|-12-12-12-12-12-12-14-14-14-14-14-14-16-16-16-16-|
A|-------------------------------------------------|-------------------------------------------------|
E|-------------------------------------------------|-------------------------------------------------|
B|-------------------------------------------------|-------------------------------------------------|


E|-------------------------------------------------|-------------------------------------------------|
B|-17-17-17-17-17-17-15-15-15-15-15-15-14-14-14-14-|-15-15-15-15-15-15-15-15-15-15-15-15-15-15-15-15-|
G|-------------------------------------------------|-------------------------------------------------|
D|-14-14-14-14-14-14-12-12-12-12-12-12-11-11-11-11-|-12-12-12-12-12-12-12-12-12-12-12-12-12-12-12-12-|
A|-------------------------------------------------|-------------------------------------------------|
E|-------------------------------------------------|-------------------------------------------------|
B|-------------------------------------------------|-------------------------------------------------|


E|-19-19-19-19-19-19-19-19-19-19-19-19-19-19-19-19-|-------------------------------------------------|
B|-------------------------------------------------|-8--8--8--8--8--8--10-10-10-10-10-10-12-12-12-12-|
G|-16-16-16-16-16-16-16-16-16-16-16-16-16-16-16-16-|-------------------------------------------------|
D|-------------------------------------------------|-5--5--5--5--5--5--7--7--7--7--7--7--9--9--9--9--|
A|-------------------------------------------------|-------------------------------------------------|
E|-------------------------------------------------|-------------------------------------------------|
B|-------------------------------------------------|-------------------------------------------------|


E|-------------------------------------------------|-------------------------------------------------|
B|-12-12-12-12-12-12-14-14-14-14-14-14-15-15-15-15-|-15-15-15-15-15-15-15-15-15-15-15-15-15-15-15-15-|
G|-------------------------------------------------|-------------------------------------------------|
D|-9--9--9--9--9--9--11-11-11-11-11-11-12-12-12-12-|-12-12-12-12-12-12-12-12-12-12-12-12-12-12-12-12-|
A|-------------------------------------------------|-------------------------------------------------|
E|-------------------------------------------------|-------------------------------------------------|
B|-------------------------------------------------|-------------------------------------------------|


E|-------------------------------------------------|-------------------------------------------------|
B|-19-19-19-19-19-19-17-17-17-17-17-17-19-19-19-19-|-15-15-15-15-15-15-17-17-17-17-17-17-19-19-19-19-|
G|-------------------------------------------------|-------------------------------------------------|
D|-16-16-16-16-16-16-14-14-14-14-14-14-16-16-16-16-|-12-12-12-12-12-12-14-14-14-14-14-14-16-16-16-16-|
A|-------------------------------------------------|-------------------------------------------------|
E|-------------------------------------------------|-------------------------------------------------|
B|-------------------------------------------------|-------------------------------------------------|


E|-------------------------------------------------|-------------------------------------------------|
B|-17-17-17-17-17-17-17-17-17-17-17-17-17-17-17-17-|-19-19-19-19-19-19-19-19-19-19-19-19-19-19-19-19-|
G|-------------------------------------------------|-------------------------------------------------|
D|-14-14-14-14-14-14-14-14-14-14-14-14-14-14-14-14-|-16-16-16-16-16-16-16-16-16-16-16-16-16-16-16-16-|
A|-------------------------------------------------|-------------------------------------------------|
E|-------------------------------------------------|-------------------------------------------------|
B|-------------------------------------------------|-------------------------------------------------|


E|-18-18-18-18-18-18-18-18-18-18-18-18-18-18-18-18-|-21-21-21-21-21-21-21-21-21-21-21-21-21-21-21-21-|
B|-------------------------------------------------|-------------------------------------------------|
G|-15-15-15-15-15-15-15-15-15-15-15-15-15-15-15-15-|-18-18-18-18-18-18-18-18-18-18-18-18-18-18-18-18-|
D|-------------------------------------------------|-------------------------------------------------|
A|-------------------------------------------------|-------------------------------------------------|
E|-------------------------------------------------|-------------------------------------------------|
B|-------------------------------------------------|-------------------------------------------------|


E|-22-22-22-22-22-22-22-22-22-22-22-22-22-22-22-22-|-21-21-21-21-21-21-21-21-21-21-21-21-21-21-21-21-|
B|-------------------------------------------------|-------------------------------------------------|
G|-19-19-19-19-19-19-19-19-19-19-19-19-19-19-19-19-|-18-18-18-18-18-18-18-18-18-18-18-18-18-18-18-18-|
D|-------------------------------------------------|-------------------------------------------------|
A|-------------------------------------------------|-------------------------------------------------|
E|-------------------------------------------------|-------------------------------------------------|
B|-------------------------------------------------|-------------------------------------------------|


E|-19-19-19-19-19-19-19-19-19-19-19-19-19-19-19-19-|-17-17-17-17-17-17-17-17-17-17-17-17-17-17-17-17-|
B|-------------------------------------------------|-------------------------------------------------|
G|-16-16-16-16-16-16-16-16-16-16-16-16-16-16-16-16-|-14-14-14-14-14-14-14-14-14-14-14-14-14-14-14-14-|
D|-------------------------------------------------|-------------------------------------------------|
A|-------------------------------------------------|-------------------------------------------------|
E|-------------------------------------------------|-------------------------------------------------|
B|-------------------------------------------------|-------------------------------------------------|


E|--------|--------|--------|--------|--------|--------|--------|--------|--------|
B|--------|--------|--------|--------|--------|--------|--------|--------|--------|
G|--------|--------|--------|--------|--------|--------|--------|--------|--------|
D|--------|--------|--------|--------|--------|--------|--------|--------|--------|
A|--------|--------|--------|--------|--------|--------|--------|--------|--------|
E|--------|--------|--------|--------|--------|--------|--------|--------|--------|
B|--------|--------|--------|--------|--------|--------|--------|--------|--------|





Track 3: Pick scrape solo

E|--------|--------|--------|--------|--------|--------|--------|--------|--------|
B|--------|--------|--------|--------|--------|--------|--------|--------|--------|
G|--------|--------|--------|--------|--------|--------|--------|--------|--------|
D|--------|--------|--------|--------|--------|--------|--------|--------|--------|
A|--------|--------|--------|--------|--------|--------|--------|--------|--------|
E|--------|--------|--------|--------|--------|--------|--------|--------|--------|
B|--------|--------|--------|--------|--------|--------|--------|--------|--------|


E|--------|--------|--------|--------|--------|--------|--------|--------|--------|
B|--------|--------|--------|--------|--------|--------|--------|--------|--------|
G|--------|--------|--------|--------|--------|--------|--------|--------|--------|
D|--------|--------|--------|--------|--------|--------|--------|--------|--------|
A|--------|--------|--------|--------|--------|--------|--------|--------|--------|
E|--------|--------|--------|--------|--------|--------|--------|--------|--------|
B|--------|--------|--------|--------|--------|--------|--------|--------|--------|


E|--------|--------|--------|--------|--------|--------|--------|--------|--------|
B|--------|--------|--------|--------|--------|--------|--------|--------|--------|
G|--------|--------|--------|--------|--------|--------|--------|--------|--------|
D|--------|--------|--------|--------|--------|--------|--------|--------|--------|
A|--------|--------|--------|--------|--------|--------|--------|--------|--------|
E|--------|--------|--------|--------|--------|--------|--------|--------|--------|
B|--------|--------|--------|--------|--------|--------|--------|--------|--------|


E|--------|--------|--------|--------|--------|--------|--------|--------|--------|
B|--------|--------|--------|--------|--------|--------|--------|--------|--------|
G|--------|--------|--------|--------|--------|--------|--------|--------|--------|
D|--------|--------|--------|--------|--------|--------|--------|--------|--------|
A|--------|--------|--------|--------|--------|--------|--------|--------|--------|
E|--------|--------|--------|--------|--------|--------|--------|--------|--------|
B|--------|--------|--------|--------|--------|--------|--------|--------|--------|


E|--------|--------|--------|--------|--------|--------|--------|--------|--------|
B|--------|--------|--------|--------|--------|--------|--------|--------|--------|
G|--------|--------|--------|--------|--------|--------|--------|--------|--------|
D|--------|--------|--------|--------|--------|--------|--------|--------|--------|
A|--------|--------|--------|--------|--------|--------|--------|--------|--------|
E|--------|--------|--------|--------|--------|--------|--------|--------|--------|
B|--------|--------|--------|--------|--------|--------|--------|--------|--------|


E|--------|--------|--------|--------|--------|--------|--------|--------|--------|
B|--------|--------|--------|--------|--------|--------|--------|--------|--------|
G|--------|--------|--------|--------|--------|--------|--------|--------|--------|
D|--------|--------|--------|--------|--------|--------|--------|--------|--------|
A|--------|--------|--------|--------|--------|--------|--------|--------|--------|
E|--------|--------|--------|--------|--------|--------|--------|--------|--------|
B|--------|--------|--------|--------|--------|--------|--------|--------|--------|


E|--------|-------19-----------------|---------15--------------------|-------------20----------------------------|
B|--------|-----------15-15-18--21---|---------15--------------------|-------18-19-20------------17-18-19-----21-|
G|--------|-----------15-15-18--21---|----------------8--5--8---7----|-17-18-18-19-20-----16--17-17-18-19-----21-|
D|--------|--------------------------|----------------8--5--8---7----|-17-18--------------16--17-----------------|
A|--------|--------------------------|-------------------------------|-------------------------------------------|
E|--------|--------------------------|-------------------------------|-------------------------------------------|
B|--------|--------------------------|-------------------------------|-------------------------------------------|


E|-------------25---------------------------24-|----18-------------22-24-------------------------|
B|-18-18----22-25--------------------24-----24-|----18----18-17----22-24----19----17-16----------|
G|-18-18----22-25--------------------24--------|----------18-17-------------19----17-16----15----|
D|-----------------23-20-------------24--------|----------------------------------17-16----15----|
A|-----------------23-20-----------------------|-------------------------------------------------|
E|-----------------------19-20-17-17-----------|-------------------------------------------------|
B|-----------------------19-20-17-17-----------|-------------------------------------------------|


E|-28----------------------------------------------|-------------------------------------25----21----|
B|-28----23-21-17----15----------------17----20-24-|-22-24----28----23----------24-------25----21----|
G|-------23-21-17----15-21-------------17----20-24-|-22-24----28----23----20-24----------25----------|
D|-------------17----15-21-------------------20-24-|-22-24----------23----20-24----19----------------|
A|----------------------------------16-------------|----------------------20-24-------22-------------|
E|-------------------------16-16----16-------------|-------------------------------------------------|
B|-------------------------16-16-------------------|-------------------------------------------------|


E|-25----5---21-----------|--------|--------|--------|--------|--------|--------|--------|
B|-25----5---21-----------|--------|--------|--------|--------|--------|--------|--------|
G|-25----5---21---21------|--------|--------|--------|--------|--------|--------|--------|
D|----------------21------|--------|--------|--------|--------|--------|--------|--------|
A|------------------------|--------|--------|--------|--------|--------|--------|--------|
E|------------------------|--------|--------|--------|--------|--------|--------|--------|
B|------------------------|--------|--------|--------|--------|--------|--------|--------|


E|--------|--------|--------|--------|--------|--------|--------|--------|--------|
B|--------|--------|--------|--------|--------|--------|--------|--------|--------|
G|--------|--------|--------|--------|--------|--------|--------|--------|--------|
D|--------|--------|--------|--------|--------|--------|--------|--------|--------|
A|--------|--------|--------|--------|--------|--------|--------|--------|--------|
E|--------|--------|--------|--------|--------|--------|--------|--------|--------|
B|--------|--------|--------|--------|--------|--------|--------|--------|--------|


E|--------|--------|--------|--------|--------|--------|--------|--------|--------|
B|--------|--------|--------|--------|--------|--------|--------|--------|--------|
G|--------|--------|--------|--------|--------|--------|--------|--------|--------|
D|--------|--------|--------|--------|--------|--------|--------|--------|--------|
A|--------|--------|--------|--------|--------|--------|--------|--------|--------|
E|--------|--------|--------|--------|--------|--------|--------|--------|--------|
B|--------|--------|--------|--------|--------|--------|--------|--------|--------|


E|--------|--------|--------|--------|--------|--------|--------|--------|--------|
B|--------|--------|--------|--------|--------|--------|--------|--------|--------|
G|--------|--------|--------|--------|--------|--------|--------|--------|--------|
D|--------|--------|--------|--------|--------|--------|--------|--------|--------|
A|--------|--------|--------|--------|--------|--------|--------|--------|--------|
E|--------|--------|--------|--------|--------|--------|--------|--------|--------|
B|--------|--------|--------|--------|--------|--------|--------|--------|--------|


E|--------|--------|--------|--------|--------|--------|--------|--------|--------|
B|--------|--------|--------|--------|--------|--------|--------|--------|--------|
G|--------|--------|--------|--------|--------|--------|--------|--------|--------|
D|--------|--------|--------|--------|--------|--------|--------|--------|--------|
A|--------|--------|--------|--------|--------|--------|--------|--------|--------|
E|--------|--------|--------|--------|--------|--------|--------|--------|--------|
B|--------|--------|--------|--------|--------|--------|--------|--------|--------|


E|--------|--------|--------|--------|--------|--------|--------|--------|--------|
B|--------|--------|--------|--------|--------|--------|--------|--------|--------|
G|--------|--------|--------|--------|--------|--------|--------|--------|--------|
D|--------|--------|--------|--------|--------|--------|--------|--------|--------|
A|--------|--------|--------|--------|--------|--------|--------|--------|--------|
E|--------|--------|--------|--------|--------|--------|--------|--------|--------|
B|--------|--------|--------|--------|--------|--------|--------|--------|--------|


E|--------|--------|--------|--------|--------|--------|
B|--------|--------|--------|--------|--------|--------|
G|--------|--------|--------|--------|--------|--------|
D|--------|--------|--------|--------|--------|--------|
A|--------|--------|--------|--------|--------|--------|
E|--------|--------|--------|--------|--------|--------|
B|--------|--------|--------|--------|--------|--------|





Track 4: Untitled

G|--------|--------|--------|--------|--------|--------|--------|--------|--------|
D|--------|--------|--------|--------|--------|--------|--------|--------|--------|
A|--------|--------|--------|--------|--------|--------|--------|--------|--------|
E|--------|--------|--------|--------|--------|--------|--------|--------|--------|
B|--------|--------|--------|--------|--------|--------|--------|--------|--------|


G|--------|--------|--------|--------|--------|--------|--------|--------|--------|
D|--------|--------|--------|--------|--------|--------|--------|--------|--------|
A|--------|--------|--------|--------|--------|--------|--------|--------|--------|
E|--------|--------|--------|--------|--------|--------|--------|--------|--------|
B|--------|--------|--------|--------|--------|--------|--------|--------|--------|


G|--------|--------|--------|--------|--------|--------|--------|--------|--------|
D|--------|--------|--------|--------|--------|--------|--------|--------|--------|
A|--------|--------|--------|--------|--------|--------|--------|--------|--------|
E|--------|--------|--------|--------|--------|--------|--------|--------|--------|
B|--------|--------|--------|--------|--------|--------|--------|--------|--------|


G|--------|--------|--------|--------|--------|--------|--------|--------|--------|
D|--------|--------|--------|--------|--------|--------|--------|--------|--------|
A|--------|--------|--------|--------|--------|--------|--------|--------|--------|
E|--------|--------|--------|--------|--------|--------|--------|--------|--------|
B|--------|--------|--------|--------|--------|--------|--------|--------|--------|


G|--------|--------|--------|--------|--------|--------|--------|--------|--------|
D|--------|--------|--------|--------|--------|--------|--------|--------|--------|
A|--------|--------|--------|--------|--------|--------|--------|--------|--------|
E|--------|--------|--------|--------|--------|--------|--------|--------|--------|
B|--------|--------|--------|--------|--------|--------|--------|--------|--------|


G|--------|--------|--------|--------|--------|--------|--------|--------|--------|
D|--------|--------|--------|--------|--------|--------|--------|--------|--------|
A|--------|--------|--------|--------|--------|--------|--------|--------|--------|
E|--------|--------|--------|--------|--------|--------|--------|--------|--------|
B|--------|--------|--------|--------|--------|--------|--------|--------|--------|


G|--------|--------|--------|--------|--------|--------|--------|--------|--------|
D|--------|--------|--------|--------|--------|--------|--------|--------|--------|
A|--------|--------|--------|--------|--------|--------|--------|--------|--------|
E|--------|--------|--------|--------|--------|--------|--------|--------|--------|
B|--------|--------|--------|--------|--------|--------|--------|--------|--------|


G|--------|--------|--------|--------|--------|--------|--------|--------|--------|
D|--------|--------|--------|--------|--------|--------|--------|--------|--------|
A|--------|--------|--------|--------|--------|--------|--------|--------|--------|
E|--------|--------|--------|--------|--------|--------|--------|--------|--------|
B|--------|--------|--------|--------|--------|--------|--------|--------|--------|


G|--------|--------|--------|--------|--------|--------|--------|--------|--------|
D|--------|--------|--------|--------|--------|--------|--------|--------|--------|
A|--------|--------|--------|--------|--------|--------|--------|--------|--------|
E|--------|--------|--------|--------|--------|--------|--------|--------|--------|
B|--------|--------|--------|--------|--------|--------|--------|--------|--------|


G|--------|--------|--------|--------|--------|--------|--------|--------|--------|
D|--------|--------|--------|--------|--------|--------|--------|--------|--------|
A|--------|--------|--------|--------|--------|--------|--------|--------|--------|
E|--------|--------|--------|--------|--------|--------|--------|--------|--------|
B|--------|--------|--------|--------|--------|--------|--------|--------|--------|


G|--------|--------|--------|--------|--------|--------|--------|--------|--------|
D|--------|--------|--------|--------|--------|--------|--------|--------|--------|
A|--------|--------|--------|--------|--------|--------|--------|--------|--------|
E|--------|--------|--------|--------|--------|--------|--------|--------|--------|
B|--------|--------|--------|--------|--------|--------|--------|--------|--------|


G|--------|--------|--------|--------|--------|--------|--------|--------|--------|
D|--------|--------|--------|--------|--------|--------|--------|--------|--------|
A|--------|--------|--------|--------|--------|--------|--------|--------|--------|
E|--------|--------|--------|--------|--------|--------|--------|--------|--------|
B|--------|--------|--------|--------|--------|--------|--------|--------|--------|


G|--------|--------|--------|--------|--------|--------|--------|--------|--------|
D|--------|--------|--------|--------|--------|--------|--------|--------|--------|
A|--------|--------|--------|--------|--------|--------|--------|--------|--------|
E|--------|--------|--------|--------|--------|--------|--------|--------|--------|
B|--------|--------|--------|--------|--------|--------|--------|--------|--------|


G|--------|--------|--------|--------|
D|--------|--------|--------|--------|
A|--------|--------|--------|--------|
E|--------|--------|--------|--------|
B|--------|--------|--------|--------|