Menu:

 

Search:

 

joe satriani - memories:

 



Title: Memories
Artist: 
Album: Not of this World
Author: Joe Satriani


Track 1: Distorted Guitar (L)

E|-----------------------|-----------------------|-----------------------|-----------------------|
B|-----------------------|-----------------------|-----------------------|-----------------------|
G|-------------5---------|-------------2---------|-------------5---------|-------------2---------|
D|---------9-------------|---------5-------------|---------9-------------|---------5-------------|
A|-----7-----------------|-----5-----------------|-----7-----------------|-----5-----------------|
E|-5---------------------|-3---------------------|-5---------------------|-3---------------------|


E|--------|--------|--------|--------|--------|--------|--------|--------|--------|
B|--------|--------|--------|--------|--------|--------|--------|--------|--------|
G|--------|--------|--------|--------|--------|--------|--------|--------|--------|
D|--------|--------|--------|--------|--------|--------|--------|--------|--------|
A|--------|--------|--------|--------|--------|--------|--------|--------|--------|
E|--------|--------|--------|--------|--------|--------|--------|--------|--------|


E|--------|--------|--------|--------|--------|--------|--------|--------|--------|
B|--------|--------|--------|--------|--------|--------|--------|--------|--------|
G|--------|--------|--------|--------|--------|--------|--------|--------|--------|
D|--------|--------|--------|--------|--------|--------|--------|--------|--------|
A|--------|--------|--------|--------|--------|--------|--------|--------|--------|
E|--------|--------|--------|--------|--------|--------|--------|--------|--------|


E|--------|--------|--------|--------|--------|--------|--------|--------|--------|
B|--------|--------|--------|--------|--------|--------|--------|--------|--------|
G|--------|--------|--------|--------|--------|--------|--------|--------|--------|
D|--------|--------|--------|--------|--------|--------|--------|--------|--------|
A|--------|--------|--------|--------|--------|--------|--------|--------|--------|
E|--------|--------|--------|--------|--------|--------|--------|--------|--------|


E|--------|--------|--------|--------------0-----|--------------0-----|--------------------|
B|--------|--------|--------|--------------0-----|--------------0-----|--------------------|
G|--------|--------|--------|--------------9-----|--------------9-----|--------------------|
D|--------|--------|--------|-2---2--------9-----|-2---2--------9-----|--------------------|
A|--------|--------|--------|-2---2--------7-----|-2---2--------7-----|--------------------|
E|--------|--------|--------|-0---0--------0-----|-0---0--------0-----|--------------------|


E|--------|--------|--------|--------|--------|--------|--------|--------|--------|
B|--------|--------|--------|--------|--------|--------|--------|--------|--------|
G|--------|--------|--------|--------|--------|--------|--------|--------|--------|
D|--------|--------|--------|--------|--------|--------|--------|--------|--------|
A|--------|--------|--------|--------|--------|--------|--------|--------|--------|
E|--------|--------|--------|--------|--------|--------|--------|--------|--------|


E|--------|--------|--------|--------|--------|--------|--------|--------|--------|
B|--------|--------|--------|--------|--------|--------|--------|--------|--------|
G|--------|--------|--------|--------|--------|--------|--------|--------|--------|
D|--------|--------|--------|--------|--------|--------|--------|--------|--------|
A|--------|--------|--------|--------|--------|--------|--------|--------|--------|
E|--------|--------|--------|--------|--------|--------|--------|--------|--------|


E|--------|--------|--------|--------|--------|--------|--------|--------|--------|
B|--------|--------|--------|--------|--------|--------|--------|--------|--------|
G|--------|--------|--------|--------|--------|--------|--------|--------|--------|
D|--------|--------|--------|--------|--------|--------|--------|--------|--------|
A|--------|--------|--------|--------|--------|--------|--------|--------|--------|
E|--------|--------|--------|--------|--------|--------|--------|--------|--------|


E|--------|--------|--------|--------|--------|--------|--------|--------|--------|
B|--------|--------|--------|--------|--------|--------|--------|--------|--------|
G|--------|--------|--------|--------|--------|--------|--------|--------|--------|
D|--------|--------|--------|--------|--------|--------|--------|--------|--------|
A|--------|--------|--------|--------|--------|--------|--------|--------|--------|
E|--------|--------|--------|--------|--------|--------|--------|--------|--------|


E|--------|--------------0-----|--------------0-----|--------|--------|--------|--------|
B|--------|--------------0-----|--------------0-----|--------|--------|--------|--------|
G|--------|--------------9-----|--------------9-----|--------|--------|--------|--------|
D|--------|-2---2--------9-----|-2---2--------9-----|--------|--------|--------|--------|
A|--------|-2---2--------7-----|-2---2--------7-----|--------|--------|--------|--------|
E|--------|-0---0--------0-----|-0---0--------0-----|--------|--------|--------|--------|


E|--------|--------|--------|--------|--------|--------|--------|--------|--------|
B|--------|--------|--------|--------|--------|--------|--------|--------|--------|
G|--------|--------|--------|--------|--------|--------|--------|--------|--------|
D|--------|--------|--------|--------|--------|--------|--------|--------|--------|
A|--------|--------|--------|--------|--------|--------|--------|--------|--------|
E|--------|--------|--------|--------|--------|--------|--------|--------|--------|


E|--------|--------|--------|--------|--------|--------|--------|--------|--------|
B|--------|--------|--------|--------|--------|--------|--------|--------|--------|
G|--------|--------|--------|--------|--------|--------|--------|--------|--------|
D|--------|--------|--------|--------|--------|--------|--------|--------|--------|
A|--------|--------|--------|--------|--------|--------|--------|--------|--------|
E|--------|--------|--------|--------|--------|--------|--------|--------|--------|


E|--------|--------|--------|--------|--------|--------|--------|--------|-----------------------|
B|--------|--------|--------|--------|--------|--------|--------|--------|-----------------------|
G|--------|--------|--------|--------|--------|--------|--------|--------|-------------5---------|
D|--------|--------|--------|--------|--------|--------|--------|--------|---------9-------------|
A|--------|--------|--------|--------|--------|--------|--------|--------|-----7-----------------|
E|--------|--------|--------|--------|--------|--------|--------|--------|-5---------------------|


E|-----------------------|-----------------------|-----------------------|-----------------------|
B|-----------------------|-----------------------|-----------------------|-----------------------|
G|-------------2---------|-------------5---------|-------------2---------|-------------5---------|
D|---------5-------------|---------9-------------|---------5-------------|---------9-------------|
A|-----5-----------------|-----7-----------------|-----5-----------------|-----7-----------------|
E|-3---------------------|-5---------------------|-3---------------------|-5---------------------|


E|-----------------------|-----------------------|-----------------------|-----------------------|
B|-----------------------|-----------------------|-----------------------|-----------------------|
G|-------------2---------|-------------5---------|-------------2---------|-------------5---------|
D|---------5-------------|---------9-------------|---------5-------------|---------9-------------|
A|-----5-----------------|-----7-----------------|-----5-----------------|-----7-----------------|
E|-3---------------------|-5---------------------|-3---------------------|-5---------------------|


E|-----------------------|-----------------------|-----------------------|-----------------------|
B|-----------------------|-----------------------|-----------------------|-----------------------|
G|-------------2---------|-------------5---------|-------------2---------|-------------5---------|
D|---------5-------------|---------9-------------|---------5-------------|---------9-------------|
A|-----5-----------------|-----7-----------------|-----5-----------------|-----7-----------------|
E|-3---------------------|-5---------------------|-3---------------------|-5---------------------|


E|-----------------------|-----------------------|-----------------------|-----------------------|
B|-----------------------|-----------------------|-----------------------|-----------------------|
G|-------------2---------|-------------5---------|-------------2---------|-------------5---------|
D|---------5-------------|---------9-------------|---------5-------------|---------9-------------|
A|-----5-----------------|-----7-----------------|-----5-----------------|-----7-----------------|
E|-3---------------------|-5---------------------|-3---------------------|-5---------------------|


E|-----------------------|-----------------------|-----------------------|-----------------------|
B|-----------------------|-----------------------|-----------------------|-----------------------|
G|-------------2---------|-------------5---------|-------------2---------|-------------5---------|
D|---------5-------------|---------9-------------|---------5-------------|---------9-------------|
A|-----5-----------------|-----7-----------------|-----5-----------------|-----7-----------------|
E|-3---------------------|-5---------------------|-3---------------------|-5---------------------|


E|-----------------------|-----------------------|
B|-----------------------|-----------------------|
G|-------------2---------|-------------5---------|
D|---------5-------------|---------9-------------|
A|-----5-----------------|-----7-----------------|
E|-3---------------------|-5---------------------|





Track 2: Lead Guitar

E|--------|--------|--------|--------|----------12--12-----------|-------10---12-10---|
B|--------|--------|--------|--------|-------------------13------|--------------------|
G|--------|--------|--------|--------|---------------------------|--------------------|
D|--------|--------|--------|--------|---------------------------|--------------------|
A|--------|--------|--------|--------|---------------------------|--------------------|
E|--------|--------|--------|--------|---------------------------|--------------------|


E|-10-----------------------------|------------------------|-------------12--12-----------|
B|-------------10--13---12---10---|-8----------------------|----------------------13------|
G|--------------------------------|------9----7----9--7----|-7----------------------------|
D|--------------------------------|------------------------|------------------------------|
A|--------------------------------|------------------------|------------------------------|
E|--------------------------------|------------------------|------------------------------|


E|----------15--15----|-----------------------------|------------------------|--------------------------|
B|--------------------|----------10--13---12---10---|-8--------10--10--------|----------------8-----10--|
G|--------------------|-----------------------------|------9-----------------|-7----9----10-------------|
D|--------------------|-----------------------------|------------------------|--------------------------|
A|--------------------|-----------------------------|------------------------|--------------------------|
E|--------------------|-----------------------------|------------------------|--------------------------|


E|-----------------|---------------------------|--------------------------------|-------------------------------|
B|------10---------|-----11--10--8---8---------|-10---8-------------------------|-------------------------------|
G|-----------------|---------------------------|--------------10------9--10-9---|-7----9----10---12---10---9----|
D|-8---------------|---------------------------|--------------------------------|-------------------------------|
A|-----------------|---------------------------|--------------------------------|-------------------------------|
E|-----------------|---------------------------|--------------------------------|-------------------------------|


E|-----------------|-------------------------------|-----------------------------|
B|-----------------|-------------------------------|-----------------------------|
G|-7-----7---------|-5----7----9----10---9----5----|-5----5--7---7--9--7---------|
D|-----------------|-------------------------------|-----------------------------|
A|-----------------|-------------------------------|-----------------------------|
E|-----------------|-------------------------------|-----------------------------|


E|--------------------------|--------------------8---|-8----------------------|-----------------------------|
B|----------------8-----10--|------10----------------|------10--8---8---------|-10---8----------------------|
G|-7----9----10-------------|------------------------|------------------------|--------------10---9--10-9---|
D|--------------------------|-8----------------------|------------------------|-----------------------------|
A|--------------------------|------------------------|------------------------|-----------------------------|
E|--------------------------|------------------------|------------------------|-----------------------------|


E|-------------------------------|------------------------|--------------------------|
B|-------------------------------|------------------------|--------------------------|
G|-7----9----10---12---10---9----|-7----7----7------------|-5----7----9----10---12---|
D|-------------------------------|------------------------|--------------------------|
A|-------------------------------|------------------------|--------------------------|
E|-------------------------------|------------------------|--------------------------|


E|-----------------|--------|--------|--------|--------|--------|--------|--------|
B|-----------------|--------|--------|--------|--------|--------|--------|--------|
G|-5-----5---------|--------|--------|--------|--------|--------|--------|--------|
D|-----------------|--------|--------|--------|--------|--------|--------|--------|
A|-----------------|--------|--------|--------|--------|--------|--------|--------|
E|-----------------|--------|--------|--------|--------|--------|--------|--------|


E|--------|-------17--17--10-------|-15---15-8-------13---6-------12-|-5-------------------------|
B|--------|------------------------|---------------------------------|---------------------------|
G|--------|------------------------|---------------------------------|--------------7----7---7---|
D|--------|------------------------|---------------------------------|---------------------------|
A|--------|------------------------|---------------------------------|---------------------------|
E|--------|------------------------|---------------------------------|---------------------------|


E|------------------------------------|----------17--17--10-------|-15---8------13--13---6------12-5--|
B|------------------------------------|---------------------------|-----------------------------------|
G|-7---5------------------------------|---------------------------|-----------------------------------|
D|--------7--5------------------------|---------------------------|-----------------------------------|
A|--------------7---------------------|---------------------------|-----------------------------------|
E|-----------------8--8--8---8--------|---------------------------|-----------------------------------|


E|-5----------------------------|-------------------------------|-------------------------------------------------------------------------|
B|------------------------------|-------------------------------|-------------------------------------------------------------------------|
G|------------------------------|-------------------------------|-------------------------------------------------------2--4--5--4--2-----|
D|------------------------------|-------------------------------|-------------------2--3--5--3--2--------------2--3--5-----------------5--|
A|----------------------3---5---|-3---3--3----------------------|----------2--3--5-----------------5--2--3--5-----------------------------|
E|----------3---3---5-----------|-----------5---3--3--3---------|-1--3--5-----------------------------------------------------------------|


E|-------------------------------------------------------------------------|------------------------------------------------------------------|
B|-------------------------------------------------------------------------|-----------------------------------------5--6--8--6-5-8-5-6-8-6-5-|
G|-------------------------------------------------------4--5--7--5--4--7--|-4--5--7--5-4-5-7-5--4--5-7-5-4-5--7--8---------------------------|
D|-------------------3--5--7--3--5--------------3--5--7--------------------|------------------------------------------------------------------|
A|----------3--5--7-----------------5--3--5--7-----------------------------|------------------------------------------------------------------|
E|-3--5--7-----------------------------------------------------------------|------------------------------------------------------------------|


E|-------------5--7--8--7--5----------------------------------|-8---10-12108---8--10-12-10-8-----8--10-12-10-8-----------------------|
B|-8--5--6--8-----------------8--5--6--6-------------------12-|--------------12---------------12----------------12-8--10-12-8--10-12-|
G|-----------------------------------------9-8-7---7--7-------|----------------------------------------------------------------------|
D|------------------------------------------------------------|----------------------------------------------------------------------|
A|------------------------------------------------------------|----------------------------------------------------------------------|
E|------------------------------------------------------------|----------------------------------------------------------------------|


E|---------------------------------------------------------|-11-121512-11-15-11-12-15-12-11-15-11-12-15-12-11-15-11-12-15-12-11----|
B|-10-8----------------------------------------------------|-----------------------------------------------------------------------|
G|-------12-10-12-9--10-12-10-9--------------9--10-12-10---|-----------------------------------------------------------------------|
D|-------------------------------12-9--10-12---------------|-----------------------------------------------------------------------|
A|---------------------------------------------------------|-----------------------------------------------------------------------|
E|---------------------------------------------------------|-----------------------------------------------------------------------|


E|-------------------------12--13--15--17--|-20---20---20-17----------------------|
B|-------12-13----12-13-15-----------------|-----------------18-------------------|
G|-12-14-------14--------------------------|--------------------19-17-14----------|
D|-----------------------------------------|-----------------------------15-------|
A|-----------------------------------------|--------------------------------17-15-|
E|-----------------------------------------|--------------------------------------|


E|---------------------12---12---12-|-10------10--------------------------------------|
B|----------------------------------|-----13------10--13------10--------------13------|
G|----------------------------------|---------------------12------13--12--10------12--|
D|----17----------------------------|-------------------------------------------------|
A|-13----13-12-13---13--------------|-------------------------------------------------|
E|----------------------------------|-------------------------------------------------|


E|----------------------------------------|-------------------------------------------|
B|-10--------------13---------------------|-18-18-18----------------------------------|
G|-----13--12--10------12--10---10-14-----|-----------17-17-17------------------------|
D|----------------------------------------|---------------------12-121210--10-10107---|
A|----------------------------------------|-------------------------------------------|
E|----------------------------------------|-------------------------------------------|


E|-------------------------------------|-------------------------------------------------|
B|-------------------------------------|-------------------------------------5---6---5---|
G|-7--7-7-5----------------------------|-------------------------3---5---7---------------|
D|------------5--5--5---5--5--5---3----|-------------3---5---7---------------------------|
A|-------------------------------------|-3---5---7---------------------------------------|
E|-------------------------------------|-------------------------------------------------|


E|-----------------------------|-----10------8-----------------------------------|
B|-3--5----5---5--3------------|---------------------11------10------8-------10--|
G|-------------------5----17---|-7-------7-------7-------7-------7-------7-------|
D|-----------------------------|-------------------------------------------------|
A|-----------------------------|-------------------------------------------------|
E|-----------------------------|-------------------------------------------------|


E|-----10------10------10------10------10------10--|-13----13--13--10--12------|-10------------------------------|
B|-13------11------10------11------13------11------|-----------------------13--|-----10--13----------------------|
G|-------------------------------------------------|---------------------------|-------------10-10-10--10---10---|
D|-------------------------------------------------|---------------------------|---------------------------------|
A|-------------------------------------------------|---------------------------|---------------------------------|
E|-------------------------------------------------|---------------------------|---------------------------------|


E|-----20-------17---------------------|-----------------------17-------15---|-18-20-18-17-18-17-18-17-15-17-15-17-15-13-15-13-15-13-12----|
B|---20-------17---------17-------15---|--------------18-----17-------15-----|----------------------------------------------------------13-|
G|-20-------17---------17-------15-----|-----15-----18-----17-------15-------|-------------------------------------------------------------|
D|-------------------17-------15-------|---15-----18-------------------------|-------------------------------------------------------------|
A|-------------------------------------|-15----------------------------------|-------------------------------------------------------------|
E|-------------------------------------|-------------------------------------|-------------------------------------------------------------|


E|-----------------------------------|--------|--------|--------|--------|--------|
B|-----------------------------------|--------|--------|--------|--------|--------|
G|-14-12-9---------------------------|--------|--------|--------|--------|--------|
D|----------10-------------10----10--|--------|--------|--------|--------|--------|
A|-------------12-10-8--7------------|--------|--------|--------|--------|--------|
E|-----------------------------------|--------|--------|--------|--------|--------|


E|--------|--------|--------|----------12--12-----------|-------10---12-10---|-10-----------------------------|
B|--------|--------|--------|-------------------13------|--------------------|-------------10--13---12---10---|
G|--------|--------|--------|---------------------------|--------------------|--------------------------------|
D|--------|--------|--------|---------------------------|--------------------|--------------------------------|
A|--------|--------|--------|---------------------------|--------------------|--------------------------------|
E|--------|--------|--------|---------------------------|--------------------|--------------------------------|


E|------------------------|-------------12--12-----------|----------15--15----|-----------------------------|
B|-8----------------------|----------------------13------|--------------------|----------10--13---12---10---|
G|------9----7----9--7----|-7----------------------------|--------------------|-----------------------------|
D|------------------------|------------------------------|--------------------|-----------------------------|
A|------------------------|------------------------------|--------------------|-----------------------------|
E|------------------------|------------------------------|--------------------|-----------------------------|


E|------------------------|--------------------------|-----------------|---------------------------|
B|-8--------10--10--------|----------------8-----10--|------10---------|-----11--10--8---8---------|
G|------9-----------------|-7----9----10-------------|-----------------|---------------------------|
D|------------------------|--------------------------|-8---------------|---------------------------|
A|------------------------|--------------------------|-----------------|---------------------------|
E|------------------------|--------------------------|-----------------|---------------------------|


E|--------------------------------|-------------------------------|-----------------|
B|-10---8-------------------------|-------------------------------|-----------------|
G|--------------10------9--10-9---|-7----9----10---12---10---9----|-7-----7---------|
D|--------------------------------|-------------------------------|-----------------|
A|--------------------------------|-------------------------------|-----------------|
E|--------------------------------|-------------------------------|-----------------|


E|-------------------------------|-----------------------------|--------------------------|
B|-------------------------------|-----------------------------|----------------8-----10--|
G|-5----7----9----10---9----5----|-5----5--7---7--9--7---------|-7----9----10-------------|
D|-------------------------------|-----------------------------|--------------------------|
A|-------------------------------|-----------------------------|--------------------------|
E|-------------------------------|-----------------------------|--------------------------|


E|--------------------8---|-8----------------------|-----------------------------|
B|------10----------------|------10--8---8---------|-10---8----------------------|
G|------------------------|------------------------|--------------10---9--10-9---|
D|-8----------------------|------------------------|-----------------------------|
A|------------------------|------------------------|-----------------------------|
E|------------------------|------------------------|-----------------------------|


E|-------------------------------|------------------------|--------------------------|
B|-------------------------------|------------------------|--------------------------|
G|-7----9----10---12---10---9----|-7----7----7------------|-5----7----9----10---12---|
D|-------------------------------|------------------------|--------------------------|
A|-------------------------------|------------------------|--------------------------|
E|-------------------------------|------------------------|--------------------------|


E|-----------------|--------|--------|--------|--------|--------|--------|--------|
B|-----------------|--------|--------|--------|--------|--------|--------|--------|
G|-5-----5---------|--------|--------|--------|--------|--------|--------|--------|
D|-----------------|--------|--------|--------|--------|--------|--------|--------|
A|-----------------|--------|--------|--------|--------|--------|--------|--------|
E|-----------------|--------|--------|--------|--------|--------|--------|--------|


E|--------|--------|--------|----------23---23---|-23----------------23---23---|-23---23----23--------|
B|--------|--------|--------|--------------------|-----------------------------|----------------------|
G|--------|--------|--------|--------------------|-----------------------------|----------------------|
D|--------|--------|--------|--------------------|-----------------------------|----------------------|
A|--------|--------|--------|--------------------|-----------------------------|----------------------|
E|--------|--------|--------|--------------------|-----------------------------|----------------------|


E|----------19--19---19-17--19--|-----17----------------------|--------|-------------------15----------|
B|------------------------------|-17-----20-20---20---20------|--------|-----17----17---17-----17--16--|
G|------------------------------|-----------------------------|--------|-------------------------------|
D|------------------------------|-----------------------------|--------|-------------------------------|
A|------------------------------|-----------------------------|--------|-------------------------------|
E|------------------------------|-----------------------------|--------|-------------------------------|


E|-------------15---------------------------|--------------------|------------------------------|
B|-15--17----------17--16--15---------------|--------------------|------------------------------|
G|-----------------------------17--14--14---|-14--14-------------|-12---16-14---16-12---16-14---|
D|------------------------------------------|--------------------|------------------------------|
A|------------------------------------------|--------------------|------------------------------|
E|------------------------------------------|--------------------|------------------------------|


E|--------------------|------------------------------|---------------------|------------------7---7--7--7--7--|
B|--------------------|------------------------------|---------------------|----------------------------------|
G|-14---17--17--------|------12---16-9----16-7----16-|-5-------------------|----------------------------------|
D|--------------------|------------------------------|------5--------------|----------------------------------|
A|--------------------|------------------------------|-----------3----3----|-3--------------------------------|
E|--------------------|------------------------------|---------------------|----------------------------------|


E|-5--8--5--7--8--7--5-------------------------------------------|------------------------------|
B|----------------------8--5--6-8-6-5----------------------------|-----5------------------------|
G|------------------------------------7--5--7--8-7-5-4-5--5---5--|-5------------7---7---7---7---|
D|---------------------------------------------------------------|------------------------------|
A|---------------------------------------------------------------|------------------------------|
E|---------------------------------------------------------------|------------------------------|


E|------------------------------------------|-----------------------------------------------------|
B|------------------------------------------|-----------------------------------------------------|
G|-5---7---7---7---7---7---5----------------|----------------------------------------------2------|
D|----------------------------7--7--7--7----|-7--2--------------------2--3--5--3--2--3--5---------|
A|------------------------------------------|----------------2--3--5------------------------------|
E|------------------------------------------|-----------------------------------------------------|


E|----------------------------------------------|
B|----------------------------------------------|
G|-----------2-4--5--4------4--5--7--5--4-------|
D|-----2-3-5------------------------------------|
A|----------------------------------------------|
E|----------------------------------------------|





Track 3: Clean Guitar

E|--------|--------|--------|--------|-12---12-----8---8-----|-10---10-----8---8-----|
B|--------|--------|--------|--------|-12---12-----8---8-----|-10---12-----8---8-----|
G|--------|--------|--------|--------|-14---14-----10--10----|-12---12-----10--10----|
D|--------|--------|--------|--------|-----------------------|-----------------------|
A|--------|--------|--------|--------|-----------------------|-----------------------|
E|--------|--------|--------|--------|-----------------------|-----------------------|


E|-12---12-----8---8-----|-10---10-----8---8-----|-12---12-----8---8-----|-10---10-----8---8-----|
B|-12---12-----8---8-----|-10---12-----8---8-----|-12---12-----8---8-----|-10---12-----8---8-----|
G|-14---14-----10--10----|-12---12-----10--10----|-14---14-----10--10----|-12---12-----10--10----|
D|-----------------------|-----------------------|-----------------------|-----------------------|
A|-----------------------|-----------------------|-----------------------|-----------------------|
E|-----------------------|-----------------------|-----------------------|-----------------------|


E|-12---12-----8---8-----|-10---10-----8---8-----|-----5-------5-------5-------5---|
B|-12---12-----8---8-----|-10---12-----8---8-----|-----5-------5-------5-------5---|
G|-14---14-----10--10----|-12---12-----10--10----|-----7-------7-------7-------7---|
D|-----------------------|-----------------------|-----7-------7-------7-------7---|
A|-----------------------|-----------------------|-----5-------5-------5-------5---|
E|-----------------------|-----------------------|---------------------------------|


E|-----1-------1-------1-------1---|-----3-------3-------3-------3---|-----5-------5-------5-------5---|
B|-----1-------1-------1-------1---|-----3-------3-------3-------3---|-----5-------5-------5-------5---|
G|-----3-------3-------3-------3---|-----5-------5-------5-------5---|-----7-------7-------7-------7---|
D|-----3-------3-------3-------3---|-----5-------5-------5-------5---|-----7-------7-------7-------7---|
A|---------------------------------|---------------------------------|-----5-------5-------5-------5---|
E|-----3-------3-------3-------3---|-----5-------5-------5-------5---|---------------------------------|


E|-----5-------5-------5-------5---|-----1-------1-------1-------1---|-----3-------3-------3-------3---|
B|-----5-------5-------5-------5---|-----1-------1-------1-------1---|-----3-------3-------3-------3---|
G|-----7-------7-------7-------7---|-----3-------3-------3-------3---|-----5-------5-------5-------5---|
D|-----7-------7-------7-------7---|-----3-------3-------3-------3---|-----5-------5-------5-------5---|
A|---------------------------------|---------------------------------|-----3-------3-------3-------3---|
E|-----6-------6-------6-------6---|-----3-------3-------3-------3---|---------------------------------|


E|-----3-------3-------3-------3---|-----5-------5-------5-------5---|-----1-------1-------1-------1---|
B|-----3-------3-------3-------3---|-----5-------5-------5-------5---|-----1-------1-------1-------1---|
G|-----5-------5-------5-------5---|-----7-------7-------7-------7---|-----3-------3-------3-------3---|
D|-----5-------5-------5-------5---|-----7-------7-------7-------7---|-----3-------3-------3-------3---|
A|---------------------------------|-----5-------5-------5-------5---|---------------------------------|
E|-----5-------5-------5-------5---|---------------------------------|-----3-------3-------3-------3---|


E|-----3-------3-------3-------3---|-----5-------5-------5-------5---|-----5-------5-------5-------5---|
B|-----3-------3-------3-------3---|-----5-------5-------5-------5---|-----5-------5-------5-------5---|
G|-----5-------5-------5-------5---|-----7-------7-------7-------7---|-----7-------7-------7-------7---|
D|-----5-------5-------5-------5---|-----7-------7-------7-------7---|-----7-------7-------7-------7---|
A|---------------------------------|-----5-------5-------5-------5---|---------------------------------|
E|-----5-------5-------5-------5---|---------------------------------|-----6-------6-------6-------6---|


E|-----1-------1-------1-------1---|-----3-------3-------3-------3---|-----3-------3-------3-------3---|
B|-----1-------1-------1-------1---|-----3-------3-------3-------3---|-----3-------3-------3-------3---|
G|-----3-------3-------3-------3---|-----5-------5-------5-------5---|-----5-------5-------5-------5---|
D|-----3-------3-------3-------3---|-----5-------5-------5-------5---|-----5-------5-------5-------5---|
A|---------------------------------|-----3-------3-------3-------3---|---------------------------------|
E|-----3-------3-------3-------3---|---------------------------------|-----5-------5-------5-------5---|


E|-------------------------------|--------------------------|-10---10---8----8--------------|
B|-------------------------------|--------------------------|-13---13---12---12---10---10---|
G|-------------------------------|--------------------------|---------------------10---10---|
D|-9----10---13---14---13---10---|-9----7----9----10--------|-------------------------------|
A|-7----8----11---12---11---8----|-7----5----7----8---------|-------------------------------|
E|-------------------------------|--------------------------|-------------------------------|


E|-------------------------------|-------------------------------|----------------------|
B|-9----9------------------------|-------------------------------|----------------------|
G|-9----9----10---10---9----9----|-------------------------------|----------------------|
D|-----------10---10---9----9----|-9----10---13---14---16---18---|-19---18---16---15----|
A|-------------------------------|-7----8----11---12---14---16---|-17---16---14---13----|
E|-------------------------------|-------------------------------|----------------------|


E|--------|--------|-12---12---------------|--------|--------|--------|--------|--------|
B|--------|--------|-12---12---------------|--------|--------|--------|--------|--------|
G|--------|--------|-14---14---------------|--------|--------|--------|--------|--------|
D|--------|--------|-----------------------|--------|--------|--------|--------|--------|
A|--------|--------|-----------------------|--------|--------|--------|--------|--------|
E|--------|--------|-----------------------|--------|--------|--------|--------|--------|


E|--------|--------|--------|--------|--------|--------|--------|--------|--------|
B|--------|--------|--------|--------|--------|--------|--------|--------|--------|
G|--------|--------|--------|--------|--------|--------|--------|--------|--------|
D|--------|--------|--------|--------|--------|--------|--------|--------|--------|
A|--------|--------|--------|--------|--------|--------|--------|--------|--------|
E|--------|--------|--------|--------|--------|--------|--------|--------|--------|


E|--------|--------|--------|--------|--------|--------|--------|--------|--------|
B|--------|--------|--------|--------|--------|--------|--------|--------|--------|
G|--------|--------|--------|--------|--------|--------|--------|--------|--------|
D|--------|--------|--------|--------|--------|--------|--------|--------|--------|
A|--------|--------|--------|--------|--------|--------|--------|--------|--------|
E|--------|--------|--------|--------|--------|--------|--------|--------|--------|


E|--------|--------|--------|--------|--------|--------|--------|--------|-------------------------------|
B|--------|--------|--------|--------|--------|--------|--------|--------|-------------------------------|
G|--------|--------|--------|--------|--------|--------|--------|--------|-------------------------------|
D|--------|--------|--------|--------|--------|--------|--------|--------|-9----10---13---14---13---10---|
A|--------|--------|--------|--------|--------|--------|--------|--------|-7----8----11---12---11---8----|
E|--------|--------|--------|--------|--------|--------|--------|--------|-------------------------------|


E|--------------------------|-10---10---8----8--------------|-------------------------------|
B|--------------------------|-13---13---12---12---10---10---|-9----9------------------------|
G|--------------------------|---------------------10---10---|-9----9----10---10---9----9----|
D|-9----7----9----10--------|-------------------------------|-----------10---10---9----9----|
A|-7----5----7----8---------|-------------------------------|-------------------------------|
E|--------------------------|-------------------------------|-------------------------------|


E|-------------------------------|----------------------|--------|--------|-12---12-----8---8-----|
B|-------------------------------|----------------------|--------|--------|-12---12-----8---8-----|
G|-------------------------------|----------------------|--------|--------|-14---14-----10--10----|
D|-9----10---13---14---16---18---|-19---18---16---15----|--------|--------|-----------------------|
A|-7----8----11---12---14---16---|-17---16---14---13----|--------|--------|-----------------------|
E|-------------------------------|----------------------|--------|--------|-----------------------|


E|-10---10-----8---8-----|-12---12-----8---8-----|-10---10-----8---8-----|-12---12-----8---8-----|
B|-10---12-----8---8-----|-12---12-----8---8-----|-10---12-----8---8-----|-12---12-----8---8-----|
G|-12---12-----10--10----|-14---14-----10--10----|-12---12-----10--10----|-14---14-----10--10----|
D|-----------------------|-----------------------|-----------------------|-----------------------|
A|-----------------------|-----------------------|-----------------------|-----------------------|
E|-----------------------|-----------------------|-----------------------|-----------------------|


E|-10---10-----8---8-----|-12---12-----8---8-----|-10---10-----8---8-----|-----5-------5-------5-------5---|
B|-10---12-----8---8-----|-12---12-----8---8-----|-10---12-----8---8-----|-----5-------5-------5-------5---|
G|-12---12-----10--10----|-14---14-----10--10----|-12---12-----10--10----|-----7-------7-------7-------7---|
D|-----------------------|-----------------------|-----------------------|-----7-------7-------7-------7---|
A|-----------------------|-----------------------|-----------------------|-----5-------5-------5-------5---|
E|-----------------------|-----------------------|-----------------------|---------------------------------|


E|-----1-------1-------1-------1---|-----3-------3-------3-------3---|-----5-------5-------5-------5---|
B|-----1-------1-------1-------1---|-----3-------3-------3-------3---|-----5-------5-------5-------5---|
G|-----3-------3-------3-------3---|-----5-------5-------5-------5---|-----7-------7-------7-------7---|
D|-----3-------3-------3-------3---|-----5-------5-------5-------5---|-----7-------7-------7-------7---|
A|---------------------------------|---------------------------------|-----5-------5-------5-------5---|
E|-----3-------3-------3-------3---|-----5-------5-------5-------5---|---------------------------------|


E|-----5-------5-------5-------5---|-----1-------1-------1-------1---|-----3-------3-------3-------3---|
B|-----5-------5-------5-------5---|-----1-------1-------1-------1---|-----3-------3-------3-------3---|
G|-----7-------7-------7-------7---|-----3-------3-------3-------3---|-----5-------5-------5-------5---|
D|-----7-------7-------7-------7---|-----3-------3-------3-------3---|-----5-------5-------5-------5---|
A|---------------------------------|---------------------------------|-----3-------3-------3-------3---|
E|-----6-------6-------6-------6---|-----3-------3-------3-------3---|---------------------------------|


E|-----3-------3-------3-------3---|-----5-------5-------5-------5---|-----1-------1-------1-------1---|
B|-----3-------3-------3-------3---|-----5-------5-------5-------5---|-----1-------1-------1-------1---|
G|-----5-------5-------5-------5---|-----7-------7-------7-------7---|-----3-------3-------3-------3---|
D|-----5-------5-------5-------5---|-----7-------7-------7-------7---|-----3-------3-------3-------3---|
A|---------------------------------|-----5-------5-------5-------5---|---------------------------------|
E|-----5-------5-------5-------5---|---------------------------------|-----3-------3-------3-------3---|


E|-----3-------3-------3-------3---|-----5-------5-------5-------5---|-----5-------5-------5-------5---|
B|-----3-------3-------3-------3---|-----5-------5-------5-------5---|-----5-------5-------5-------5---|
G|-----5-------5-------5-------5---|-----7-------7-------7-------7---|-----7-------7-------7-------7---|
D|-----5-------5-------5-------5---|-----7-------7-------7-------7---|-----7-------7-------7-------7---|
A|---------------------------------|-----5-------5-------5-------5---|---------------------------------|
E|-----5-------5-------5-------5---|---------------------------------|-----6-------6-------6-------6---|


E|-----1-------1-------1-------1---|-----3-------3-------3-------3---|-----3-------3-------3-------3---|
B|-----1-------1-------1-------1---|-----3-------3-------3-------3---|-----3-------3-------3-------3---|
G|-----3-------3-------3-------3---|-----5-------5-------5-------5---|-----5-------5-------5-------5---|
D|-----3-------3-------3-------3---|-----5-------5-------5-------5---|-----5-------5-------5-------5---|
A|---------------------------------|-----3-------3-------3-------3---|---------------------------------|
E|-----3-------3-------3-------3---|---------------------------------|-----5-------5-------5-------5---|


E|-------------------------------|--------------------------|-10---10---8----8--------------|
B|-------------------------------|--------------------------|-13---13---12---12---10---10---|
G|-------------------------------|--------------------------|---------------------10---10---|
D|-9----10---13---14---13---10---|-9----7----9----10--------|-------------------------------|
A|-7----8----11---12---11---8----|-7----5----7----8---------|-------------------------------|
E|-------------------------------|--------------------------|-------------------------------|


E|-------------------------------|-------------------------------|----------------------|
B|-9----9------------------------|-------------------------------|----------------------|
G|-9----9----10---10---9----9----|-------------------------------|----------------------|
D|-----------10---10---9----9----|-9----10---13---14---16---18---|-19---18---16---15----|
A|-------------------------------|-7----8----11---12---14---16---|-17---16---14---13----|
E|-------------------------------|-------------------------------|----------------------|


E|--------|--------|--------|--------|-12---12-----8---8-----|-10---10-----8---8-----|
B|--------|--------|--------|--------|-12---12-----8---8-----|-10---12-----8---8-----|
G|--------|--------|--------|--------|-14---14-----10--10----|-12---12-----10--10----|
D|--------|--------|--------|--------|-----------------------|-----------------------|
A|--------|--------|--------|--------|-----------------------|-----------------------|
E|--------|--------|--------|--------|-----------------------|-----------------------|


E|-12---12-----8---8-----|-10---10-----8---8-----|-12---12-----8---8-----|-10---10-----8---8-----|
B|-12---12-----8---8-----|-10---12-----8---8-----|-12---12-----8---8-----|-10---12-----8---8-----|
G|-14---14-----10--10----|-12---12-----10--10----|-14---14-----10--10----|-12---12-----10--10----|
D|-----------------------|-----------------------|-----------------------|-----------------------|
A|-----------------------|-----------------------|-----------------------|-----------------------|
E|-----------------------|-----------------------|-----------------------|-----------------------|


E|-12---12-----8---8-----|-10---10-----8---8-----|-12---12-----8---8-----|-10---10-----8---8-----|
B|-12---12-----8---8-----|-10---12-----8---8-----|-12---12-----8---8-----|-10---12-----8---8-----|
G|-14---14-----10--10----|-12---12-----10--10----|-14---14-----10--10----|-12---12-----10--10----|
D|-----------------------|-----------------------|-----------------------|-----------------------|
A|-----------------------|-----------------------|-----------------------|-----------------------|
E|-----------------------|-----------------------|-----------------------|-----------------------|


E|-12---12-----8---8-----|-10---10-----8---8-----|-12---12-----8---8-----|-10---10-----8---8-----|
B|-12---12-----8---8-----|-10---12-----8---8-----|-12---12-----8---8-----|-10---12-----8---8-----|
G|-14---14-----10--10----|-12---12-----10--10----|-14---14-----10--10----|-12---12-----10--10----|
D|-----------------------|-----------------------|-----------------------|-----------------------|
A|-----------------------|-----------------------|-----------------------|-----------------------|
E|-----------------------|-----------------------|-----------------------|-----------------------|


E|-12---12-----8---8-----|-10---10-----8---8-----|-12---12-----8---8-----|-10---10-----8---8-----|
B|-12---12-----8---8-----|-10---12-----8---8-----|-12---12-----8---8-----|-10---12-----8---8-----|
G|-14---14-----10--10----|-12---12-----10--10----|-14---14-----10--10----|-12---12-----10--10----|
D|-----------------------|-----------------------|-----------------------|-----------------------|
A|-----------------------|-----------------------|-----------------------|-----------------------|
E|-----------------------|-----------------------|-----------------------|-----------------------|


E|-12---12-----8---8-----|
B|-12---12-----8---8-----|
G|-14---14-----10--10----|
D|-----------------------|
A|-----------------------|
E|-----------------------|





Track 4: Distorted Guitar (L)

E|--------|--------|--------|--------|--------|--------|--------|--------|--------|
B|--------|--------|--------|--------|--------|--------|--------|--------|--------|
G|--------|--------|--------|--------|--------|--------|--------|--------|--------|
D|--------|--------|--------|--------|--------|--------|--------|--------|--------|
A|--------|--------|--------|--------|--------|--------|--------|--------|--------|
E|--------|--------|--------|--------|--------|--------|--------|--------|--------|


E|--------|--------|--------|--------|--------|--------|--------|--------|--------|
B|--------|--------|--------|--------|--------|--------|--------|--------|--------|
G|--------|--------|--------|--------|--------|--------|--------|--------|--------|
D|--------|--------|--------|--------|--------|--------|--------|--------|--------|
A|--------|--------|--------|--------|--------|--------|--------|--------|--------|
E|--------|--------|--------|--------|--------|--------|--------|--------|--------|


E|--------|--------|--------|--------|--------|--------|--------|--------|--------|
B|--------|--------|--------|--------|--------|--------|--------|--------|--------|
G|--------|--------|--------|--------|--------|--------|--------|--------|--------|
D|--------|--------|--------|--------|--------|--------|--------|--------|--------|
A|--------|--------|--------|--------|--------|--------|--------|--------|--------|
E|--------|--------|--------|--------|--------|--------|--------|--------|--------|


E|--------|--------|--------|--------|--------|--------|--------|--------|--------|
B|--------|--------|--------|--------|--------|--------|--------|--------|--------|
G|--------|--------|--------|--------|--------|--------|--------|--------|--------|
D|--------|--------|--------|--------|--------|--------|--------|--------|--------|
A|--------|--------|--------|--------|--------|--------|--------|--------|--------|
E|--------|--------|--------|--------|--------|--------|--------|--------|--------|


E|-------8---8-----|-10---10-----8---8-----|-12---12-----8---8-----|-10---10-----8---8-----|
B|-------8---8-----|-10---12-----8---8-----|-12---12-----8---8-----|-10---12-----8---8-----|
G|-------10--10----|-12---12-----10--10----|-14---14-----10--10----|-12---12-----10--10----|
D|-----------------|-----------------------|-----------------------|-----------------------|
A|-----------------|-----------------------|-----------------------|-----------------------|
E|-----------------|-----------------------|-----------------------|-----------------------|


E|-12---12-----8---8-----|-10---10-----8---8-----|-12---12-----8---8-----|-10---10-----8---8-----|
B|-12---12-----8---8-----|-10---12-----8---8-----|-12---12-----8---8-----|-10---12-----8---8-----|
G|-14---14-----10--10----|-12---12-----10--10----|-14---14-----10--10----|-12---12-----10--10----|
D|-----------------------|-----------------------|-----------------------|-----------------------|
A|-----------------------|-----------------------|-----------------------|-----------------------|
E|-----------------------|-----------------------|-----------------------|-----------------------|


E|-12---12-----8---8-----|-10---10-----8---8-----|-12---12-----8---8-----|-10---10-----8---8-----|
B|-12---12-----8---8-----|-10---12-----8---8-----|-12---12-----8---8-----|-10---12-----8---8-----|
G|-14---14-----10--10----|-12---12-----10--10----|-14---14-----10--10----|-12---12-----10--10----|
D|-----------------------|-----------------------|-----------------------|-----------------------|
A|-----------------------|-----------------------|-----------------------|-----------------------|
E|-----------------------|-----------------------|-----------------------|-----------------------|


E|-12---12-----8---8-----|-10---10-----8---8-----|-12---12-----8---8-----|-10---10-----8---8-----|
B|-12---12-----8---8-----|-10---12-----8---8-----|-12---12-----8---8-----|-10---12-----8---8-----|
G|-14---14-----10--10----|-12---12-----10--10----|-14---14-----10--10----|-12---12-----10--10----|
D|-----------------------|-----------------------|-----------------------|-----------------------|
A|-----------------------|-----------------------|-----------------------|-----------------------|
E|-----------------------|-----------------------|-----------------------|-----------------------|


E|-----5-------5-------5-------5---|-----1-------1-------1-------1---|-----3-------3-------3-------3---|
B|-----5-------5-------5-------5---|-----1-------1-------1-------1---|-----3-------3-------3-------3---|
G|-----7-------7-------7-------7---|-----3-------3-------3-------3---|-----5-------5-------5-------5---|
D|-----7-------7-------7-------7---|-----3-------3-------3-------3---|-----5-------5-------5-------5---|
A|-----5-------5-------5-------5---|---------------------------------|---------------------------------|
E|---------------------------------|-----3-------3-------3-------3---|-----5-------5-------5-------5---|


E|-----5-------5-------5-------5---|-----5-------5-------5-------5---|-----1-------1-------1-------1---|
B|-----5-------5-------5-------5---|-----5-------5-------5-------5---|-----1-------1-------1-------1---|
G|-----7-------7-------7-------7---|-----7-------7-------7-------7---|-----3-------3-------3-------3---|
D|-----7-------7-------7-------7---|-----7-------7-------7-------7---|-----3-------3-------3-------3---|
A|-----5-------5-------5-------5---|---------------------------------|---------------------------------|
E|---------------------------------|-----6-------6-------6-------6---|-----3-------3-------3-------3---|


E|-----3-------3-------3-------3---|-----3-------3-------3-------3---|-----5-------5-------5-------5---|
B|-----3-------3-------3-------3---|-----3-------3-------3-------3---|-----5-------5-------5-------5---|
G|-----5-------5-------5-------5---|-----5-------5-------5-------5---|-----7-------7-------7-------7---|
D|-----5-------5-------5-------5---|-----5-------5-------5-------5---|-----7-------7-------7-------7---|
A|-----3-------3-------3-------3---|---------------------------------|-----5-------5-------5-------5---|
E|---------------------------------|-----5-------5-------5-------5---|---------------------------------|


E|-----1-------1-------1-------1---|-----3-------3-------3-------3---|-----5-------5-------5-------5---|
B|-----1-------1-------1-------1---|-----3-------3-------3-------3---|-----5-------5-------5-------5---|
G|-----3-------3-------3-------3---|-----5-------5-------5-------5---|-----7-------7-------7-------7---|
D|-----3-------3-------3-------3---|-----5-------5-------5-------5---|-----7-------7-------7-------7---|
A|---------------------------------|---------------------------------|-----5-------5-------5-------5---|
E|-----3-------3-------3-------3---|-----5-------5-------5-------5---|---------------------------------|


E|-----5-------5-------5-------5---|-----1-------1-------1-------1---|-----3-------3-------3-------3---|
B|-----5-------5-------5-------5---|-----1-------1-------1-------1---|-----3-------3-------3-------3---|
G|-----7-------7-------7-------7---|-----3-------3-------3-------3---|-----5-------5-------5-------5---|
D|-----7-------7-------7-------7---|-----3-------3-------3-------3---|-----5-------5-------5-------5---|
A|---------------------------------|---------------------------------|-----3-------3-------3-------3---|
E|-----6-------6-------6-------6---|-----3-------3-------3-------3---|---------------------------------|


E|-----3-------3-------3-------3---|--------|--------|--------|--------|--------|--------|
B|-----3-------3-------3-------3---|--------|--------|--------|--------|--------|--------|
G|-----5-------5-------5-------5---|--------|--------|--------|--------|--------|--------|
D|-----5-------5-------5-------5---|--------|--------|--------|--------|--------|--------|
A|-----3-------3-------3-------3---|--------|--------|--------|--------|--------|--------|
E|---------------------------------|--------|--------|--------|--------|--------|--------|


E|--------|--------|--------|--------|--------|--------|--------|--------|--------|
B|--------|--------|--------|--------|--------|--------|--------|--------|--------|
G|--------|--------|--------|--------|--------|--------|--------|--------|--------|
D|--------|--------|--------|--------|--------|--------|--------|--------|--------|
A|--------|--------|--------|--------|--------|--------|--------|--------|--------|
E|--------|--------|--------|--------|--------|--------|--------|--------|--------|


E|--------|--------|--------|--------|--------|--------|--------|--------|--------|
B|--------|--------|--------|--------|--------|--------|--------|--------|--------|
G|--------|--------|--------|--------|--------|--------|--------|--------|--------|
D|--------|--------|--------|--------|--------|--------|--------|--------|--------|
A|--------|--------|--------|--------|--------|--------|--------|--------|--------|
E|--------|--------|--------|--------|--------|--------|--------|--------|--------|


E|--------|--------|--------|--------|--------|--------|--------|--------|--------|
B|--------|--------|--------|--------|--------|--------|--------|--------|--------|
G|--------|--------|--------|--------|--------|--------|--------|--------|--------|
D|--------|--------|--------|--------|--------|--------|--------|--------|--------|
A|--------|--------|--------|--------|--------|--------|--------|--------|--------|
E|--------|--------|--------|--------|--------|--------|--------|--------|--------|


E|--------|--------|--------|--------|--------|--------|--------|--------|--------|
B|--------|--------|--------|--------|--------|--------|--------|--------|--------|
G|--------|--------|--------|--------|--------|--------|--------|--------|--------|
D|--------|--------|--------|--------|--------|--------|--------|--------|--------|
A|--------|--------|--------|--------|--------|--------|--------|--------|--------|
E|--------|--------|--------|--------|--------|--------|--------|--------|--------|


E|--------|--------|--------|--------|--------|--------|--------|--------|--------|
B|--------|--------|--------|--------|--------|--------|--------|--------|--------|
G|--------|--------|--------|--------|--------|--------|--------|--------|--------|
D|--------|--------|--------|--------|--------|--------|--------|--------|--------|
A|--------|--------|--------|--------|--------|--------|--------|--------|--------|
E|--------|--------|--------|--------|--------|--------|--------|--------|--------|


E|--------|--------|--------|--------|--------|--------|--------|--------|--------|
B|--------|--------|--------|--------|--------|--------|--------|--------|--------|
G|--------|--------|--------|--------|--------|--------|--------|--------|--------|
D|--------|--------|--------|--------|--------|--------|--------|--------|--------|
A|--------|--------|--------|--------|--------|--------|--------|--------|--------|
E|--------|--------|--------|--------|--------|--------|--------|--------|--------|


E|--------|
B|--------|
G|--------|
D|--------|
A|--------|
E|--------|





Track 5: Untitled

G|--------|--------|--------|--------|--------|--------|--------|--------|--------|
D|--------|--------|--------|--------|--------|--------|--------|--------|--------|
A|--------|--------|--------|--------|--------|--------|--------|--------|--------|
E|--------|--------|--------|--------|--------|--------|--------|--------|--------|


G|--------|--------|--------|--------|--------|--------|--------|--------|--------|
D|--------|--------|--------|--------|--------|--------|--------|--------|--------|
A|--------|--------|--------|--------|--------|--------|--------|--------|--------|
E|--------|--------|--------|--------|--------|--------|--------|--------|--------|


G|--------|--------|--------|--------|--------|--------|--------|--------|--------|
D|--------|--------|--------|--------|--------|--------|--------|--------|--------|
A|--------|--------|--------|--------|--------|--------|--------|--------|--------|
E|--------|--------|--------|--------|--------|--------|--------|--------|--------|


G|--------|--------|--------|--------|--------|--------|--------|--------|--------|
D|--------|--------|--------|--------|--------|--------|--------|--------|--------|
A|--------|--------|--------|--------|--------|--------|--------|--------|--------|
E|--------|--------|--------|--------|--------|--------|--------|--------|--------|


G|--------|--------|--------|--------|--------|--------|--------|--------|--------|
D|--------|--------|--------|--------|--------|--------|--------|--------|--------|
A|--------|--------|--------|--------|--------|--------|--------|--------|--------|
E|--------|--------|--------|--------|--------|--------|--------|--------|--------|


G|--------|--------|--------|--------|--------|--------|--------|--------|--------|
D|--------|--------|--------|--------|--------|--------|--------|--------|--------|
A|--------|--------|--------|--------|--------|--------|--------|--------|--------|
E|--------|--------|--------|--------|--------|--------|--------|--------|--------|


G|--------|--------|--------|--------|--------|--------|--------|--------|--------|
D|--------|--------|--------|--------|--------|--------|--------|--------|--------|
A|--------|--------|--------|--------|--------|--------|--------|--------|--------|
E|--------|--------|--------|--------|--------|--------|--------|--------|--------|


G|--------|--------|--------|--------|--------|--------|--------|--------|--------|
D|--------|--------|--------|--------|--------|--------|--------|--------|--------|
A|--------|--------|--------|--------|--------|--------|--------|--------|--------|
E|--------|--------|--------|--------|--------|--------|--------|--------|--------|


G|--------|--------|--------|--------|--------|--------|--------|--------|--------|
D|--------|--------|--------|--------|--------|--------|--------|--------|--------|
A|--------|--------|--------|--------|--------|--------|--------|--------|--------|
E|--------|--------|--------|--------|--------|--------|--------|--------|--------|


G|--------|--------|--------|--------|--------|--------|--------|--------|--------|
D|--------|--------|--------|--------|--------|--------|--------|--------|--------|
A|--------|--------|--------|--------|--------|--------|--------|--------|--------|
E|--------|--------|--------|--------|--------|--------|--------|--------|--------|


G|--------|--------|--------|--------|--------|--------|--------|--------|--------|
D|--------|--------|--------|--------|--------|--------|--------|--------|--------|
A|--------|--------|--------|--------|--------|--------|--------|--------|--------|
E|--------|--------|--------|--------|--------|--------|--------|--------|--------|


G|--------|--------|--------|--------|--------|--------|--------|--------|--------|
D|--------|--------|--------|--------|--------|--------|--------|--------|--------|
A|--------|--------|--------|--------|--------|--------|--------|--------|--------|
E|--------|--------|--------|--------|--------|--------|--------|--------|--------|


G|--------|--------|--------|--------|--------|--------|--------|--------|--------|
D|--------|--------|--------|--------|--------|--------|--------|--------|--------|
A|--------|--------|--------|--------|--------|--------|--------|--------|--------|
E|--------|--------|--------|--------|--------|--------|--------|--------|--------|


G|--------|--------|--------|--------|--------|--------|--------|--------|--------|
D|--------|--------|--------|--------|--------|--------|--------|--------|--------|
A|--------|--------|--------|--------|--------|--------|--------|--------|--------|
E|--------|--------|--------|--------|--------|--------|--------|--------|--------|


G|--------|--------|--------|
D|--------|--------|--------|
A|--------|--------|--------|
E|--------|--------|--------|