Menu:

 

Search:

 

joe satriani - lights of heaven:

 



Title: Lights Of Heaven
Artist: 
Album: Crystal Planet
Author: 


Track 1: Gtr. 1

E|------0--0--0--0-------------0---0--0--|--------0-----------------0--0--0--0-----|
B|-12---12-12-12-12--10--10-10-8---8--8--|-----------------------------------------|
G|---------------------------------------|-11--11-11-11-11-9---9----9--9--9--9-----|
D|-9----9--9--9--9---7---7--7--5---5--5--|-----------------------------------------|
A|---------------------------------------|-9---9--9--9--9--7---7----7--7--7--7-----|
E|---------------------------------------|-----------------------------------------|


E|------0--0--0--0---0---0--0--0--0--0---|------0--0--0--0--------0--0---------|--------0--0--0--0-----0---0--0------------|
B|-13---13-13-13-13--12--12-12-12-12-12--|-10---10-10-10-10-------10-----10----|-12--12-12-12-12-12----10--10-10-8---8--8--|
G|---------------------------------------|-------------------------------------|-------------------------------------------|
D|-10---10-10-10-10--9---9--9--9--9--9---|-7----7--7--7--7--------7------7-----|-9---9--9--9--9--9-----7---7--7--5---5--5--|
A|---------------------------------------|-------------------0-----------------|-------------------------------------------|
E|---------------------------------------|-------------------------------------|-------------------------------------------|


E|----------0--0--0----------0--0--------------|-----0--0--0--0--0----------------------------|
B|---------------------------0--0--------------|-0---0--0--0--0--0---------0-----0-----0--0---|
G|-9--11-11-11-11-11-9---7---------6--7--7--7--|-9---9--9--9--9--9---11-12-11-11-12-11-11-1211|
D|---------------------------------------------|----------------------------------------------|
A|-7--9--9--9--9--9--7---5---------------------|----------------------------------------------|
E|---------------------------------------------|----------------------------------------------|


E|---------------------------------------------|--------0--0--0--0-----------------------|
B|-----------0-----0--0--0-----0--0--0--0------|-----0--------0--0-----------------------|
G|-9---9--9--9-----9--11-9-----7--7--7--7--7---|-4-------------------2--4--2-------------|
D|---------------------------------------------|-------------------------------5--7--5---|
A|---------------------------------------------|-----------------------------------------|
E|---------------------------------------------|-----------------------------------------|


E|--------|-----------0----0---0---|-0---0---0---0-------0---0---0---|------0----0----0---0---|
B|--------|------------------------|---------------------------------|------------------------|
G|--------|------9----9----9---9---|-9---9---9---9-------9---9---9---|------9----9----9---9---|
D|-4------|-9----9----9----9---7---|-7---7---7---7---9---9---9---9---|------7----7----7---7---|
A|--------|-7----7----7----7---7---|-7---7---7---7-------7---7---7---|------------------------|
E|--------|------------------------|---------------------------------|-8----8----8----8---7---|


E|-0---0---0---0---0---------------|------0----0----0---0---|-0---0---0---0-------0---0---0---|
B|-------------0---0-----------0---|------------------------|---------------------------------|
G|-9---9---9---7---7---7---7---9---|------9----9----9---9---|-9---9---9---9-------9---9---9---|
D|-7---7---7---7---7---7---7-------|------9----9----9---7---|-7---7---7---7---9---9---9---9---|
A|---------------------------------|------7----7----7---7---|-7---7---7---7-------7---7---7---|
E|-7---7---7---7---7---------------|-0----------------------|---------------------------------|


E|------0----0----0---0---|-0---0---0---0---0---------------|------0----0----0---0---|
B|------------------------|-------------0---0-----------0---|------------------------|
G|------9----9----9---9---|-9---9---9---7---7---7---7---9---|------9----9----9---9---|
D|------7----7----7---7---|-7---7---7---7---7---7---7-------|------9----9----9---7---|
A|------------------------|---------------------------------|------7----7----7---7---|
E|-8----8----8----8---7---|-7---7---7---7---7---------------|-0----------------------|


E|-0---0---0---0-------0---0---0---|------0----0----0---0---|-0---0---0---0---0---------------|
B|---------------------------------|------------------------|-------------0---0-----------0---|
G|-9---9---9---9-------9---9---9---|------9----9----9---9---|-9---9---9---7---7---7---7---9---|
D|-7---7---7---7---9---9---9---9---|------7----7----7---7---|-7---7---7---7---7---7---7-------|
A|-7---7---7---7-------7---7---7---|------------------------|---------------------------------|
E|---------------------------------|-8----8----8----8---7---|-7---7---7---7---7---------------|


E|------0----0----0---0---|-0---0---0---0-------0---0---0---|------0----0----0---0---|
B|------------------------|---------------------------------|------------------------|
G|------9----9----9---9---|-9---9---9---9-------9---9---9---|------9----9----9---9---|
D|------9----9----9---7---|-7---7---7---7---9---9---9---9---|------7----7----7---7---|
A|------7----7----7---7---|-7---7---7---7-------7---7---7---|------------------------|
E|-0----------------------|---------------------------------|-8----8----8----8---7---|


E|-0---0---0---0---0---------------|------0----0----0---0---|-0---0---0---0-------0---0---0---|
B|-------------0---0-----------0---|------------------------|---------------------------------|
G|-9---9---9---7---7---7---7---9---|------9----9----9---9---|-9---9---9---9-------9---9---9---|
D|-7---7---7---7---7---7---7-------|------9----9----9---7---|-7---7---7---7---9---9---9---9---|
A|---------------------------------|------7----7----7---7---|-7---7---7---7-------7---7---7---|
E|-7---7---7---7---7---------------|-0----------------------|---------------------------------|


E|------0----0----0---0---|-0---0---0---0---0---------------|------0----0----0---0---|
B|------------------------|-------------0---0-----------0---|------------------------|
G|------9----9----9---9---|-9---9---9---7---7---7---7---9---|------9----9----9---9---|
D|------7----7----7---7---|-7---7---7---7---7---7---7-------|------9----9----9---7---|
A|------------------------|---------------------------------|------7----7----7---7---|
E|-8----8----8----8---7---|-7---7---7---7---7---------------|-0----------------------|


E|-0---0---0---0-------0---0---0---|------0----0----0---0---|-0---0---0---0---0---------------|
B|---------------------------------|------------------------|-------------0---0-----------0---|
G|-9---9---9---9-------9---9---9---|------9----9----9---9---|-9---9---9---7---7---7---7---9---|
D|-7---7---7---7---9---9---9---9---|------7----7----7---7---|-7---7---7---7---7---7---7-------|
A|-7---7---7---7-------7---7---7---|------------------------|---------------------------------|
E|---------------------------------|-8----8----8----8---7---|-7---7---7---7---7---------------|


E|------0----0----0---0---|-0---0---0---0-------0---0---0---|------0----0----0---0---|
B|------------------------|---------------------------------|------------------------|
G|------9----9----9---9---|-9---9---9---9-------9---9---9---|------9----9----9---9---|
D|------9----9----9---7---|-7---7---7---7---9---9---9---9---|------7----7----7---7---|
A|------7----7----7---7---|-7---7---7---7-------7---7---7---|------------------------|
E|-0----------------------|---------------------------------|-8----8----8----8---7---|


E|-0---0---0---0---0---------------|------0----0----0---0---|-0---0---0---0-------0---0---0---|
B|-------------0---0-----------0---|------------------------|---------------------------------|
G|-9---9---9---7---7---7---7---9---|------9----9----9---9---|-9---9---9---9-------9---9---9---|
D|-7---7---7---7---7---7---7-------|------9----9----9---7---|-7---7---7---7---9---9---9---9---|
A|---------------------------------|------7----7----7---7---|-7---7---7---7-------7---7---7---|
E|-7---7---7---7---7---------------|-0----------------------|---------------------------------|


E|------0----0----0---0---|-0---0---0---0---0---------------|------0----0----0---0---|
B|------------------------|-------------0---0-----------0---|------------------------|
G|------9----9----9---9---|-9---9---9---7---7---7---7---9---|------9----9----9---9---|
D|------7----7----7---7---|-7---7---7---7---7---7---7-------|------9----9----9---7---|
A|------------------------|---------------------------------|------7----7----7---7---|
E|-8----8----8----8---7---|-7---7---7---7---7---------------|-0----------------------|


E|-0---0---0---0-------0---0---0---|------0----0----0---0---|-0---0---0---0---0---------------|
B|---------------------------------|------------------------|-------------0---0-----------0---|
G|-9---9---9---9-------9---9---9---|------9----9----9---9---|-9---9---9---7---7---7---7---9---|
D|-7---7---7---7---9---9---9---9---|------7----7----7---7---|-7---7---7---7---7---7---7-------|
A|-7---7---7---7-------7---7---7---|------------------------|---------------------------------|
E|---------------------------------|-8----8----8----8---7---|-7---7---7---7---7---------------|


E|------0----0----0---0---|-0---0---0---0-------0---0---0---|------0----0----0---0---|
B|------------------------|---------------------------------|------------------------|
G|------9----9----9---9---|-9---9---9---9-------9---9---9---|------9----9----9---9---|
D|------9----9----9---7---|-7---7---7---7---9---9---9---9---|------7----7----7---7---|
A|------7----7----7---7---|-7---7---7---7-------7---7---7---|------------------------|
E|-0----------------------|---------------------------------|-8----8----8----8---7---|


E|-0---0---0---0---0---------------|------0----0----0---0---|-0---0---0---0-------0---0---0---|
B|-------------0---0-----------0---|------------------------|---------------------------------|
G|-9---9---9---7---7---7---7---9---|------9----9----9---9---|-9---9---9---9-------9---9---9---|
D|-7---7---7---7---7---7---7-------|------9----9----9---7---|-7---7---7---7---9---9---9---9---|
A|---------------------------------|------7----7----7---7---|-7---7---7---7-------7---7---7---|
E|-7---7---7---7---7---------------|-0----------------------|---------------------------------|


E|------0----0----0---0---|-0---0---0---0---0---------------|------0----0----0---0---|
B|------------------------|-------------0---0-----------0---|------------------------|
G|------9----9----9---9---|-9---9---9---7---7---7---7---9---|------9----9----9---9---|
D|------7----7----7---7---|-7---7---7---7---7---7---7-------|------9----9----9---7---|
A|------------------------|---------------------------------|------7----7----7---7---|
E|-8----8----8----8---7---|-7---7---7---7---7---------------|-0----------------------|


E|-0---0---0---0-------0---0---0---|------0----0----0---0---|-0---0---0---0---0---------|
B|---------------------------------|------------------------|-----------------0---------|
G|-9---9---9---9-------9---9---9---|------9----9----9---9---|-9---9---9---9---7---------|
D|-7---7---7---7---9---9---9---9---|------7----7----7---7---|-7---7---7---7---7---------|
A|-7---7---7---7-------7---7---7---|------------------------|---------------------------|
E|---------------------------------|-8----8----8----8---7---|-7---7---7---7---7----7----|


E|-0-----0---0---0---0----|-0---0----0---0----0----|-0-----0---0---0---0----|-0---0----0---0----0----|
B|-1-----1---1---1---1----|-1---1----1---1----1----|-0-----0---0---0---0----|-0---0----0---0----0----|
G|-2-----2---2---2---2----|-2---2----2---2----2----|-0-----0---0---0---0----|-0---0----0---0----0----|
D|-2-----2---2---2---2----|-2---2----2---2----2----|-2-----2---2---2---2----|-2---2----2---2----2----|
A|-0-----0---0---0---0----|-0---0----0---0----0----|-2-----2---2---2---2----|-2---2----2---2----2----|
E|------------------------|------------------------|-0-----0---0---0---0----|-0---0----0---0----0----|


E|-0-----0---0---0---0----|-0---0----0---0----0----|---------0-----------0-----------|
B|-1-----1---1---1---1----|-1---1----1---1----1----|-----0-----------0-----------0---|
G|-2-----2---2---2---2----|-2---2----2---2----2----|---------------------------------|
D|-2-----2---2---2---2----|-2---2----2---2----2----|-2-----------4-----------5-------|
A|-0-----0---0---0---0----|-0---0----0---0----0----|---------------------------------|
E|------------------------|------------------------|---------------------------------|


E|-0-----------0---0----0----|-0-----0---0---0---0----|-0---0----0---0----0----|-0-----0---0---0---0----|
B|---------0-------0----0----|-1-----1---1---1---1----|-1---1----1---1----1----|-0-----0---0---0---0----|
G|---------------------------|-2-----2---2---2---2----|-2---2----2---2----2----|-0-----0---0---0---0----|
D|-----4-----------2---------|-2-----2---2---2---2----|-2---2----2---2----2----|-2-----2---2---2---2----|
A|---------------------------|-0-----0---0---0---0----|-0---0----0---0----0----|-2-----2---2---2---2----|
E|---------------------------|------------------------|------------------------|-0-----0---0---0---0----|


E|-0---0----0---0----0----|-3-----3---3----3----|-3---3-----3----3----|-2----3---2---2---2---2----|
B|-0---0----0---0----0----|-3-----3---3----3----|-3---3-----3----3----|-3----3---3---3---3---3----|
G|-0---0----0---0----0----|-0-----0---0----0----|-0---0-----0----0----|-2----2---2---2---2---2----|
D|-2---2----2---2----2----|---------------------|---------------------|-0----0---0---0---0---0----|
A|-2---2----2---2----2----|-3-----3---3----3----|-3---3-----3----3----|---------------------------|
E|-0---0----0---0----0----|---------------------|---------------------|---------------------------|


E|-2------2----|------------------------------|---------------------------------|---------------------------------|
B|-3------3----|------0-----------0-----------|-0-----------0-----------0-------|---------0-----------0-----------|
G|-2------2----|--------------11----------7---|---------6-----------6-----------|-----11----------11----------7---|
D|-0------0----|-9--------9-----------5-------|-----4-----------4-----------4---|-9-----------9-----------5-------|
A|-------------|------------------------------|---------------------------------|---------------------------------|
E|-------------|------------------------------|---------------------------------|---------------------------------|


E|---------------------------------|---------------------------------|---------------------------------|
B|-0-----------0-----------0-------|---------0-----------0-----------|-0-----------0-----------0-------|
G|---------6-----------6-----------|-----11----------11----------7---|---------6-----------6-----------|
D|-----4-----------4-----------4---|-9-----------9-----------5-------|-----4-----------4-----------4---|
A|---------------------------------|---------------------------------|---------------------------------|
E|---------------------------------|---------------------------------|---------------------------------|


E|---------------------------------|---------------------------------|---------------------------------|
B|---------0-----------0-----------|-0-----------0-----------0-------|---------0-----------0-----------|
G|-----11----------11----------7---|---------6-----------6-----------|-----11----------11----------7---|
D|-9-----------9-----------5-------|-----4-----------4-----------4---|-9-----------9-----------5-------|
A|---------------------------------|---------------------------------|---------------------------------|
E|---------------------------------|---------------------------------|---------------------------------|


E|---------------------------------|---------------------------------|---------------------------------|
B|-0-----------0-----------0-------|---------0-----------0-----------|-0-----------0-----------0-------|
G|---------6-----------6-----------|-----11----------11----------7---|---------6-----------6-----------|
D|-----4-----------4-----------4---|-9-----------9-----------5-------|-----4-----------4-----------4---|
A|---------------------------------|---------------------------------|---------------------------------|
E|---------------------------------|---------------------------------|---------------------------------|


E|---------------------------------|---------------------------------|---------------------|
B|---------0-----------0-----------|-0-----------0-----------0-------|---------------------|
G|-----11----------11----------7---|---------6-----------6-----------|-4-----4---4---------|
D|-9-----------9-----------5-------|-----4-----------4-----------4---|-4-----4---4---------|
A|---------------------------------|---------------------------------|-2-----2---2---------|
E|---------------------------------|---------------------------------|----------------3----|


E|-----------------|------0----0----0---0---|-0---0---0---0-------0---0---0---|------0----0----0---0---|
B|-----------------|------------------------|---------------------------------|------------------------|
G|-----------------|------9----9----9---9---|-9---9---9---9-------9---9---9---|------9----9----9---9---|
D|-----------------|------9----9----9---7---|-7---7---7---7---9---9---9---9---|------7----7----7---7---|
A|-----------------|------7----7----7---7---|-7---7---7---7-------7---7---7---|------------------------|
E|-3---2-----2-----|-0----------------------|---------------------------------|-8----8----8----8---7---|


E|-0---0---0---0---0---------------|------0----0----0---0---|-0---0---0---0-------0---0---0---|
B|-------------0---0-----------0---|------------------------|---------------------------------|
G|-9---9---9---7---7---7---7---9---|------9----9----9---9---|-9---9---9---9-------9---9---9---|
D|-7---7---7---7---7---7---7-------|------9----9----9---7---|-7---7---7---7---9---9---9---9---|
A|---------------------------------|------7----7----7---7---|-7---7---7---7-------7---7---7---|
E|-7---7---7---7---7---------------|-0----------------------|---------------------------------|


E|------0----0----0---0---|-0---0---0---0---0---------------|------0----0----0---0---|
B|------------------------|-------------0---0-----------0---|------------------------|
G|------9----9----9---9---|-9---9---9---7---7---7---7---9---|------9----9----9---9---|
D|------7----7----7---7---|-7---7---7---7---7---7---7-------|------9----9----9---7---|
A|------------------------|---------------------------------|------7----7----7---7---|
E|-8----8----8----8---7---|-7---7---7---7---7---------------|-0----------------------|


E|-0---0---0---0-------0---0---0---|------0----0----0---0---|-0---0---0---0---0---------------|
B|---------------------------------|------------------------|-------------0---0-----------0---|
G|-9---9---9---9-------9---9---9---|------9----9----9---9---|-9---9---9---7---7---7---7---9---|
D|-7---7---7---7---9---9---9---9---|------7----7----7---7---|-7---7---7---7---7---7---7-------|
A|-7---7---7---7-------7---7---7---|------------------------|---------------------------------|
E|---------------------------------|-8----8----8----8---7---|-7---7---7---7---7---------------|


E|------0----0----0---0---|-0---0---0---0-------0---0---0---|------0----0----0---0---|
B|------------------------|---------------------------------|------------------------|
G|------9----9----9---9---|-9---9---9---9-------9---9---9---|------9----9----9---9---|
D|------9----9----9---7---|-7---7---7---7---9---9---9---9---|------7----7----7---7---|
A|------7----7----7---7---|-7---7---7---7-------7---7---7---|------------------------|
E|-0----------------------|---------------------------------|-8----8----8----8---7---|


E|-0---0---0---0---0------------|-0-----0---0---0---0----|-0---0----0---0----0----|
B|-------------0---0------------|-1-----1---1---1---1----|-1---1----1---1----1----|
G|-9---9---9---7---7------------|-2-----2---2---2---2----|-2---2----2---2----2----|
D|-7---7---7---7---7------------|-2-----2---2---2---2----|-2---2----2---2----2----|
A|---------------------0--------|-0-----0---0---0---0----|-0---0----0---0----0----|
E|-7---7---7---7---7-------7----|------------------------|------------------------|


E|-0-----0---0---0---0----|-0---0----0---0----0----|-0-----0---0---0---0----|-0---0----0---0----0----|
B|-0-----0---0---0---0----|-0---0----0---0----0----|-1-----1---1---1---1----|-1---1----1---1----1----|
G|-0-----0---0---0---0----|-0---0----0---0----0----|-2-----2---2---2---2----|-2---2----2---2----2----|
D|-2-----2---2---2---2----|-2---2----2---2----2----|-2-----2---2---2---2----|-2---2----2---2----2----|
A|-2-----2---2---2---2----|-2---2----2---2----2----|-0-----0---0---0---0----|-0---0----0---0----0----|
E|-0-----0---0---0---0----|-0---0----0---0----0----|------------------------|------------------------|


E|---------0-----------0-----------|-0-----------0---0----0----|-0-----0---0---0---0----|
B|-----0-----------0-----------0---|---------0-------0----0----|-1-----1---1---1---1----|
G|---------------------------------|---------------------------|-2-----2---2---2---2----|
D|-2-----------4-----------5-------|-----4-----------2---------|-2-----2---2---2---2----|
A|---------------------------------|---------------------------|-0-----0---0---0---0----|
E|---------------------------------|---------------------------|------------------------|


E|-0---0----0---0----0----|-0-----0---0---0---0----|-0---0----0---0----0----|-3----3---3---3---3---3----|
B|-1---1----1---1----1----|-0-----0---0---0---0----|-0---0----0---0----0----|-3----3---3---3---3---3----|
G|-2---2----2---2----2----|-0-----0---0---0---0----|-0---0----0---0----0----|-0----0---0---0---0---0----|
D|-2---2----2---2----2----|-2-----2---2---2---2----|-2---2----2---2----2----|---------------------------|
A|-0---0----0---0----0----|-2-----2---2---2---2----|-2---2----2---2----2----|-3----3---3---3---3---3----|
E|------------------------|-0-----0---0---0---0----|-0---0----0---0----0----|---------------------------|


E|-3---3----3---3---3---3----|-2----2---2---2---2---2----|-2---2----2---2---3---2----|
B|-3---3----3---3---3---3----|-3----3---3---3---3---3----|-3---3----3---3---3---3----|
G|-0---0----0---0---0---0----|-2----2---2---2---2---2----|-2---2----2---2---2---2----|
D|---------------------------|-0----0---0---0---0---0----|-0---0----0---0---0---0----|
A|-3---3----3---3---3---3----|---------------------------|---------------------------|
E|---------------------------|---------------------------|---------------------------|


E|-3----3---3---3---3---3----|-3---3----3---3---3---3----|-2----2---2---2---2---2----|
B|-3----3---3---3---3---3----|-3---3----3---3---3---3----|-3----3---3---3---3---3----|
G|-0----0---0---0---0---0----|-0---0----0---0---0---0----|-2----2---2---2---2---2----|
D|---------------------------|---------------------------|-0----0---0---0---0---0----|
A|-3----3---3---3---3---3----|-3---3----3---3---3---3----|---------------------------|
E|---------------------------|---------------------------|---------------------------|


E|-2---2----2---2---3---2----|-3----3---3---3---3---3----|-3---3----3---3---3---3----|
B|-3---3----3---3---3---3----|-3----3---3---3---3---3----|-3---3----3---3---3---3----|
G|-2---2----2---2---2---2----|-0----0---0---0---0---0----|-0---0----0---0---0---0----|
D|-0---0----0---0---0---0----|---------------------------|---------------------------|
A|---------------------------|-3----3---3---3---3---3----|-3---3----3---3---3---3----|
E|---------------------------|---------------------------|---------------------------|


E|-2----2---2---2---2---2----|-2---2----2---2---3---2----|-3----3---3---3---3---3----|
B|-3----3---3---3---3---3----|-3---3----3---3---3---3----|-3----3---3---3---3---3----|
G|-2----2---2---2---2---2----|-2---2----2---2---2---2----|-0----0---0---0---0---0----|
D|-0----0---0---0---0---0----|-0---0----0---0---0---0----|---------------------------|
A|---------------------------|---------------------------|-3----3---3---3---3---3----|
E|---------------------------|---------------------------|---------------------------|


E|-3---3----3---3---3---3----|-2----2---2---2---2---2----|-2------|---------0-----------0-----------|
B|-3---3----3---3---3---3----|-3----3---3---3---3---3----|-3------|-----8-----------7-----------5---|
G|-0---0----0---0---0---0----|-2----2---2---2---2---2----|-2------|-9-----------7-----------5-------|
D|---------------------------|-0----0---0---0---0---0----|-0------|---------------------------------|
A|-3---3----3---3---3---3----|---------------------------|--------|---------------------------------|
E|---------------------------|---------------------------|--------|---------------------------------|


E|-----0------------------|---------0-----------------------|-----0---------------------------|
B|-5-------0----0----0----|---------------------0---0-------|---------0---------------0---8---|
G|------------------------|-----5-----------4-----------2---|-------------2-------2-----------|
D|------------------------|-7-----------5-------------------|-3---------------3---------------|
A|------------------------|---------------------------------|---------------------------------|
E|------------------------|---------------------------------|---------------------------------|


E|---------0-----------0-----------|-----0---0---0---0---0---0----|-------------------------0----|
B|-----8-----------7-----------5---|-5---0---0---0---0---0---0----|---------0-----------0---0----|
G|-9-----------7-----------5-------|------------------------------|-----5-----------4-------2----|
D|---------------------------------|------------------------------|-7-----------5-----------3----|
A|---------------------------------|------------------------------|------------------------------|
E|---------------------------------|------------------------------|------------------------------|


E|-0------|---------------------------|---------------------------------|---------------------------|
B|-0------|-8--------7---7-------5----|-5-------------------------------|---------------------------|
G|-2------|-9--------7---7-------5----|-5---5---5---5---5---5---5---5---|-5--------4---4-------2----|
D|-3------|-9--------7---7-------5----|-5---5---5---5---5---5---5---5---|-7--------5---5-------3----|
A|--------|-7--------5---5-------3----|-3---3---3---3---3---3---3---3---|-7--------5---5-------3----|
E|--------|---------------------------|---------------------------------|-5--------3---3-------1----|


E|---------------------------------|------------------------------|---------------------------------|
B|---------------------------------|-8-------8---7-------7---5----|-5---5---5---5---5---5---5---5---|
G|-2-------------------------------|-9-------9---7-------7---5----|-5---5---5---5---5---5---5---5---|
D|-3---3---3---3---3---3-----------|-9-------9---7-------7---5----|-5---5---5---5---5---5---5---5---|
A|-3---3---3---3---3---3-----------|------------------------------|---------------------------------|
E|-1---1---1---1---1---1---0---0---|------------------------------|---------------------------------|


E|---------------------------|---------------------------------|---------------------------|
B|---------------------------|---------------------------------|-8--------7---7-------5----|
G|-5--------4---4-------2----|-2-------------------------------|-9--------7---7-------5----|
D|-7--------5---5-------3----|-3---3---3---3---3---3-----------|-9--------7---7-------5----|
A|-7--------5---5-------3----|-3---3---3---3---3---3-----------|-7--------5---5-------3----|
E|-5--------3---3-------1----|-1---1---1---1---1---1---0---0---|---------------------------|


E|---------------------------------|---------------------------|---------------------------------|
B|-5-------------------------------|---------------------------|---------------------------------|
G|-5---5---5---5---5---5---5---5---|-5--------4---4-------2----|-2-------------------------------|
D|-5---5---5---5---5---5---5---5---|-7--------5---5-------3----|-3---3---3---3---3---3-----------|
A|-3---3---3---3---3---3---3---3---|-7--------5---5-------3----|-3---3---3---3---3---3-----------|
E|---------------------------------|-5--------3---3-------1----|-1---1---1---1---1---1---0---0---|


E|------------------------------|---------------------------------|---------------------------|
B|-8-------8---7-------7---5----|-5---5---5---5---5---5---5---5---|---------------------------|
G|-9-------9---7-------7---5----|-5---5---5---5---5---5---5---5---|-5--------4---4-------2----|
D|-9-------9---7-------7---5----|-5---5---5---5---5---5---5---5---|-7--------5---5-------3----|
A|------------------------------|---------------------------------|-7--------5---5-------3----|
E|------------------------------|---------------------------------|-5--------3---3-------1----|


E|---------------------------------|-0------|-0------|-0------|-----------------|
B|---------------------------------|-0------|-0------|-0------|-----------------|
G|-2-------------------------------|-2------|-1------|-1------|-9----9----------|
D|-3---3---3---3---3---3-----------|-2------|-2------|-2------|-9----9----------|
A|-3---3---3---3---3---3-----------|-2------|-2------|-2------|-7----7----------|
E|-1---1---1---1---1---1---0---0---|-0------|-0------|-0------|-0----0----------|





Track 2: Gtr. 2

E|--------|--------|--------|--------|--------|--------|--------|--------|--------|
B|--------|--------|--------|--------|--------|--------|--------|--------|--------|
G|--------|--------|--------|--------|--------|--------|--------|--------|--------|
D|--------|--------|--------|--------|--------|--------|--------|--------|--------|
A|--------|--------|--------|--------|--------|--------|--------|--------|--------|
E|--------|--------|--------|--------|--------|--------|--------|--------|--------|


E|--------|--------|--------|--------|--------|--------|--------|--------|--------|
B|--------|--------|--------|--------|--------|--------|--------|--------|--------|
G|--------|--------|--------|--------|--------|--------|--------|--------|--------|
D|--------|--------|--------|--------|--------|--------|--------|--------|--------|
A|--------|--------|--------|--------|--------|--------|--------|--------|--------|
E|--------|--------|--------|--------|--------|--------|--------|--------|--------|


E|--------|--------|--------|--------|--------|--------|--------|-----------------------|
B|--------|--------|--------|--------|--------|--------|--------|-----------------------|
G|--------|--------|--------|--------|--------|--------|--------|-----------12--14--12--|
D|--------|--------|--------|--------|--------|--------|--------|-----------------------|
A|--------|--------|--------|--------|--------|--------|--------|-----------------------|
E|--------|--------|--------|--------|--------|--------|--------|-----------------------|


E|--------------------|--------|------------------------|------------------------|
B|--------------------|--------|-----------15--17-------|------------------------|
G|-14--16---16--16----|-16-----|------16------------14--|-14---12------11----11--|
D|--------------------|--------|------------------------|------------------------|
A|--------------------|--------|------------------------|------------------------|
E|--------------------|--------|------------------------|------------------------|


E|---------------------------|-------------|--------|-----------------------|------------------------|
B|---------------------------|-------------|--------|-----------------------|------------------------|
G|-11---11--11--11--11--11---|-11-----9----|-9------|-9---------12--14--12--|-14--16---16--16---16---|
D|---------------------------|-------------|--------|-----------------------|------------------------|
A|---------------------------|-------------|--------|-----------------------|------------------------|
E|---------------------------|-------------|--------|-----------------------|------------------------|


E|--------|------------------------|------------------------|---------------------------|
B|--------|-----------15--17-------|------------------------|---------------------------|
G|-16-----|------16------------14--|-14---12------11---11---|-11---11--11--11--11--11---|
D|--------|------------------------|------------------------|---------------------------|
A|--------|------------------------|------------------------|---------------------------|
E|--------|------------------------|------------------------|---------------------------|


E|----------------|---------------------|-----------------|--------------------------|
B|----------------|---------------------|-----------------|--------------------------|
G|-11-------------|---------------------|-----------------|-9-----11--11---12---14---|
D|--------12--14--|-14----12--12----9---|-9---9-----9-----|--------------------------|
A|----------------|---------------------|-----------------|--------------------------|
E|----------------|---------------------|-----------------|--------------------------|


E|--------------------|------------------------|----------------|--------------------------|
B|--------------------|-15--------15--17-------|----------------|--------------------------|
G|-16---14--16--16----|-------16-----------14--|-14-----14--7---|-9-----11--11---12---14---|
D|--------------------|------------------------|----------------|--------------------------|
A|--------------------|------------------------|----------------|--------------------------|
E|--------------------|------------------------|----------------|--------------------------|


E|--------------------|---------------------|-----------------------|------------------------|
B|--------------------|-17-------------15---|-15----15--------------|------------------------|
G|-16---14--16--16----|-------14--14--------|-----------12--14--12--|-14--16---16--16---16---|
D|--------------------|---------------------|-----------------------|------------------------|
A|--------------------|---------------------|-----------------------|------------------------|
E|--------------------|---------------------|-----------------------|------------------------|


E|--------|------------------------|------------------------|---------------------------|
B|--------|-----------15--17-------|------------------------|---------------------------|
G|-16-----|-16---16------------14--|-14---12------11----11--|-11---11--11--11--11--11---|
D|--------|------------------------|------------------------|---------------------------|
A|--------|------------------------|------------------------|---------------------------|
E|--------|------------------------|------------------------|---------------------------|


E|-------------|--------|-------------|---------------------|-----------------|---------------------|
B|-------------|--------|-------------|-12----12--12---10---|-10--------------|---------------------|
G|-11-----9----|-9------|-9------9----|---------------------|-------11---11---|-11----9---9----11---|
D|-------------|--------|-------------|---------------------|-----------------|---------------------|
A|-------------|--------|-------------|---------------------|-----------------|---------------------|
E|-------------|--------|-------------|---------------------|-----------------|---------------------|


E|-------------|---------------------|---------------------|--------|-------------|
B|-------------|-12----12--12---10---|-10------------------|--------|-------------|
G|-11----------|---------------------|-----11----11---9----|--------|-------------|
D|-------------|---------------------|---------------------|-9------|-9-----------|
A|-------------|---------------------|---------------------|--------|-------------|
E|-------------|---------------------|---------------------|--------|-------------|


E|--------------------------|-----------------|---------------------|-------------|
B|-12----12--12--12-12-10---|-10--------------|---------------------|-------------|
G|--------------------------|-------11---11---|-11----9---9----11---|-11----------|
D|--------------------------|-----------------|---------------------|-------------|
A|--------------------------|-----------------|---------------------|-------------|
E|--------------------------|-----------------|---------------------|-------------|


E|---------------------|----------------------|--------|---------------------|--------|
B|-10----12--12---12---|-12----10---10---8----|-10-----|-10---10---10---10---|-10-----|
G|---------------------|----------------------|--------|---------------------|--------|
D|---------------------|----------------------|--------|---------------------|--------|
A|---------------------|----------------------|--------|---------------------|--------|
E|---------------------|----------------------|--------|---------------------|--------|


E|--------|--------|--------|--------|--------|--------|--------|---------------------------|
B|-10-----|--------|--------|--------|--------|--------|--------|-0--------0---0----0-------|
G|--------|--------|--------|--------|--------|--------|--------|------2----------------2---|
D|--------|--------|--------|--------|--------|--------|--------|---------------------------|
A|--------|--------|--------|--------|--------|--------|--------|---------------------------|
E|--------|--------|--------|--------|--------|--------|--------|---------------------------|


E|---------------------------|------------------------------|------------------------|
B|-0----0-------0----0-------|-0--------0---0---0---0-------|-0----0----0----0-------|
G|----------2------------2---|------2-------------------2---|--------------------2---|
D|---------------------------|------------------------------|------------------------|
A|---------------------------|------------------------------|------------------------|
E|---------------------------|------------------------------|------------------------|


E|------------------------------|---------------------------------|---------------------------------|
B|-0----0---0---0---0---0-------|-0-------0-------0---0---0-------|-0-------0---0---0---0---0-------|
G|--------------------------2---|-----2-------2---------------2---|-----2-----------------------2---|
D|------------------------------|---------------------------------|---------------------------------|
A|------------------------------|---------------------------------|---------------------------------|
E|------------------------------|---------------------------------|---------------------------------|


E|---------------------------|------------------------|------------------------|----17-17-15-12----12-15-12----12--------------|
B|-0---0---0-------0---------|------17---17---17--17--|-17--17----17--17-------|----------------15----------15----12-15-12-----|
G|-------------2-------------|------------------------|------------------------|-------------------------------------------14--|
D|---------------------------|------------------------|------------------------|-----------------------------------------------|
A|---------------------------|------------------------|------------------------|-----------------------------------------------|
E|----------------------0----|-0----------------------|------------------------|-----------------------------------------------|


E|-12------------------------------------------|-------------------------------|--------------------------3--|
B|----12---------------------------------------|-------------------------------|-----------3-----3--5--7-----|
G|-------14--14-12-14------12--11--11--11--11--|-9---7---9---7---9---7----4----|-4-----0------6--------------|
D|---------------------14----------------------|-------------------------------|-----------------------------|
A|---------------------------------------------|-------------------------------|-----------------------------|
E|---------------------------------------------|-------------------------------|-----------------------------|


E|-5--7--5--3------------------------------------------------------|---------------------------------------------------|
B|-------------7--3--5--7--5--3------------------------------------|---------------------------------------------------|
G|-------------------------------7-5--4-5-7-5--4-5--7--9--7--5-----|---------------------------------------------------|
D|--------------------------------------------------------------9--|-7--5--4--5--7--5--4--5--7--9--7--5----------------|
A|-----------------------------------------------------------------|-------------------------------------5---7---9--10-|
E|-----------------------------------------------------------------|---------------------------------------------------|


E|-------------------------------------------------|-------------14----------14--15------------------|
B|-------------------------------------8---10--12--|-15--15--17------15--17------------------15--17--|
G|-------------7---9---11--7---9---11--------------|---------------------------------16--17----------|
D|-7---9---10--------------------------------------|-------------------------------------------------|
A|-------------------------------------------------|-------------------------------------------------|
E|-------------------------------------------------|-------------------------------------------------|


E|-14--15------14--15--17--14--15--17--19--15--17--|-----15------------------17---17--17-15-|
B|---------17--------------------------------------|-19------19--17--15--15-----------------|
G|-------------------------------------------------|----------------------------------------|
D|-------------------------------------------------|----------------------------------------|
A|-------------------------------------------------|----------------------------------------|
E|-------------------------------------------------|----------------------------------------|


E|-------12--14-15-12--14--|-14--14--14--12------12----------------------|------------------------------------------|
B|-17----------------------|-----------------15------15--13--12--15------|------------------------------------------|
G|-------------------------|-----------------------------------------14--|-14---14-12-------------------------------|
D|-------------------------|---------------------------------------------|------------14-12-------------------------|
A|-------------------------|---------------------------------------------|------------------14--12--10--------------|
E|-------------------------|---------------------------------------------|------------------------------12--10--12--|


E|-----------------|---------------------|-----------------|---------------------|
B|-----------------|-12----12--12---10---|-10--------------|---------------------|
G|-----------------|---------------------|-------11---11---|-11----9---9----11---|
D|-----------------|---------------------|-----------------|---------------------|
A|-12----12---0----|---------------------|-----------------|---------------------|
E|-----------------|---------------------|-----------------|---------------------|


E|-------------|-20-19-0--19-17-0--17-15-0--19-17-0--17-15-0--15-|-14-0--17-15-0--15-14-0--14-12-0--15-14-0--14-12-|
B|-------------|-------------------------------------------------|-------------------------------------------------|
G|-11----------|-------------------------------------------------|-------------------------------------------------|
D|-------------|-------------------------------------------------|-------------------------------------------------|
A|-------------|-------------------------------------------------|-------------------------------------------------|
E|-------------|-------------------------------------------------|-------------------------------------------------|


E|-0--12-10-9-----------12-10-0--10-8--7-----------8--|-7--0--------7--5--0---------------------|
B|-------------12-10-10-------------------10-8--7-----|-------7--0-----------7--5--0------------|
G|----------------------------------------------------|---------------------------------11------|
D|----------------------------------------------------|-----------------------------------------|
A|----------------------------------------------------|-----------------------------------------|
E|----------------------------------------------------|-----------------------------------------|


E|--------------------------|-----------------|---------------------|-------------|
B|-12----12--12--12-12-10---|-10--------------|---------------------|-------------|
G|--------------------------|-------11---11---|-11----9---9----11---|-11----------|
D|--------------------------|-----------------|---------------------|-------------|
A|--------------------------|-----------------|---------------------|-------------|
E|--------------------------|-----------------|---------------------|-------------|


E|-17-----|-17--------17---17---15---|-17-----|-17--17---17--17--17-------|-20-----|
B|--------|--------------------------|--------|---------------------------|--------|
G|--------|--------------------------|--------|---------------------------|--------|
D|--------|--------------------------|--------|---------------------------|--------|
A|--------|--------------------------|--------|---------------------------|--------|
E|--------|--------------------------|--------|---------------------------|--------|


E|-20----20---20---19---|-17----17--17---17---|-17--17--17------14--14--14------|------------------------|
B|----------------------|---------------------|-----------------------------15--|-15----15--15---15--13--|
G|----------------------|---------------------|---------------------------------|------------------------|
D|----------------------|---------------------|---------------------------------|------------------------|
A|----------------------|---------------------|---------------------------------|------------------------|
E|----------------------|---------------------|---------------------------------|------------------------|


E|----------------------------------|----------------------------------------|---------------------------|
B|-12--12--12-----------------------|----------------------------------------|---------------------------|
G|-------------14--12--12--11---12--|-12-11-9---11--12--12--11--11-12-11-7---|-7---5---7---7---7----9----|
D|----------------------------------|----------------------------------------|---------------------------|
A|----------------------------------|----------------------------------------|---------------------------|
E|----------------------------------|----------------------------------------|---------------------------|


E|------------------------------|-----------------------------------|------------------------------|
B|------------------------------|-----------------------------------|------------------------------|
G|-9----7---5---5---7---5---4---|-4---5---4--5--4--2---2---4----5---|-4---2---2---4---4---2---2----|
D|------------------------------|-----------------------------------|------------------------------|
A|------------------------------|-----------------------------------|------------------------------|
E|------------------------------|-----------------------------------|------------------------------|


E|-------------|-------------|------------------------------|--------|--------|--------|
B|-------------|-------------|------------------------------|--------|--------|--------|
G|-2----2------|-9------9----|-9---9---9---9---9---9---9----|--------|--------|--------|
D|-------------|-------------|------------------------------|--------|--------|--------|
A|-------------|-------------|------------------------------|--------|--------|--------|
E|-------------|-------------|------------------------------|--------|--------|--------|


E|--------|--------|--------|--------|--------|--------|--------|--------|--------|
B|--------|--------|--------|--------|--------|--------|--------|--------|--------|
G|--------|--------|--------|--------|--------|--------|--------|--------|--------|
D|--------|--------|--------|--------|--------|--------|--------|--------|--------|
A|--------|--------|--------|--------|--------|--------|--------|--------|--------|
E|--------|--------|--------|--------|--------|--------|--------|--------|--------|


E|--------|---------------------------------|-15-12-14-15-14----14-10-0--14-10-0--12-8--0--12-|
B|--------|---------------------------------|-------------------------------------------------|
G|--------|-2-------------------------------|-------------------------------------------------|
D|--------|-3---3---3---3---3---3-----------|-------------------------------------------------|
A|--------|-3---3---3---3---3---3-----------|-------------------------------------------------|
E|--------|-1---1---1---1---1---1---0---0---|-------------------------------------------------|


E|-8--0--12-8--0--12-8--0--12-8--0--12-8--0--12-8--7--|-8--5--0--8--5--0--7--3--0--7--3--0--5--1--0--5--|
B|----------------------------------------------------|-------------------------------------------------|
G|----------------------------------------------------|-------------------------------------------------|
D|----------------------------------------------------|-------------------------------------------------|
A|----------------------------------------------------|-------------------------------------------------|
E|----------------------------------------------------|-------------------------------------------------|


E|-1--0--5--1--0--5--1--0--5--1--0--5--0----|-14----14--14--14-14-12---|-12-----|--------------------------|
B|------------------------------------------|--------------------------|--------|-12----12--12--12-12-10---|
G|------------------------------------------|--------------------------|--------|--------------------------|
D|------------------------------------------|--------------------------|--------|--------------------------|
A|------------------------------------------|--------------------------|--------|--------------------------|
E|------------------------------------------|--------------------------|--------|--------------------------|


E|------------0--0--|-0------|-0------|-----------------|-----------------|
B|-10-----10--0--0--|-0------|-0------|-----------------|-----------------|
G|------------------|-2------|-1------|-----------------|-9----9----------|
D|------------------|-2------|-2------|-----------------|-9----9----------|
A|------------------|-2------|-2------|-----------------|-7----7----------|
E|------------------|-0------|-0------|-0----0----17----|-0----0----------|





Track 3: Gtr. 3

E|--------|--------|--------|--------|--------|--------|--------|--------|--------|
B|--------|--------|--------|--------|--------|--------|--------|--------|--------|
G|--------|--------|--------|--------|--------|--------|--------|--------|--------|
D|--------|--------|--------|--------|--------|--------|--------|--------|--------|
A|--------|--------|--------|--------|--------|--------|--------|--------|--------|
E|--------|--------|--------|--------|--------|--------|--------|--------|--------|


E|--------|--------|--------|--------|--------|--------|--------|--------|--------|
B|--------|--------|--------|--------|--------|--------|--------|--------|--------|
G|--------|--------|--------|--------|--------|--------|--------|--------|--------|
D|--------|--------|--------|--------|--------|--------|--------|--------|--------|
A|--------|--------|--------|--------|--------|--------|--------|--------|--------|
E|--------|--------|--------|--------|--------|--------|--------|--------|--------|


E|--------|--------|--------|--------|--------|--------|--------|--------|--------|
B|--------|--------|--------|--------|--------|--------|--------|--------|--------|
G|--------|--------|--------|--------|--------|--------|--------|--------|--------|
D|--------|--------|--------|--------|--------|--------|--------|--------|--------|
A|--------|--------|--------|--------|--------|--------|--------|--------|--------|
E|--------|--------|--------|--------|--------|--------|--------|--------|--------|


E|--------|--------|--------|--------|--------|--------|--------|--------|--------|
B|--------|--------|--------|--------|--------|--------|--------|--------|--------|
G|--------|--------|--------|--------|--------|--------|--------|--------|--------|
D|--------|--------|--------|--------|--------|--------|--------|--------|--------|
A|--------|--------|--------|--------|--------|--------|--------|--------|--------|
E|--------|--------|--------|--------|--------|--------|--------|--------|--------|


E|--------|--------|--------|--------|--------|--------|--------|--------|--------|
B|--------|--------|--------|--------|--------|--------|--------|--------|--------|
G|--------|--------|--------|--------|--------|--------|--------|--------|--------|
D|--------|--------|--------|--------|--------|--------|--------|--------|--------|
A|--------|--------|--------|--------|--------|--------|--------|--------|--------|
E|--------|--------|--------|--------|--------|--------|--------|--------|--------|


E|--------|--------|--------|--------|--------|--------|--------|--------|--------|
B|--------|--------|--------|--------|--------|--------|--------|--------|--------|
G|--------|--------|--------|--------|--------|--------|--------|--------|--------|
D|--------|--------|--------|--------|--------|--------|--------|--------|--------|
A|--------|--------|--------|--------|--------|--------|--------|--------|--------|
E|--------|--------|--------|--------|--------|--------|--------|--------|--------|


E|--------|--------|--------|--------|-19----19--19---17---|-17--------------|---------------------|
B|--------|--------|--------|--------|---------------------|-------19---19---|-19----17--17---19---|
G|--------|--------|--------|--------|---------------------|-----------------|---------------------|
D|--------|--------|--------|--------|---------------------|-----------------|---------------------|
A|--------|--------|--------|--------|---------------------|-----------------|---------------------|
E|--------|--------|--------|--------|---------------------|-----------------|---------------------|


E|-------------|-19----19--19---17---|-17------------------|--------|-------------|
B|-19----------|---------------------|-----19----19---17---|--------|-------------|
G|-------------|---------------------|---------------------|-16-----|-16----------|
D|-------------|---------------------|---------------------|--------|-------------|
A|-------------|---------------------|---------------------|--------|-------------|
E|-------------|---------------------|---------------------|--------|-------------|


E|-19----19--19--19-19-17---|-17--------------|---------------------|-------------|
B|--------------------------|-------19---19---|-19----17--17---19---|-19----------|
G|--------------------------|-----------------|----------------11---|-11----------|
D|--------------------------|-----------------|---------------------|-------------|
A|--------------------------|-----------------|---------------------|-------------|
E|--------------------------|-----------------|---------------------|-------------|


E|-17----19--19---19---|-19----17---17---15---|-17-----|-17---17-------------|--------|
B|---------------------|----------------------|--------|---------------------|--------|
G|---------------------|----------------------|--------|---------------------|--------|
D|---------------------|----------------------|--------|---------------------|--------|
A|---------------------|----------------------|--------|---------------------|--------|
E|---------------------|----------------------|--------|---------------------|--------|


E|--------|--------|--------|--------|--------|--------|--------|--------|--------|
B|--------|--------|--------|--------|--------|--------|--------|--------|--------|
G|--------|--------|--------|--------|--------|--------|--------|--------|--------|
D|--------|--------|--------|--------|--------|--------|--------|--------|--------|
A|--------|--------|--------|--------|--------|--------|--------|--------|--------|
E|--------|--------|--------|--------|--------|--------|--------|--------|--------|


E|--------|--------|--------|--------|--------|--------|--------|--------|--------|
B|--------|--------|--------|--------|--------|--------|--------|--------|--------|
G|--------|--------|--------|--------|--------|--------|--------|--------|--------|
D|--------|--------|--------|--------|--------|--------|--------|--------|--------|
A|--------|--------|--------|--------|--------|--------|--------|--------|--------|
E|--------|--------|--------|--------|--------|--------|--------|--------|--------|


E|--------|--------|--------|--------|--------|--------|--------|--------|--------|
B|--------|--------|--------|--------|--------|--------|--------|--------|--------|
G|--------|--------|--------|--------|--------|--------|--------|--------|--------|
D|--------|--------|--------|--------|--------|--------|--------|--------|--------|
A|--------|--------|--------|--------|--------|--------|--------|--------|--------|
E|--------|--------|--------|--------|--------|--------|--------|--------|--------|


E|--------|--------|--------|--------|-19----19--19---17---|-17--------------|---------------------|
B|--------|--------|--------|--------|---------------------|-------19---19---|-19----17--17---19---|
G|--------|--------|--------|--------|---------------------|-----------------|---------------------|
D|--------|--------|--------|--------|---------------------|-----------------|---------------------|
A|--------|--------|--------|--------|---------------------|-----------------|---------------------|
E|--------|--------|--------|--------|---------------------|-----------------|---------------------|


E|-------------|-19----19--19---17---|-17------------------|--------|-------------|
B|-19----------|---------------------|-----19----19---17---|--------|-------------|
G|-------------|---------------------|---------------------|-16-----|-16----------|
D|-------------|---------------------|---------------------|--------|-------------|
A|-------------|---------------------|---------------------|--------|-------------|
E|-------------|---------------------|---------------------|--------|-------------|


E|-19----19--19--19-19-17---|-17--------------|---------------------|-------------|
B|--------------------------|-------19---19---|-19----17--17---19---|-19----------|
G|--------------------------|-----------------|----------------11---|-11----------|
D|--------------------------|-----------------|---------------------|-------------|
A|--------------------------|-----------------|---------------------|-------------|
E|--------------------------|-----------------|---------------------|-------------|


E|-17----19--19---19---|-19----17---17---15---|-17-----|-17---17-------------|--------|
B|---------------------|----------------------|--------|---------------------|--------|
G|---------------------|----------------------|--------|---------------------|--------|
D|---------------------|----------------------|--------|---------------------|--------|
A|---------------------|----------------------|--------|---------------------|--------|
E|---------------------|----------------------|--------|---------------------|--------|


E|--------|--------|--------|--------|--------|--------|--------|--------|--------|
B|--------|--------|--------|--------|--------|--------|--------|--------|--------|
G|--------|--------|--------|--------|--------|--------|--------|--------|--------|
D|--------|--------|--------|--------|--------|--------|--------|--------|--------|
A|--------|--------|--------|--------|--------|--------|--------|--------|--------|
E|--------|--------|--------|--------|--------|--------|--------|--------|--------|


E|--------|--------|--------|--------|--------|--------|--------|--------|--------|
B|--------|--------|--------|--------|--------|--------|--------|--------|--------|
G|--------|--------|--------|--------|--------|--------|--------|--------|--------|
D|--------|--------|--------|--------|--------|--------|--------|--------|--------|
A|--------|--------|--------|--------|--------|--------|--------|--------|--------|
E|--------|--------|--------|--------|--------|--------|--------|--------|--------|


E|--------|--------|--------|--------|--------|--------|--------|--------|--------|
B|--------|--------|--------|--------|--------|--------|--------|--------|--------|
G|--------|--------|--------|--------|--------|--------|--------|--------|--------|
D|--------|--------|--------|--------|--------|--------|--------|--------|--------|
A|--------|--------|--------|--------|--------|--------|--------|--------|--------|
E|--------|--------|--------|--------|--------|--------|--------|--------|--------|


E|--------|--------|--------|--------|--------|--------|--------|--------|--------|
B|--------|--------|--------|--------|--------|--------|--------|--------|--------|
G|--------|--------|--------|--------|--------|--------|--------|--------|--------|
D|--------|--------|--------|--------|--------|--------|--------|--------|--------|
A|--------|--------|--------|--------|--------|--------|--------|--------|--------|
E|--------|--------|--------|--------|--------|--------|--------|--------|--------|


E|--------|--------|--------|
B|--------|--------|--------|
G|--------|--------|--------|
D|--------|--------|--------|
A|--------|--------|--------|
E|--------|--------|--------|





Track 4: Bass

G|--------|-------------------|--------|-------------------|--------|--------------------|
D|--------|-------------------|--------|-------------------|--------|--------------------|
A|--------|-------------------|-0------|-0-----0-----0--2--|-3------|-5------3--5--3--2--|
E|-0------|-0-----0-----0--1--|--------|-------------------|--------|--------------------|


G|-----------------|--------|--------|--------|--------|-------4-----|-------------4---|
D|-----------------|--------|--------|--------|-2------|-2-----------|-----------------|
A|-3-----3-----3---|-2------|--------|--------|--------|-------------|-3-----3---------|
E|-----------------|--------|-0------|-0------|--------|-------------|-----------------|


G|-4------|--------|-------4-----|-------------4---|-4------|------------------------|
D|--------|-2------|-2-----------|-----------------|--------|------2----2----2---2---|
A|--------|--------|-------------|-3-----3---------|--------|------------------------|
E|--------|--------|-------------|-----------------|--------|-0----------------------|


G|---------------------------------|------------------------|---------------------------------|
D|-2---2---2---2---2---2---2---2---|------------------------|---------------------------------|
A|---------------------------------|-3----3----3----3---2---|-2---2---2---2---2---2---2---2---|
E|---------------------------------|------------------------|---------------------------------|


G|------------------------|---------------------------------|------------------------|
D|------2----2----2---2---|-2---2---2---2---2---2---2---2---|------------------------|
A|------------------------|---------------------------------|-3----3----3----3---2---|
E|-0----------------------|---------------------------------|------------------------|


G|---------------------------------|------------------------|---------------------------------|
D|---------------------------------|------2----2----2---2---|-2---2---2---2---2---2---2---2---|
A|-2---2---2---2---2---2---2---2---|------------------------|---------------------------------|
E|---------------------------------|-0----------------------|---------------------------------|


G|------------------------|---------------------------------|------------------------|
D|------------------------|---------------------------------|------2----2----2---2---|
A|-3----3----3----3---2---|-2---2---2---2---2---2---2---2---|------------------------|
E|------------------------|---------------------------------|-0----------------------|


G|---------------------------------|------------------------|---------------------------------|
D|-2---2---2---2---2---2---2---2---|------------------------|---------------------------------|
A|---------------------------------|-3----3----3----3---2---|-2---2---2---2---2---2---2---2---|
E|---------------------------------|------------------------|---------------------------------|


G|------------------------|---------------------------------|------------------------|
D|------2----2----2---2---|-2---2---2---2---2---2---2---2---|------------------------|
A|------------------------|---------------------------------|-3----3----3----3---2---|
E|-0----------------------|---------------------------------|------------------------|


G|---------------------------------|------------------------|---------------------------------|
D|---------------------------------|------2----2----2---2---|-2---2---2---2---2---2---2---2---|
A|-2---2---2---2---2---2---2---2---|------------------------|---------------------------------|
E|---------------------------------|-0----------------------|---------------------------------|


G|------------------------|---------------------------------|------------------------|
D|------------------------|---------------------------------|------2----2----2---2---|
A|-3----3----3----3---2---|-2---2---2---2---2---2---2---2---|------------------------|
E|------------------------|---------------------------------|-0----------------------|


G|---------------------------------|------------------------|---------------------------------|
D|-2---2---2---2---2---2---2---2---|------------------------|---------------------------------|
A|---------------------------------|-3----3----3----3---2---|-2---2---2---2---2---2---2---2---|
E|---------------------------------|------------------------|---------------------------------|


G|------------------------|---------------------------------|------------------------|
D|------2----2----2---2---|-2---2---2---2---2---2---2---2---|------------------------|
A|------------------------|---------------------------------|-3----3----3----3---2---|
E|-0----------------------|---------------------------------|------------------------|


G|---------------------------------|------------------------|---------------------------------|
D|---------------------------------|------2----2----2---2---|-2---2---2---2---2---2---2---2---|
A|-2---2---2---2---2---2---2---2---|------------------------|---------------------------------|
E|---------------------------------|-0----------------------|---------------------------------|


G|------------------------|---------------------------------|------------------------|
D|------------------------|---------------------------------|------2----2----2---2---|
A|-3----3----3----3---2---|-2---2---2---2---2---2---2---2---|------------------------|
E|------------------------|---------------------------------|-0----------------------|


G|---------------------------------|------------------------|---------------------------------|
D|-2---2---2---2---2---2---2---2---|------------------------|---------------------------------|
A|---------------------------------|-3----3----3----3---2---|-2---2---2---2---2---2---2---2---|
E|---------------------------------|------------------------|---------------------------------|


G|---------------------------------|---------------------------------|---------------------------------|
D|---------------------------------|---------------------------------|---------------------------------|
A|-0---0---0---0---0---0---0---0---|-0---0---0---0---0---0---0---0---|---------------------------------|
E|---------------------------------|---------------------------------|-0---0---0---0---0---0---0---0---|


G|---------------------------------|---------------------------------|---------------------------------|
D|---------------------------------|---------------------------------|---------------------------------|
A|---------------------------------|-0---0---0---0---0---0---0---0---|-0---0---0---0---0---0---0---0---|
E|-0---0---0---0---0---0---0---0---|---------------------------------|---------------------------------|


G|---------------------------|--------|---------------------------------|---------------------------------|
D|---------------------------|--------|---------------------------------|---------------------------------|
A|---------------------------|--------|-0---0---0---0---0---0---0---0---|-0---0---0---0---0---0---0---0---|
E|-0----0---2---2---2---3----|-3------|---------------------------------|---------------------------------|


G|---------------------------------|---------------------------------|---------------------------------|
D|---------------------------------|---------------------------------|---------------------------------|
A|---------------------------------|---------------------------------|-3---3---3---3---3---3---3---3---|
E|-0---0---0---0---0---0---0---0---|-0---0---0---0---0---0---0---0---|---------------------------------|


G|---------------------------------|---------------------------------|--------|--------|
D|---------------------------------|---------------------------------|--------|--------|
A|-3---3---3---3---3---3---3---3---|-5---5---5---5---5---5---5---5---|-5------|--------|
E|---------------------------------|---------------------------------|--------|--------|


G|--------|--------|--------|--------|--------|--------|--------|--------|--------|
D|--------|--------|--------|--------|--------|--------|--------|--------|--------|
A|--------|--------|--------|--------|--------|--------|--------|--------|--------|
E|--------|--------|--------|--------|--------|--------|--------|--------|--------|


G|--------|--------|--------|--------|--------|--------|------------------------|---------------------------------|
D|--------|--------|--------|--------|--------|--------|------------------------|---------------------------------|
A|--------|--------|--------|--------|--------|--------|------7----7----7---7---|-7---7---7---7---7---7---7---7---|
E|--------|--------|--------|--------|--------|--------|-0----------------------|---------------------------------|


G|------------------------|---------------------------------|------------------------|
D|------------------------|---------------------------------|------------------------|
A|------------------------|---------------------------------|------7----7----7---7---|
E|-8----8----8----8---7---|-7---7---7---7---7---7---7---7---|-0----------------------|


G|---------------------------------|------------------------|---------------------------------|
D|---------------------------------|------------------------|---------------------------------|
A|-7---7---7---7---7---7---7---7---|------------------------|---------------------------------|
E|---------------------------------|-8----8----8----8---7---|-7---7---7---7---7---7---7---7---|


G|------------------------|---------------------------------|------------------------|
D|------------------------|---------------------------------|------------------------|
A|------7----7----7---7---|-7---7---7---7---7---7---7---7---|------------------------|
E|-0----------------------|---------------------------------|-8----8----8----8---7---|


G|---------------------------------|------------------------|---------------------------------|
D|---------------------------------|------------------------|---------------------------------|
A|---------------------------------|------7----7----7---7---|-7---7---7---7---7---7---7---7---|
E|-7---7---7---7---7---7---7---7---|-0----------------------|---------------------------------|


G|------------------------|---------------------------------|---------------------------------|
D|------------------------|---------------------------------|---------------------------------|
A|------------------------|---------------------------------|---------------------------------|
E|-8----8----8----8---7---|-7---7---7---7---7---7---7---7---|-5---5---5---5---5---5---5---5---|


G|---------------------------------|---------------------------------|---------------------------------|
D|---------------------------------|---------------------------------|---------------------------------|
A|---------------------------------|---------------------------------|---------------------------------|
E|-5---5---5---5---5---5---5---5---|-0---0---0---0---0---0---0---0---|-0---0---0---0---0---0---0---0---|


G|---------------------------------|---------------------------------|---------------------------|
D|---------------------------------|---------------------------------|---------------------------|
A|---------------------------------|---------------------------------|---------------------------|
E|-5---5---5---5---5---5---5---5---|-5---5---5---5---5---5---5---5---|-0----0---2---2---2---3----|


G|--------|---------------------------------|---------------------------------|---------------------------------|
D|--------|---------------------------------|---------------------------------|---------------------------------|
A|--------|-0---0---0---0---0---0---0---0---|-0---0---0---0---0---0---0---0---|---------------------------------|
E|-3------|---------------------------------|---------------------------------|-0---0---0---0---0---0---0---0---|


G|---------------------------------|---------------------------------|---------------------------------|
D|---------------------------------|---------------------------------|---------------------------------|
A|---------------------------------|-3---3---3---3---3---3---3---3---|-3---3---3---3---3---3---3---3---|
E|-0---0---0---0---0---0---0---0---|---------------------------------|---------------------------------|


G|---------------------------------|---------------------------------|---------------------------------|
D|---------------------------------|---------------------------------|---------------------------------|
A|-5---5---5---5---5---5---5---5---|-5---5---5---5---5---5---5---5---|-3---3---3---3---3---3---3---3---|
E|---------------------------------|---------------------------------|---------------------------------|


G|---------------------------------|---------------------------------|---------------------------------|
D|---------------------------------|---------------------------------|---------------------------------|
A|-3---3---3---3---3---3---3---3---|-5---5---5---5---5---5---5---5---|-5---5---5---5---5---5---5---5---|
E|---------------------------------|---------------------------------|---------------------------------|


G|---------------------------------|---------------------------------|---------------------------------|
D|---------------------------------|---------------------------------|---------------------------------|
A|-3---3---3---3---3---3---3---3---|-3---3---3---3---3---3---3---3---|-5---5---5---5---5---5---5---5---|
E|---------------------------------|---------------------------------|---------------------------------|


G|---------------------------------|---------------------------------|---------------------------------|
D|---------------------------------|---------------------------------|---------------------------------|
A|-5---5---5---5---5---5---5---5---|-3---3---3---3---3---3---3---3---|-3---3---3---3---3---3---3---3---|
E|---------------------------------|---------------------------------|---------------------------------|


G|---------------------------------|--------|--------|--------|--------|--------|--------|
D|---------------------------------|--------|--------|--------|--------|--------|--------|
A|-5---5---5---5---5---5---5---5---|-5------|--------|--------|--------|--------|--------|
E|---------------------------------|--------|--------|--------|--------|--------|--------|


G|--------|--------|--------|------------------------|---------------------------------|
D|--------|--------|--------|------------------------|---------------------------------|
A|--------|--------|--------|-7--------5---5----3----|-3---3---3---3---3---3---3---3---|
E|--------|--------|--------|------------------------|---------------------------------|


G|------------------------|---------------------------------|------------------------|
D|------------------------|---------------------------------|-2--------0---0---------|
A|-0----------------------|---------------------------------|-------------------3----|
E|----------3---3----1----|-1---1---1---1---1---1---0---0---|------------------------|


G|---------------------------------|------------------------|---------------------------------|
D|---------------------------------|------------------------|---------------------------------|
A|-3---3---3---3---3---3---3---3---|-0----------------------|---------------------------------|
E|---------------------------------|----------3---3----1----|-1---1---1---1---1---1---0---0---|


G|------------------------|---------------------------------|------------------------|
D|-2--------0---0---------|---------------------------------|------------------------|
A|-------------------3----|-3---3---3---3---3---3---3---3---|-0----------------------|
E|------------------------|---------------------------------|----------3---3----1----|


G|---------------------------------|------------------------|---------------------------------|
D|---------------------------------|-2--------0---0---------|---------------------------------|
A|---------------------------------|-------------------3----|-3---3---3---3---3---3---3---3---|
E|-1---1---1---1---1---1---0---0---|------------------------|---------------------------------|


G|------------------------|---------------------------------|--------|--------|--------|
D|------------------------|---------------------------------|--------|--------|--------|
A|-0----------------------|---------------------------------|--------|--------|--------|
E|----------3---3----1----|-1---1---1---1---1---1---0---0---|-0------|-0------|-0------|


G|-----------------|
D|-----------------|
A|-----------------|
E|-0----0----------|