Menu:

 

Search:

 

joe satriani - killer bee bop:

 



Title: Killer Bee Bop
Artist: 
Album: Joe Satriani
Author: Joe Satriani


Track 1: Gtr. 1

E|--------|--------|--------|--------|--------|--------|--------|--------|--------|
B|--------|--------|--------|--------|--------|--------|--------|--------|--------|
G|--------|--------|--------|--------|--------|--------|--------|--------|--------|
D|--------|--------|--------|--------|--------|--------|--------|--------|--------|
A|--------|--------|--------|--------|--------|--------|--------|--------|--------|
E|--------|--------|--------|--------|--------|--------|--------|--------|--------|


E|--------|--------|--------|--------|--------|--------|--------|--------|--------|
B|--------|--------|--------|--------|--------|--------|--------|--------|--------|
G|--------|--------|--------|--------|--------|--------|--------|--------|--------|
D|--------|--------|--------|--------|--------|--------|--------|--------|--------|
A|--------|--------|--------|--------|--------|--------|--------|--------|--------|
E|--------|--------|--------|--------|--------|--------|--------|--------|--------|


E|--------|--------|--------|--------|--------|--------|--------|--------|--------|
B|--------|--------|--------|--------|--------|--------|--------|--------|--------|
G|--------|--------|--------|--------|--------|--------|--------|--------|--------|
D|--------|--------|--------|--------|--------|--------|--------|--------|--------|
A|--------|--------|--------|--------|--------|--------|--------|--------|--------|
E|--------|--------|--------|--------|--------|--------|--------|--------|--------|


E|--------|--------|--------|--------|--------|--------------------------------------|
B|--------|--------|--------|--------|--------|--------------------------------------|
G|--------|--------|--------|--------|--------|-3--4--3--5--4--3--2--0---------------|
D|--------|--------|--------|--------|--------|-------------------------2------------|
A|--------|--------|--------|--------|--------|--------------------------------------|
E|--------|--------|--------|--------|--------|--------------------------------------|


E|--------------------------------------|-------------------------------------------------|
B|--------------------------------------|-------------------------------------------------|
G|-3--4--3--5--4--3--2--0---------------|-3--4--3--5--4--3--2--0--3--4--3--5--4--3--2--0--|
D|-------------------------2------------|-------------------------------------------------|
A|--------------------------------------|-------------------------------------------------|
E|--------------------------------------|-------------------------------------------------|


E|--------------------------------------|--------------------------------------|--------------------------------------|
B|--------------------------------------|--------------------------------------|--------------------------------------|
G|-3--4--3--5--4--3--2--0---------------|-3--4--3--5--4--3--2--0---------------|-3--4--3--5--4--3--2--0---------------|
D|-------------------------2------------|-------------------------2------------|-------------------------2------------|
A|--------------------------------------|--------------------------------------|--------------------------------------|
E|--------------------------------------|--------------------------------------|--------------------------------------|


E|-------------------------------------------------|--------------------------------------|
B|-------------------------------------------------|--------------------------------------|
G|-3--4--3--5--4--3--2--0--3--4--3--5--4--3--2--0--|-3--4--3--5--4--3--2--0---------------|
D|-------------------------------------------------|-------------------------2------------|
A|-------------------------------------------------|--------------------------------------|
E|-------------------------------------------------|--------------------------------------|


E|--------------------------------------|--------------------------------------|-------------------------------------------------|
B|--------------------------------------|--------------------------------------|-------------------------------------------------|
G|--------------------------------------|--------------------------------------|-3--4--3--5--4--3--2--0--3--4--3--5--4--3--2--0--|
D|-3--4--3--5--4--3--2--0---------------|-1--2--1--3--2--1--0------------------|-------------------------------------------------|
A|-------------------------2------------|----------------------3--0------------|-------------------------------------------------|
E|--------------------------------------|--------------------------------------|-------------------------------------------------|


E|-----------------------------------|------------------------|---------------------|
B|-----------------------------------|------------------------|---------------------|
G|-3--4--3--5--4--3--2--0------------|-9-----7---9----12--12--|-14----12--9-----7---|
D|-------------------------2---------|------------------------|---------------------|
A|-----------------------------------|-7-----5---7----10--10--|-12----10--7-----5---|
E|-----------------------------17----|------------------------|---------------------|


E|---------------------------|---------------------------|------------------------|
B|---------------------------|-----------12---15-15------|------------------------|
G|-9----12---14--12--9---7---|-9--------------14-14--12--|-12--9----7---9-----12--|
D|---------------------------|-----------9----12-12--12--|-12---------------------|
A|-7----10---12--10--7---5---|-7-------------------------|-----7----5---7-----10--|
E|---------------------------|-------0-------------------|------------------------|


E|------------------------|---------------------------|-----------------------|------------------------|
B|------------------------|---------------------------|-----------------------|------------------------|
G|-14---12---9----7-------|-9---15----14--12--9---7---|-9-----9---9-----------|-11----11--11--11-------|
D|------------------------|---------------------------|-----------------------|-9-----9---9---9--------|
A|-12---10---7----5---7---|-7---13----12--10--7---5---|-7-----7---7-----------|------------------------|
E|------------------------|---------------------------|---------------0---0---|--------------------0---|


E|------------------------|-------0---0-----|------------------------|---------------------------|
B|------------------------|-------0---0-----|------------------------|---------------------------|
G|-10----9---9---7----5---|-4-----4---4-----|------------------------|-11-------11--11--11-------|
D|-8-----7---7---5----3---|-2-----2---2-----|------------------------|-9----9---9---9---9--------|
A|------------------------|-----------------|-7----7----7------------|---------------------------|
E|------------------------|-----------------|----------------0---0---|-----------------------0---|


E|---------------------------|------------------------|-----------0-----|--------------------------------------|
B|---------------------------|-------0---12---12------|-----------0-----|--------------------------------------|
G|-10-------9---9---7----4---|-11---------------------|-----------2-----|-3--4--3--5--4--3--2--0---------------|
D|-8--------7---7---5----2---|-9----------------------|-----------3-----|-------------------------2------------|
A|---------------------------|------------------------|-3-----3---------|--------------------------------------|
E|------0--------------------|------------------------|-1-----1---------|-----------------------------0--------|


E|--------------------------------------|-------------------------------------------------|
B|--------------------------------------|-------------------------------------------------|
G|-3--4--3--5--4--3--2--0---------------|-3--4--3--5--4--3--2--0--3--4--3--5--4--3--2--0--|
D|-------------------------2------------|-------------------------------------------------|
A|--------------------------------------|-------------------------------------------------|
E|-----------------------------0--------|-------------------------------------------------|


E|--------------------------------------|--------|--------|-4--5--4--2-----2--4--5--4--2-----2--4--2--5--2--|
B|--------------------------------------|--------|--------|-------------5-----------------5-----------------|
G|-3--4--3--5--4--3--2--0---------------|--------|--------|-------------------------------------------------|
D|-------------------------2------------|--------|--------|-------------------------------------------------|
A|--------------------------------------|-29-----|-19-----|-------------------------------------------------|
E|--------------------------------------|-29-----|-19-----|-------------------------------------------------|


E|-4--2-----2--4--5--4--2-----2--4--5--4--2-----2--|-7--2--4--------5--7--2-----5---2--7--5--2-----7--5--2--|
B|-------5-----------------5-----------------5-----|--------------0----------5------------------5-----------|
G|-------------------------------------------------|------------0-------------------------------------------|
D|-------------------------------------------------|----------0---------------------------------------------|
A|-------------------------------------------------|--------------------------------------------------------|
E|-------------------------------------------------|--------------------------------------------------------|


E|-5--7--5--2-----7--5--2--5--7--5--2-----5--2--5--2--4--5--|-4--2--5--2--4--5--4--2-------------------------------|
B|-------------5-----------------------5-----2--5--2--------|-------------------------5--2--4---4--2--0--4--2--4---|
G|----------------------------------------------------------|------------------------------------------------------|
D|----------------------------------------------------------|------------------------------------------------------|
A|----------------------------------------------------------|------------------------------------------------------|
E|----------------------------------------------------------|------------------------------------------------------|


E|-------------------------------------------|----------------------------------------------------|
B|-2---5--2--4--2-----2--4---2--4--2---5--4--|-2--5--2--4--2--5--2--4--5--4--2-----2--4--2--------|
G|-----------------4-------------------------|----------------------------------5-----------5--2--|
D|-------------------------------------------|----------------------------------------------------|
A|-------------------------------------------|----------------------------------------------------|
E|-------------------------------------------|----------------------------------------------------|


E|-----------------------------------------|-------------|----------------------|--------------------------|
B|--------------------------------2--------|-------------|----------------------|--------------------------|
G|-5--4--2--5--4--2-----4--2------2--------|-------0-----|-0-----0----0----0----|-0----0----0----0----5----|
D|-------------------4--------4------------|-------------|----------------------|---------------------5----|
A|-----------------------------------------|-------------|----------------------|--------------------------|
E|------------------------------------12---|-------------|----------------------|--------------------------|


E|----------------3---0---|-0--3--0--0--3--2--0--0--3--2--0-----3--2--0--2--3--2--0-----|
B|----------------3---0---|-0--------------------------------3-----------------------3--|
G|-5---5-----5------------|-------------------------------------------------------------|
D|-5---5-----5------------|-------------------------------------------------------------|
A|------------------------|-------------------------------------------------------------|
E|------------------------|-------------------------------------------------------------|


E|-3--2--0-----3--2--0-----3--2--0--5--3--0--5--3--0--3---|-2--3--2--0------------------------------------|
B|----------3-----------3---------------------------------|-------------4---------------------------------|
G|--------------------------------------------------------|----------------5------5--4--7--5--4-----4--5--|
D|--------------------------------------------------------|--------------------------------------7--------|
A|--------------------------------------------------------|-----------------------------------------------|
E|--------------------------------------------------------|-----------------------------------------------|


E|----------------------------------------|---------------------------------|---------------------------------|
B|----------------------------------------|---------------------------------|---------------------------------|
G|-4-----4-----------------------4--------|-8----8--8---8---8---7---8---10--|-8----8--8---8---8---7---5---7---|
D|----7-----7--5--4--7--5--4--7-----------|-8----8--8---8---8---7---8---10--|-8----8--8---8---8---7---5---7---|
A|----------------------------------------|---------------------------------|---------------------------------|
E|----------------------------------------|---------------------------------|---------------------------------|


E|---------------------|---------------------------|---------------------------|------------------------------|
B|------8----10---11---|-10--8----10--8------------|---------------------------|------------------------------|
G|-7----8----10---11---|-10--8----10--8------------|-11----12--12--12--13--13--|-13--14---14--15--15--15--16--|
D|-7----8----10---11---|-10--8----10--8------------|-11----12--12--12--13--13--|-13--14---14--15--15--15--16--|
A|---------------------|-------------------9---9---|---------------------------|------------------------------|
E|---------------------|---------------------------|---------------------------|------------------------------|


E|------------------------------|---------------------------|----------------16----|
B|------------------------------|---------------------------|-----------16---------|
G|-16---17--17--17--18--18--18--|-19--19--19--20--20--------|------15--------------|
D|-16---17--17--17--18--18--18--|-19--19--19--20--20--------|-13-------------------|
A|------------------------------|---------------------------|----------------------|
E|------------------------------|---------------------------|----------------------|


E|-19-19-19-------16-16-16----|-18--18--18--18--18---------------|-21-21-21-21-21------19--19--19------|
B|-17-17-17-------14-14-14----|-16--16--16--16--16---------------|-19-19-19-19-19------17--17--17------|
G|-16-16-16-------13-13-13----|-15--15--15--15--15---18-18-18-18-|-18-18-18-18-18--16--16--16--16------|
D|-14-14-14---14--11-11-11----|-13--13--13--13--13---16-16-16-16-|-16-16-16-16-16--14--14--14--14------|
A|----------------------------|----------------------------------|-------------------------------------|
E|----------------------------|----------------------------------|-------------------------------------|


E|-18-15-11-18-16-11-16-18-16-11----18-16-11-18-16-11-16-|-17-16-------18-11-17-17-11----18-16-------17-16-11----18-16-|
B|-------------------------------16----------------------|-------11-16----------------11-------11-16----------16-------|
G|-------------------------------------------------------|-------------------------------------------------------------|
D|-------------------------------------------------------|-------------------------------------------------------------|
A|-------------------------------------------------------|-------------------------------------------------------------|
E|-------------------------------------------------------|-------------------------------------------------------------|


E|-------17-16-11----18-16-------17-16-11----18-16-11-16-17-16-11-------|-18------------------|
B|-11-16----------16-------11-16----------16----------------------11-16-|---------------------|
G|----------------------------------------------------------------------|---------------------|
D|----------------------------------------------------------------------|------28-------------|
A|----------------------------------------------------------------------|-----------13---9----|
E|----------------------------------------------------------------------|-----------13---8----|


E|---------------------------------|-4----4--4---4---4---2---4-------|---------------------------------|
B|---------------------------------|-------------2---2---2---2-------|---------------------------------|
G|-4----4--4---4---4---2---4---2---|-------------2---2---2---2---2---|-4----4--4---4---4---2---4---2---|
D|-4----4--4---4---4---2---4---2---|-----------------------------2---|-4----4--4---4---4---2---4---2---|
A|---------------------------------|---------------------------------|---------------------------------|
E|---------------------------------|---------------------------------|---------------------------------|


E|-4----4--4-----------------------|--------|--------|--------|------0------|---------------------------------|
B|-2----2--2-----------------------|--------|--------|--------|------0------|---------------------------------|
G|-2----2--2-----------2---4---4---|--------|--------|--------|------2------|---------------------------------|
D|---------------------2---4---4---|--------|--------|--------|------3------|---------------------------------|
A|---------------------------------|-2------|-2------|-2------|------3------|---------------------------------|
E|-------------9---5---------------|--------|--------|--------|-12---1------|-0--0--0----0--0--0----0--0--0---|


E|--------------------|---------------------------------|--------------------|---------------------------------|
B|--------------------|---------------------------------|--------------------|---------------------------------|
G|--------------------|---------------------------------|--------------------|---------------------------------|
D|--------------------|---------------------------------|--------------------|---------------------------------|
A|--------------------|---------------------------------|--------------------|---------------------------------|
E|-0------------------|-0--0--0----0--0--0----0--0--0---|-0------------------|-0--0--0----0--0--0----0--0--0---|


E|--------------------|---------------------------------|--------------------|--------|
B|--------------------|---------------------------------|--------------------|--------|
G|--------------------|---------------------------------|--------------------|--------|
D|--------------------|---------------------------------|--------------------|--------|
A|--------------------|---------------------------------|--------------------|--------|
E|-0------------------|-0--0--0----0--0--0----0--0--0---|-0------------------|--------|


E|--------|--------|--------|--------|--------|-------------------------------------------------|
B|--------|--------|--------|--------|--------|-12-11-0--11-10-0--10-9--0--9--8--0--8--7--0--7--|
G|--------|--------|--------|--------|--------|-------------------------------------------------|
D|--------|--------|--------|--------|--------|-------------------------------------------------|
A|--------|--------|--------|--------|--------|-------------------------------------------------|
E|--------|--------|--------|--------|--------|-------------------------------------------------|


E|-----------------------------------------------|-------------------------------------------------|
B|-6--0--6--5--0--5--4--0--4--3--0--3--2--1--0---|-12-11-0--11-10-0--10-9--0--9--8--0--8--7--0--7--|
G|-----------------------------------------------|-------------------------------------------------|
D|-----------------------------------------------|-------------------------------------------------|
A|-----------------------------------------------|-------------------------------------------------|
E|-----------------------------------------------|-------------------------------------------------|


E|-----------------------------------------------|-------------------------------------------------|
B|-6--0--6--5--0--5--4--0--4--3--0--3--2--1--0---|-12-11-0--11-10-0--10-9--0--9--8--0--8--7--0--7--|
G|-----------------------------------------------|-------------------------------------------------|
D|-----------------------------------------------|-------------------------------------------------|
A|-----------------------------------------------|-------------------------------------------------|
E|-----------------------------------------------|-------------------------------------------------|


E|-----------------------------------------------|-------------------------------------------------|
B|-6--0--6--5--0--5--4--0--4--3--0--3--2--1--0---|-12-11-0--13-11-0--14-13-0--15-14-0--16-15-0--17-|
G|-----------------------------------------------|-------------------------------------------------|
D|-----------------------------------------------|-------------------------------------------------|
A|-----------------------------------------------|-------------------------------------------------|
E|-----------------------------------------------|-------------------------------------------------|


E|-------------------------19--19----|--------------------------------------|--------------------------------------|
B|-16-0--18-17-0--19-18-0------------|--------------------------------------|--------------------------------------|
G|-----------------------------------|-3--4--3--5--4--3--2--0---------------|-3--4--3--5--4--3--2--0---------------|
D|-----------------------------------|-------------------------2------------|-------------------------2------------|
A|-----------------------------------|--------------------------------------|--------------------------------------|
E|-----------------------------------|--------------------------------------|--------------------------------------|


E|-------------------------------------------------|--------------------------------------|
B|-------------------------------------------------|--------------------------------------|
G|-3--4--3--5--4--3--2--0--3--4--3--5--4--3--2--0--|-3--4--3--5--4--3--2--0---------------|
D|-------------------------------------------------|-------------------------2------------|
A|-------------------------------------------------|--------------------------------------|
E|-------------------------------------------------|--------------------------------------|


E|--------------------------------------|--------------------------------------|-------------------------------------------------|
B|--------------------------------------|--------------------------------------|-------------------------------------------------|
G|-3--4--3--5--4--3--2--0---------------|-3--4--3--5--4--3--2--0---------------|-3--4--3--5--4--3--2--0--3--4--3--5--4--3--2--0--|
D|-------------------------2------------|-------------------------2------------|-------------------------------------------------|
A|--------------------------------------|--------------------------------------|-------------------------------------------------|
E|--------------------------------------|--------------------------------------|-------------------------------------------------|


E|--------------------------------------|--------------------------------------|--------------------------------------|
B|--------------------------------------|--------------------------------------|--------------------------------------|
G|-3--4--3--5--4--3--2--0---------------|--------------------------------------|--------------------------------------|
D|-------------------------2------------|-3--4--3--5--4--3--2--0---------------|-1--2--1--3--2--1--0------------------|
A|--------------------------------------|-------------------------2------------|----------------------3--0------------|
E|--------------------------------------|--------------------------------------|--------------------------------------|


E|-------------------------------------------------|-----------------------------------|
B|-------------------------------------------------|-----------------------------------|
G|-3--4--3--5--4--3--2--0--3--4--3--5--4--3--2--0--|-3--4--3--5--4--3--2--0------------|
D|-------------------------------------------------|-------------------------2---------|
A|-------------------------------------------------|-----------------------------------|
E|-------------------------------------------------|-----------------------------17----|


E|------------------------|---------------------|---------------------------|---------------------------|
B|------------------------|---------------------|---------------------------|-----------12---15-15------|
G|-9-----7---9----12--12--|-14----12--9-----7---|-9----12---14--12--9---7---|-9--------------14-14--12--|
D|------------------------|---------------------|---------------------------|-----------9----12-12--12--|
A|-7-----5---7----10--10--|-12----10--7-----5---|-7----10---12--10--7---5---|-7-------------------------|
E|------------------------|---------------------|---------------------------|-------0-------------------|


E|------------------------|------------------------|---------------------------|-----------------------|
B|------------------------|------------------------|---------------------------|-----------------------|
G|-12--9----7---9-----12--|-14---12---9----7-------|-9---15----14--12--9---7---|-9-----9---9-----------|
D|-12---------------------|------------------------|---------------------------|-----------------------|
A|-----7----5---7-----10--|-12---10---7----5---7---|-7---13----12--10--7---5---|-7-----7---7-----------|
E|------------------------|------------------------|---------------------------|---------------0---0---|


E|------------------------|------------------------|-------0---0-----|------------------------|
B|------------------------|------------------------|-------0---0-----|------------------------|
G|-11----11--11--11-------|-10----9---9---7----5---|-4-----4---4-----|------------------------|
D|-9-----9---9---9--------|-8-----7---7---5----3---|-2-----2---2-----|------------------------|
A|------------------------|------------------------|-----------------|-7----7----7------------|
E|--------------------0---|------------------------|-----------------|----------------0---0---|


E|---------------------------|---------------------------|-------------------------14-14-14-14-14-14-----|
B|---------------------------|---------------------------|-------------------------12-12-12-12-12-12-----|
G|-11-------11--11--11-------|-10-------9---9---7----4---|-------------------------11-11-11-11-11-11-11--|
D|-9----9---9---9---9--------|-8--------7---7---5----2---|-9--9--9--9--9--9--9--9--9--9--9--9--9--9--9---|
A|---------------------------|---------------------------|-----------------------------------------------|
E|-----------------------0---|------0--------------------|-----------------------------------------------|


E|------------------12-12------------------|-----------------------14-14-------------------|
B|---------10-10-10-10-10-10-10-10-10------|-----12-12-12-12-12-12-------12-12-------------|
G|-7---9---9--9--9--------9--9--9--9---9---|-11--11-11-11-11-11-11-------------11-11-------|
D|-5---7---7--7--7--------7--7--7--7---7---|-9---9--9--9--9--9--9--------------------9--9--|
A|-----------------------------------------|-----------------------------------------------|
E|-----------------------------------------|-----------------------------------------------|


E|-------------------------15-15-15-15-15-15-----|-14-14-14-14-14-14-14-14-12-12-12-12-12-12-12-12-|
B|-------13-13-13-13-13-13-13-13-13-13-13-13-----|-12-12-12-12-12-12-12-12-10-10-10-10-10-10-10-10-|
G|-12-12-12-12-12-12-12-12-12-12-12-12-12-12-----|-11-11-11-11-11-11-11-11-9--9--9--9--9--9--9--9--|
D|-10-10-10-10-10-10-10-10-10-10-10-10-10-10-9---|-9--9--9--9--9--9--9--9--7--7--7--7--7--7--7--7--|
A|-----------------------------------------------|-------------------------------------------------|
E|-----------------------------------------------|-------------------------------------------------|


E|-14-14-14-14-14-14-14-14-15-15-15-15-15-15-------|-14--14--15--15-16-16-16-16--17--17--|
B|-12-12-12-12-12-12-12-12-13-13-13-13-13-13-------|-12--12--13--13-14-14-14-14--15--15--|
G|-11-11-11-11-11-11-11-11-12-12-12-12-12-12-11-11-|-11--11--12--12-13-13-13-13--14--14--|
D|-9--9--9--9--9--9--9--9--10-10-10-10-10-10-------|-9---9---10--10-11-11-11-11--12--12--|
A|-------------------------------------------------|-------------------------------------|
E|-------------------------------------------------|-------------------------------------|


E|-18--18-18-19-------------|--------------------------------------|--------------------------------------|
B|-16--16-16-17-------------|--------------------------------------|--------------------------------------|
G|-15--15-15-16-------------|-3--4--3--5--4--3--2--0---------------|-3--4--3--5--4--3--2--0---------------|
D|-13--13-13-14-------------|-------------------------2------------|-------------------------2------------|
A|--------------------------|--------------------------------------|--------------------------------------|
E|----------------19---12---|-----------------------------0--------|-----------------------------0--------|


E|-------------------------------------------------|--------------------------------------|
B|-------------------------------------------------|--------------------------------------|
G|-3--4--3--5--4--3--2--0--3--4--3--5--4--3--2--0--|-3--4--3--5--4--3--2--0---------------|
D|-------------------------------------------------|-------------------------2------------|
A|-------------------------------------------------|--------------------------------------|
E|-------------------------------------------------|--------------------------------------|


E|---------------------------------|--------------------|
B|---------------------------------|--------------------|
G|---------------------------------|--------------------|
D|---------------------------------|--------------------|
A|---------------------------------|--------------------|
E|-0--0--0----0--0--0----0--0--0---|-0------------------|





Track 2: Gtr. 2

E|--------|--------|--------|--------|--------|--------|--------|--------|--------|
B|--------|--------|--------|--------|--------|--------|--------|--------|--------|
G|--------|--------|--------|--------|--------|--------|--------|--------|--------|
D|--------|--------|--------|--------|--------|--------|--------|--------|--------|
A|--------|--------|--------|--------|--------|--------|--------|--------|--------|
E|--------|--------|--------|--------|--------|--------|--------|--------|--------|


E|--------|--------|--------|--------|--------|--------|--------|--------|--------|
B|--------|--------|--------|--------|--------|--------|--------|--------|--------|
G|--------|--------|--------|--------|--------|--------|--------|--------|--------|
D|--------|--------|--------|--------|--------|--------|--------|--------|--------|
A|--------|--------|--------|--------|--------|--------|--------|--------|--------|
E|--------|--------|--------|--------|--------|--------|--------|--------|--------|


E|--------|--------|--------|--------|--------|--------|--------|--------|--------|
B|--------|--------|--------|--------|--------|--------|--------|--------|--------|
G|--------|--------|--------|--------|--------|--------|--------|--------|--------|
D|--------|--------|--------|--------|--------|--------|--------|--------|--------|
A|--------|--------|--------|--------|--------|--------|--------|--------|--------|
E|--------|--------|--------|--------|--------|--------|--------|--------|--------|


E|--------|--------|--------|--------|--------|--------|--------|--------|--------|
B|--------|--------|--------|--------|--------|--------|--------|--------|--------|
G|--------|--------|--------|--------|--------|--------|--------|--------|--------|
D|--------|--------|--------|--------|--------|--------|--------|--------|--------|
A|--------|--------|--------|--------|--------|--------|--------|--------|--------|
E|--------|--------|--------|--------|--------|--------|--------|--------|--------|


E|--------|--------|--------|--------|--------|--------|--------|--------|--------|
B|--------|--------|--------|--------|--------|--------|--------|--------|--------|
G|--------|--------|--------|--------|--------|--------|--------|--------|--------|
D|--------|--------|--------|--------|--------|--------|--------|--------|--------|
A|--------|--------|--------|--------|--------|--------|--------|--------|-2------|
E|--------|--------|--------|--------|--------|--------|--------|--------|-0------|


E|------------|---------------------------|-------------|-------0---0-----|-0------|
B|------------|---------------------------|-------------|-------0---0-----|-0------|
G|------------|---------------------------|-------------|-------4---4-----|-4------|
D|------------|------5----7---5-----------|-------------|-------2---2-----|-2------|
A|-2------5---|-7-----------------7---5---|-7------7----|-------2---2-----|-2------|
E|-0----------|---------------------------|-------------|-0-----0---0-----|-0------|


E|----------0-----------------------|-------------|------------------------|------------------------|
B|----------------------------------|-------------|------------------------|------------------------|
G|-----3--------3---2---0-----------|-------------|-11----11--11--11---11--|-10----9---9---7----5---|
D|--------------------------2---0---|-2-----------|-9-----9---9---9----9---|-8-----7---7---5----3---|
A|----------------------------------|-------------|------------------------|------------------------|
E|----------------------------------|-------------|------------------------|------------------------|


E|-------0---0-----|-0-----------|------------------------|------------------------|
B|-------0---0-----|-0-----------|------------------------|------------------------|
G|-4-----4---4-----|-4------4----|-11----11--11--11---11--|-10----9---9---7----7---|
D|-2-----2---2-----|-2------2----|-9-----9---9---9----9---|-8-----7---7---5----5---|
A|-----------------|-------------|------------------------|------------------------|
E|-----------------|-------------|------------------------|------------------------|


E|-------------|-------------|--------|--------|--------|--------|--------|--------|
B|-------------|-------------|--------|--------|--------|--------|--------|--------|
G|-------------|-------------|--------|--------|--------|--------|--------|--------|
D|-------------|-------------|--------|--------|--------|--------|--------|--------|
A|-9------9----|-3-----------|--------|--------|--------|--------|--------|--------|
E|-7------7----|-1------12---|--------|--------|--------|--------|--------|--------|


E|--------|--------|--------|--------|--------|--------|--------|--------|--------|
B|--------|--------|--------|--------|--------|--------|--------|--------|--------|
G|--------|--------|--------|--------|--------|--------|--------|--------|--------|
D|--------|--------|--------|--------|--------|--------|--------|--------|--------|
A|--------|--------|--------|--------|--------|--------|--------|--------|--------|
E|--------|--------|--------|--------|--------|--------|--------|--------|--------|


E|--------|--------|--------|--------|--------|--------|--------|--------|--------|
B|--------|--------|--------|--------|--------|--------|--------|--------|--------|
G|--------|--------|--------|--------|--------|--------|--------|--------|--------|
D|--------|--------|--------|--------|--------|--------|--------|--------|--------|
A|--------|--------|--------|--------|--------|--------|--------|--------|--------|
E|--------|--------|--------|--------|--------|--------|--------|--------|--------|


E|--------|--------|--------|--------|--------|--------|--------|--------|--------|
B|--------|--------|--------|--------|--------|--------|--------|--------|--------|
G|--------|--------|--------|--------|--------|--------|--------|--------|--------|
D|--------|--------|--------|--------|--------|--------|--------|--------|--------|
A|--------|--------|--------|--------|--------|--------|--------|--------|--------|
E|--------|--------|--------|--------|--------|--------|--------|--------|--------|


E|--------|--------|--------|--------|--------|--------|--------|--------|--------|
B|--------|--------|--------|--------|--------|--------|--------|--------|--------|
G|--------|--------|--------|--------|--------|--------|--------|--------|--------|
D|--------|--------|--------|--------|--------|--------|--------|--------|--------|
A|--------|--------|--------|--------|--------|--------|--------|--------|--------|
E|--------|--------|--------|--------|--------|--------|--------|--------|--------|


E|--------|--------|--------|--------|--------|--------|--------|--------|--------|
B|--------|--------|--------|--------|--------|--------|--------|--------|--------|
G|--------|--------|--------|--------|--------|--------|--------|--------|--------|
D|--------|--------|--------|--------|--------|--------|--------|--------|--------|
A|--------|--------|--------|--------|--------|--------|--------|--------|--------|
E|--------|--------|--------|--------|--------|--------|--------|--------|--------|


E|--------|--------|--------|--------|--------|--------|--------|--------|--------|
B|--------|--------|--------|--------|--------|--------|--------|--------|--------|
G|--------|--------|--------|--------|--------|--------|--------|--------|--------|
D|--------|--------|--------|--------|--------|--------|--------|--------|--------|
A|--------|--------|--------|--------|--------|--------|--------|--------|--------|
E|--------|--------|--------|--------|--------|--------|--------|--------|--------|


E|--------|--------|--------|--------|--------|--------|--------|--------|--------|
B|--------|--------|--------|--------|--------|--------|--------|--------|--------|
G|--------|--------|--------|--------|--------|--------|--------|--------|--------|
D|--------|--------|--------|--------|--------|--------|--------|--------|--------|
A|--------|--------|--------|--------|--------|--------|--------|--------|--------|
E|--------|--------|--------|--------|--------|--------|--------|--------|--------|


E|--------|--------|--------|--------|--------|--------|--------|--------|--------|
B|--------|--------|--------|--------|--------|--------|--------|--------|--------|
G|--------|--------|--------|--------|--------|--------|--------|--------|--------|
D|--------|--------|--------|--------|--------|--------|--------|--------|--------|
A|--------|--------|--------|--------|--------|--------|--------|--------|--------|
E|--------|--------|--------|--------|--------|--------|--------|--------|--------|


E|--------|--------|--------|------------|---------------------------|-------------|
B|--------|--------|--------|------------|---------------------------|-------------|
G|--------|--------|--------|------------|---------------------------|-------------|
D|--------|--------|--------|------------|------5----7---5-----------|-------------|
A|--------|--------|-2------|-2------5---|-7-----------------7---5---|-7------7----|
E|--------|--------|-0------|-0----------|---------------------------|-------------|


E|-------0---0-----|-0------|----------0-----------------------|-------------|------------------------|
B|-------0---0-----|-0------|----------------------------------|-------------|------------------------|
G|-------4---4-----|-4------|-----3--------3---2---0-----------|-------------|-11----11--11--11---11--|
D|-------2---2-----|-2------|--------------------------2---0---|-2-----------|-9-----9---9---9----9---|
A|-------2---2-----|-2------|----------------------------------|-------------|------------------------|
E|-0-----0---0-----|-0------|----------------------------------|-------------|------------------------|


E|------------------------|-------0---0-----|-0-----------|------------------------|
B|------------------------|-------0---0-----|-0-----------|------------------------|
G|-10----9---9---7----5---|-4-----4---4-----|-4------4----|-11----11--11--11---11--|
D|-8-----7---7---5----3---|-2-----2---2-----|-2------2----|-9-----9---9---9----9---|
A|------------------------|-----------------|-------------|------------------------|
E|------------------------|-----------------|-------------|------------------------|


E|------------------------|--------|--------|--------|--------|--------|--------|--------|
B|------------------------|--------|--------|--------|--------|--------|--------|--------|
G|-10----9---9---7----7---|--------|--------|--------|--------|--------|--------|--------|
D|-8-----7---7---5----5---|--------|--------|--------|--------|--------|--------|--------|
A|------------------------|--------|--------|--------|--------|--------|--------|--------|
E|------------------------|--------|--------|--------|--------|--------|--------|--------|


E|--------|--------|--------|--------|--------|--------|--------|
B|--------|--------|--------|--------|--------|--------|--------|
G|--------|--------|--------|--------|--------|--------|--------|
D|--------|--------|--------|--------|--------|--------|--------|
A|--------|--------|--------|--------|--------|--------|--------|
E|--------|--------|--------|--------|--------|--------|--------|





Track 3: Gtr. 1 [clean]

E|--------|--------|--------|--------|--------|--------|--------|--------|--------|
B|--------|--------|--------|--------|--------|--------|--------|--------|--------|
G|--------|--------|--------|--------|--------|--------|--------|--------|--------|
D|--------|--------|--------|--------|--------|--------|--------|--------|--------|
A|--------|--------|--------|--------|--------|--------|--------|--------|--------|
E|--------|--------|--------|--------|--------|--------|--------|--------|--------|


E|--------|--------|--------|--------|--------|--------|--------|--------|--------|
B|--------|--------|--------|--------|--------|--------|--------|--------|--------|
G|--------|--------|--------|--------|--------|--------|--------|--------|--------|
D|--------|--------|--------|--------|--------|--------|--------|--------|--------|
A|--------|--------|--------|--------|--------|--------|--------|--------|--------|
E|--------|--------|--------|--------|--------|--------|--------|--------|--------|


E|--------|--------|--------|--------|--------|--------|--------|--------|--------|
B|--------|--------|--------|--------|--------|--------|--------|--------|--------|
G|--------|--------|--------|--------|--------|--------|--------|--------|--------|
D|--------|--------|--------|--------|--------|--------|--------|--------|--------|
A|--------|--------|--------|--------|--------|--------|--------|--------|--------|
E|--------|--------|--------|--------|--------|--------|--------|--------|--------|


E|--------|--------|--------|--------|--------|--------|--------|--------|--------|
B|--------|--------|--------|--------|--------|--------|--------|--------|--------|
G|--------|--------|--------|--------|--------|--------|--------|--------|--------|
D|--------|--------|--------|--------|--------|--------|--------|--------|--------|
A|--------|--------|--------|--------|--------|--------|--------|--------|--------|
E|--------|--------|--------|--------|--------|--------|--------|--------|--------|


E|--------|--------|--------|--------|--------|--------|--------|--------|--------|
B|--------|--------|--------|--------|--------|--------|--------|--------|--------|
G|--------|--------|--------|--------|--------|--------|--------|--------|--------|
D|--------|--------|--------|--------|--------|--------|--------|--------|--------|
A|--------|--------|--------|--------|--------|--------|--------|--------|--------|
E|--------|--------|--------|--------|--------|--------|--------|--------|--------|


E|--------|--------|--------|--------|--------|--------|--------|--------|--------|
B|--------|--------|--------|--------|--------|--------|--------|--------|--------|
G|--------|--------|--------|--------|--------|--------|--------|--------|--------|
D|--------|--------|--------|--------|--------|--------|--------|--------|--------|
A|--------|--------|--------|--------|--------|--------|--------|--------|--------|
E|--------|--------|--------|--------|--------|--------|--------|--------|--------|


E|--------|--------|--------|--------|--------|--------|--------|--------|--------|
B|--------|--------|--------|--------|--------|--------|--------|--------|--------|
G|--------|--------|--------|--------|--------|--------|--------|--------|--------|
D|--------|--------|--------|--------|--------|--------|--------|--------|--------|
A|--------|--------|--------|--------|--------|--------|--------|--------|--------|
E|--------|--------|--------|--------|--------|--------|--------|--------|--------|


E|--------|--------|--------|--------|--------|--------|--------|--------|--------|
B|--------|--------|--------|--------|--------|--------|--------|--------|--------|
G|--------|--------|--------|--------|--------|--------|--------|--------|--------|
D|--------|--------|--------|--------|--------|--------|--------|--------|--------|
A|--------|--------|--------|--------|--------|--------|--------|--------|--------|
E|--------|--------|--------|--------|--------|--------|--------|--------|--------|


E|--------|--------|--------|--------|--------|--------|--------|--------|--------|
B|--------|--------|--------|--------|--------|--------|--------|--------|--------|
G|--------|--------|--------|--------|--------|--------|--------|--------|--------|
D|--------|--------|--------|--------|--------|--------|--------|--------|--------|
A|--------|--------|--------|--------|--------|--------|--------|--------|--------|
E|--------|--------|--------|--------|--------|--------|--------|--------|--------|


E|--------|--------|--------|--------|--------|--------|--------|--------|--------|
B|--------|--------|--------|--------|--------|--------|--------|--------|--------|
G|--------|--------|--------|--------|--------|--------|--------|--------|--------|
D|--------|--------|--------|--------|--------|--------|--------|--------|--------|
A|--------|--------|--------|--------|--------|--------|--------|--------|--------|
E|--------|--------|--------|--------|--------|--------|--------|--------|--------|


E|--------|--------|--------|--------|--------|--------|--------|--------|--------|
B|--------|--------|--------|--------|--------|--------|--------|--------|--------|
G|--------|--------|--------|--------|--------|--------|--------|--------|--------|
D|--------|--------|--------|--------|--------|--------|--------|--------|--------|
A|--------|--------|--------|--------|--------|--------|--------|--------|--------|
E|--------|--------|--------|--------|--------|--------|--------|--------|--------|


E|--------|--------|--------|--------|--------|--------|--------|--------|--------|
B|--------|--------|--------|--------|--------|--------|--------|--------|--------|
G|--------|--------|--------|--------|--------|--------|--------|--------|--------|
D|--------|--------|--------|--------|--------|--------|--------|--------|--------|
A|--------|--------|--------|--------|--------|--------|--------|--------|--------|
E|--------|--------|--------|--------|--------|--------|--------|--------|--------|


E|--------|--------|--------|--------|--------|--------|--------|-------------|-10-----|
B|--------|--------|--------|--------|--------|--------|-5------|-2-----------|-10-----|
G|--------|--------|--------|--------|--------|--------|-7------|-4-----------|-12-----|
D|--------|--------|--------|--------|--------|--------|-5------|-2-----------|-10-----|
A|--------|--------|--------|--------|--------|--------|-8------|-5------5----|-13-----|
E|--------|--------|--------|--------|--------|--------|-6------|-3------3----|-11-----|


E|-7------|--------|-----------------|--------|--------|--------|--------|--------|
B|-7------|-4------|-0----0-----0----|--------|--------|--------|--------|--------|
G|-9------|-6------|-2----2----------|--------|--------|--------|--------|--------|
D|-7------|-4------|-0----0----------|--------|--------|--------|--------|--------|
A|-10-----|-7------|-3----3----------|--------|--------|--------|--------|--------|
E|-8------|-5------|-1----1----------|--------|--------|--------|--------|--------|


E|--------|--------|--------|--------|--------|--------|--------|--------|--------|
B|--------|--------|--------|--------|--------|--------|--------|--------|--------|
G|--------|--------|--------|--------|--------|--------|--------|--------|--------|
D|--------|--------|--------|--------|--------|--------|--------|--------|--------|
A|--------|--------|--------|--------|--------|--------|--------|--------|--------|
E|--------|--------|--------|--------|--------|--------|--------|--------|--------|


E|--------|--------|--------|--------|--------|--------|--------|--------|--------|
B|--------|--------|--------|--------|--------|--------|--------|--------|--------|
G|--------|--------|--------|--------|--------|--------|--------|--------|--------|
D|--------|--------|--------|--------|--------|--------|--------|--------|--------|
A|--------|--------|--------|--------|--------|--------|--------|--------|--------|
E|--------|--------|--------|--------|--------|--------|--------|--------|--------|


E|--------|--------|--------|--------|--------|--------|--------|--------|--------|
B|--------|--------|--------|--------|--------|--------|--------|--------|--------|
G|--------|--------|--------|--------|--------|--------|--------|--------|--------|
D|--------|--------|--------|--------|--------|--------|--------|--------|--------|
A|--------|--------|--------|--------|--------|--------|--------|--------|--------|
E|--------|--------|--------|--------|--------|--------|--------|--------|--------|


E|--------|--------|--------|--------|--------|--------|--------|--------|--------|
B|--------|--------|--------|--------|--------|--------|--------|--------|--------|
G|--------|--------|--------|--------|--------|--------|--------|--------|--------|
D|--------|--------|--------|--------|--------|--------|--------|--------|--------|
A|--------|--------|--------|--------|--------|--------|--------|--------|--------|
E|--------|--------|--------|--------|--------|--------|--------|--------|--------|


E|--------|--------|--------|--------|--------|--------|--------|
B|--------|--------|--------|--------|--------|--------|--------|
G|--------|--------|--------|--------|--------|--------|--------|
D|--------|--------|--------|--------|--------|--------|--------|
A|--------|--------|--------|--------|--------|--------|--------|
E|--------|--------|--------|--------|--------|--------|--------|





Track 4: Bass 

G|-------------------------7-------|-9-------7-----------------------|-------------------------7-------|
D|---------------------7-------9---|-----7-------9-------7-------5---|---------------------7-------9---|
A|-7-------5-------7---------------|-----------------7-------5-------|-7-------5-------7---------------|
E|-----5-------7-------------------|---------------------------------|-----5-------7-------------------|


G|-9-------7-----------------------|-----------------------------------|---------------------6---7---8---|
D|-----7-------9-------7-------5---|-----------------------------------|---------7---8---9---------------|
A|-----------------7-------5-------|-7--7------7-------7---5---6---7---|-9---10--------------------------|
E|---------------------------------|-------5-------7-------------------|---------------------------------|


G|-9--9------7-----------------------|---------------------------------|---------------------------------|
D|-------7-------9---7---------------|---------------------------------|---------------------------------|
A|-----------------------10--9---8---|-7---0---5-------4---5---5---6---|-7-------------------------------|
E|-----------------------------------|-------------7-------------------|-----0---0---2---3---5---7---5---|


G|---------------------------------|---------------7-------9-------7---|---------------------------------|
D|---------------------------------|-7--7------7-------9-------7-------|-9---7---------------7---8---9---|
A|-----4---5---6---7---9---10--9---|-------7---------------------------|---------10--9-------------------|
E|-7-------------------------------|-----------------------------------|---------------------------------|


G|---------------------------------|---------------------------------|-----6---7---6---7---8---9---8---|
D|---------------------------------|---------------------7---9---8---|-9-------------------------------|
A|-7---6---5---4---5---6---7---9---|-10--9---7---9---10--------------|---------------------------------|
E|---------------------------------|---------------------------------|---------------------------------|


G|-9---11--12--11--12--14--16--15--|-16-16-----------------------------|---------------------------------|
D|---------------------------------|-------14--14--12--11--9-----------|-------------7---8---9---9-------|
A|---------------------------------|---------------------------12--11--|-9---9---10------------------7---|
E|---------------------------------|-----------------------------------|---------------------------------|


G|---------------------------------|---------------------------------|---------------------------------|
D|---------------------------------|---------------------------------|---------------------------------|
A|-7---5---4-------4---5---5---6---|-7-------5-----------------------|---------------------------------|
E|-------------7-------------------|-----5-------7---7---6---5---3---|-0---2---3---5---7---5---6---7---|


G|---------------------------------|---------------------------------|------------------------------|
D|---------------------------------|-------------7---9---8---7---6---|------------------------------|
A|-----4---5---6---7---6---5---6---|-7---9---10----------------------|----------2---3---2---2-------|
E|-7-------------------------------|---------------------------------|--------------------------3---|


G|---------------------------------|------------------------------|---------------------------------|
D|---------------------------------|------------------------------|---------------------------------|
A|-----7---------------------------|------------------------------|---------------------4---5---6---|
E|-0-------3---5---6---7---0---7---|-0---7---3----6---7---0---7---|-0---3---5---6---7---------------|


G|---------------------------------|-------------8---7---8---9---11--|-12--11--12--14--16--15--14--15--|
D|---------------------7---8---9---|-----9---------------------------|---------------------------------|
A|-7---9---10--9---10--------------|-7-------------------------------|---------------------------------|
E|---------------------------------|---------------------------------|---------------------------------|


G|-16------------------------------|---------------------------------|---------------------------------|
D|----14---------------------------|---------------------------------|---------------------------------|
A|---------17--16--14--13--12--11--|-11--9---9---7---6---5-----------|---------------------------------|
E|---------------------------------|-------------------------8---7---|-0---2---3---5---7---6---5---6---|


G|---------------------------------|---------------------------------|-----------------------------------|
D|---------------------------------|---------------------------------|-----------------------------12-13-|
A|-----4---5---6---7---6---5---6---|-7---9---10--11--12--11--12--13--|-14--13--14--15--16--15--16--------|
E|-7-------------------------------|---------------------------------|-----------------------------------|


G|---------------------------------|---------------------------------|------------------------------|
D|-14--13--12--11------11--12--13--|-14--13--12--13--14--15--16--15--|-16--15--16--17--18--17-------|
A|-----------------14--------------|---------------------------------|------------------------------|
E|---------------------------------|---------------------------------|------------------------------|


G|---------------------------------|---------------------------------|-----------------------------------|
D|---------------------------------|---------------------------------|-----------------------------------|
A|-17--16--12--11--10--------------|---------------------------------|-----------------------------------|
E|---------------------5---6---7---|-7---6---7---6---7---0---5---7---|-5----5--5-------5---5--5--5-------|


G|--------|-----------------|---------------------------------|---------------------------------|
D|--------|-----------------|---------------------------------|---------------------------------|
A|--------|------------14---|---------------------4---5---6---|-7---6---5---6---7---------------|
E|--------|-----------------|-0---0---5---6---7---------------|---------------------0---5---7---|


G|---------------------------------|---------------------------------|---------------------------------|
D|---------------------------------|---------------------------------|---------------------------------|
A|---------------------4---5---6---|---------------------------------|---------------------4---5---6---|
E|-0---0---5---6---7---------------|-0---3---0---0---0---5---6---7---|-0---5---6---7---7---------------|


G|---------------------------------|---------------------------------|-----------------------------------|
D|---------------------------------|---------------------------------|---------------------7---8--8--9---|
A|-7---------------------------7---|---------------------4---5---6---|-7---9---10--9---10----------------|
E|------0--3----0--7----6--7-------|-0---4---5---6---7---------------|-----------------------------------|


G|---------------------------------|-------------------------------------|-------------------------------------|
D|---------------------9-----------|-----9-------------------------------|-----9--9------9--9------9-------9---|
A|-7---7---6---5---7---------------|-7-----------------7-----------------|-7---------7---------7-------7-------|
E|-------------------------7---7---|---------7--7--7-------7--7--7---7---|-------------------------------------|


G|-----------------------------------|-----------------------------------|-----------------------------------|
D|-----9---------9-------9-------9---|-----------------------------------|-----9---------9-------9-------9---|
A|-7-------7--7------7-------7-------|-7---6---5--5--4-------4---5---6---|-7-------7--7------7-------7-------|
E|-----------------------------------|-------------------7---------------|-----------------------------------|


G|---------------------------------|------------------------|--------------------|
D|---------------------------------|--------------3----3----|-----------2--------|
A|---------------------------------|------------------------|--------------------|
E|-7---7---7---7---7---7---7---7---|-1----1---1---1---------|-----------0--------|


G|--------------------|--------|--------|------------21-21---|-16----------|---------------------------------|
D|-----------2--------|--------|--------|---------------20---|-14----------|---------------------------------|
A|--------------------|--------|--------|--------------------|------10-----|---------------------------------|
E|-----------0--------|--------|--------|--------------------|-------------|-2---2---2---2---2---2---2---2---|


G|-----------------------------------|-------------------------------------|---------------------------------|
D|-----------------------------------|-------------------------------------|---------------------------------|
A|-----------------------------------|-------------------------------------|-----------------9---9---9---9---|
E|-2---2--2--2---2---2---0---2---0---|-2------2--2-----2---2---0---2---0---|-2----2--2---2-------------------|


G|-----------------------------------|---------------------------------|------------------------------|
D|-----------------------------------|---------------------------------|------------------------------|
A|-----------------------------------|---------------------------------|-------------------------4----|
E|-2----2--2---2---2---0--2--2---0---|-2----2--2---2---2---0---2---0---|-2----2--2---2---2---2--------|


G|---------------------------------------|-----------------------------------|---------------------------------|
D|-4---2--4--4--2--4---4--4--4---4---0---|-7---------------------------------|---------------------------------|
A|---------------------------------------|-----0--0--0---0---0-------0-------|-0---0---0---0---0-------0-------|
E|---------------------------------------|-----------------------3-------3---|---------------------3-------3---|


G|---------------------------------|---------------------------------------|---------------------------------|
D|---------------------------------|-7---7--7--7---7---7---7--7--7--7--7---|---------------------------------|
A|-0---0---0---0---0-------0-------|---------------------------------------|-0----0--0---0---0-------0-------|
E|---------------------3-------3---|---------------------------------------|---------------------3-------3---|


G|-----------------------------------|------------------------------|---------------------------|
D|-------------------------------5---|-7-----------7---7------------|---------------------------|
A|-0----0--0---0---0--0--5---7-------|------0--0-----------0---0----|-0---0----0---0----0---0---|
E|-----------------------------------|------------------------------|---------------------------|


G|-----------------------------------|---------------------------------|---------------------------------|
D|-----------------------------------|---------------------------------|---------------------------------|
A|-3----3--3---3---3---3---3--3--3---|-3----3--3----3--3---3---3---0---|-3----3--3---3---3---1---3---1---|
E|-----------------------------------|---------------------------------|---------------------------------|


G|---------------------------------|------------------------------|---------------------------------|
D|-------------------------8---10--|-10-------10--10--------------|-----------------10--10--11--12--|
A|-3----3--3---3---3---10----------|------------------------------|---------------------------------|
E|---------------------------------|------8-----------8---8---8---|-8---8---8---8---8---8---9---10--|


G|-----------------------|-------------|-----------------------------------|-----------------------------------|
D|-13--12--13--15--15----|-20----------|-----------------------------------|-----------------------------------|
A|-----------------------|-------------|-6---6--6--6---6---6---6---6---6---|-6---6--6--6---6---6---4---6---4---|
E|-11--10--11--13--13----|-18----------|-----------------------------------|-----------------------------------|


G|--------------------------------|------------------------------------------|-----------------------------------|
D|--------------------------------|------------------------------------------|-----------------------------------|
A|-6---6--6--6---6---6---6---6----|-16-18-18-18-16-18-18-18-16-18-18-18-18---|-6----6--6--6--6---6---4---6---4---|
E|--------------------------------|------------------------------------------|-----------------------------------|


G|-----------------------------|-----------------------------------|------------------------------|
D|------10-8--11--11--13--14---|-----------------------------------|------------------------------|
A|-6---------------------------|-6----6--6--6--6---6---6---6---6---|-6----6--6---6---6---6---6----|
E|-----------------------------|-----------------------------------|------------------------------|


G|---------------------------------|---------------------------------|---------------------------------|
D|---------------------------------|---------------------------------|---------------------------------|
A|---------------------------------|---------------------------------|---------------------------------|
E|-7----7--7---7---7---5---7---5---|-7----7--7---7---7---5---7---5---|-7----7--7---7---7---5---7---5---|


G|-----------------------------------|-----------------------------------|-------------------------------------|
D|-----------------------------------|-----------------------------------|---------9----9--9--9--9--9----------|
A|-------------9---14--14--14-14-14--|-----------------------------------|-------------------------------------|
E|-7----7--7-------------------------|-7----7--7---7---7--7--5---5---7---|-7--7------------------------7---7---|


G|-------------------------------|-------------|---------------------------------|
D|-------------------------------|-------------|---------------------------------|
A|-------------------------------|-------------|---------------------------------|
E|-7----7----7----7----7----7----|-7----1------|-0--0--0----0--0--0----0--0--0---|


G|--------------------|---------------------------------|--------------------|---------------------------------|
D|--------------------|---------------------------------|--------------------|---------------------------------|
A|--------------------|---------------------------------|--------------------|---------------------------------|
E|-0------------------|-0--0--0----0--0--0----0--0--0---|-0------------------|-0--0--0----0--0--0----0--0--0---|


G|--------------------|---------------------------------|--------------------|--------|
D|--------------------|---------------------------------|--------------------|--------|
A|--------------------|---------------------------------|--------------------|--------|
E|-0------------------|-0--0--0----0--0--0----0--0--0---|-0------------------|-6------|


G|--------|--------|--------|-------------|--------|-----------------|--------|-------------|
D|--------|--------|--------|-------------|--------|-----------------|--------|-------------|
A|--------|-6------|-3------|-------------|--------|-2-----2---19----|--------|-------------|
E|-3------|--------|--------|-5------5----|-1------|-----------------|--------|-7----7------|


G|--------|-------------|--------|---------------------|---------------------|--------|
D|--------|-9----9------|-4------|-9----8----9----9----|-9----9----9---------|--------|
A|--------|-------------|--------|---------------------|---------------------|--------|
E|--------|-7----7------|-2------|-7----6----7----7----|-7----7----7----7----|--------|


G|--------|--------|--------|-3--4--3--5--4--3--2--0---------------|-3--4--3--5--4--3--2--0---------------|
D|--------|--------|--------|-------------------------2------------|-------------------------2------------|
A|--------|--------|--------|--------------------------------------|--------------------------------------|
E|--------|--------|--------|--------------------------------------|--------------------------------------|


G|-3--4--3--5--4--3--2--0--3--4--3--5--4--3--2--0--|-3--4--3--5--4--3--2--0---------------|
D|-------------------------------------------------|-------------------------2------------|
A|-------------------------------------------------|--------------------------------------|
E|-------------------------------------------------|--------------------------------------|


G|--------------------------------------|--------------------------------------|-3--4--3--5--4--3--2--0--3--4--3--5--4--3--2--0--|
D|-3--4--3--5--4--3--2--0---------------|-1--2--1--3--2--1--0------------------|-------------------------------------------------|
A|-------------------------2------------|----------------------3--0------------|-------------------------------------------------|
E|--------------------------------------|--------------------------------------|-------------------------------------------------|


G|-3--4--3--5--4--3--2--0---------------|---------------------------------|---------------------------------|
D|-------------------------2---2---14---|---------------------------------|-----------------------------7---|
A|--------------------------------------|---------------------4---5---6---|-7-------5---6---7---9---10------|
E|--------------------------------------|-0---3---5---6---7---------------|-----7---------------------------|


G|------------------------------|-------------------------------|---------------------------------|
D|------------------------------|-------------------------------|---------------------------------|
A|-7---7------------------------|-----------0-------------------|---------------------4---5---6---|
E|---------0----3---5---6---7---|-7----3---------0----0----0----|-0---3---5---6---7---------------|


G|-----------------------------------|---------------------------------|------------------------------|
D|---------7----8--9----8--7---8--8--|-9-------------------------------|------------------------------|
A|-7----7----------------------------|-----7---5---4-------4---5---6---|-7----------------------------|
E|-----------------------------------|-----------------7---------------|-----0---3----5---7---7---7---|


G|-----------------------------------|-------------------------------------|---------------------------------|
D|-9---------------------------7--8--|-9-----------------------------------|---------------------------------|
A|-----4---5---6---7---9---10--------|-----7---7--7--7-----------4--5--6---|-7---7---7---7---7---5---6---7---|
E|-----------------------------------|-----------------------7-------------|---------------------------------|


G|-----------------------------------|---------------------------------|---------------------------------|
D|-----------------------------------|-------------------------9-------|---------------------------------|
A|-7-------------7---7-------7-------|---------------------------------|---------------------------------|
E|------0--0--0----------0-------0---|-7---7---7---7---7---7-------7---|-1---1---1---1---1---1---1---1---|


G|-------------------------------|-------------------------------|---------------------------------|
D|-------------------------------|-------------------------------|---------------------------------|
A|-------------------------------|-------------------------------|-2---2---2---2---2---2---2---2---|
E|-7----7----7----7----7----7----|-1----1----1----1----1----1----|---------------------------------|


G|---------------------------------|---------------------------------|----------------5----5-------|
D|---------------------3-------3---|---------------------------------|----------------3----3---3---|
A|---------------------------------|-2---2---2---2-------------------|-2----2----2-----------------|
E|-1---1---1---1---1-------1-------|-----------------1---1---1---1---|-----------------------------|


G|---------------------|---------------------|--------------------|--------------------|
D|------3---------3----|------3--------------|--------------------|--------------------|
A|-2---------2---------|-2---------2----20---|--------------------|--------------------|
E|---------------------|---------------------|-----------0--------|-----------0--------|


G|--------|--------|---------------------------------|--------------------|
D|--------|--------|---------------------------------|--------------------|
A|--------|--------|---------------------------------|--------------------|
E|--------|--------|-0--0--0----0--0--0----0--0--0---|-0------------------|