Menu:

 

Search:

 

joe satriani - ice 9 live:

 



Title: Ice 9 (Live)
Artist: 
Album: Dreaming #11
Author: Joe Satriani


Track 1: Joe Satriani - Guitar

E|-------------------------|---------------------------------------|-------------------------------------|
B|-----------0-------------|---------------------------------------|-----------------------5--5----------|
G|--------------10-4----3--|-3-------------------------------------|-----------------------5--5--4----3--|
D|--------------12-2----4--|-4--6--6---6---6---6---6---6--6--4--6--|-6--6--6---6---6---6---7--7--2----4--|
A|--------------14---------|----4--4---4---4---4---4---4--4--4--4--|-4--4--4---4---4---4-----------------|
E|-------------------------|---------------------------------------|-------------------------------------|


E|-----------------------------------------|-------------------------------------|
B|-----------------------------------------|-----------------------5--5----------|
G|-3---------------------------------------|-------------------6---6--6--4----3--|
D|-4--6--6---6---6---6---6--4--6--6--4--6--|-6--6--6---6---6---6---7--7--2----4--|
A|----4--4---4---4---4---4--4--4--4--4--4--|-4--4--4---4---4---4-----------------|
E|-----------------------------------------|-------------------------------------|


E|-----------------------------------|--------------------|-------------------------------------------|
B|--------------------------------7--|-7------------------|-------------------------------------------|
G|-3---------------------13-------9--|-9-----9----4----3--|-3-----------------------------6--6-----6--|
D|-4--6--6---6---6---6---13--10---9--|-9-----9----2----4--|-4--6--6---6---6---6--4--6--4--6--6--4--6--|
A|----4--4---4---4---4---------------|--------------------|----4--4---4---4---4--4--4--4--4--4--4--4--|
E|-----------------------------------|--------------------|-------------------------------------------|


E|--------------------0--0----------|----------------------------------|----------------------------------|
B|-----------14---7---0--0----------|----------------------------------|------------------------11--11-11-|
G|-6--6------14---8---------4----3--|-3-----6--------9----11--11-11-11-|-11-9--------------9----11--11-11-|
D|-6--6------16---9---------2----4--|-4--6--6---11---------------------|-------11--11--11-----------------|
A|-4--4-----------------------------|----4--4--------------------------|----------------------------------|
E|-------2--------------------------|----------------------------------|----------------------------------|


E|-------------------------------------|-----------------------------|--------------------------------|
B|-11-9-----------------------------7--|-7---------------------------|--------------------------------|
G|-11-9------------------------10---9--|-9---------------------------|----------------9----11--1111-11|
D|-------11--11--11--11--6--11-10---9--|-9----9----9--9--9---9----8--|-8---------11-------------------|
A|-----------------------7--11---------|---------------------7----9--|-9--11-11-----------------------|
E|-------------------------------------|-----------------------------|----9--9------------------------|


E|----------------------------------|--------------------------------|-------------------------|
B|------------------------11--11-11-|-11-9------------------------7--|-7---------0--0----------|
G|-11-9--------------9----11--11-11-|-11-9-------------------10---9--|-9---------------4----3--|
D|-------11--11--11-----------------|-------11--11---4---2---10---9--|-9-----9---------2----4--|
A|----------------------------------|--------------------------------|-------------------------|
E|----------------------------------|--------------------------------|-------------------------|


E|-------------------------------9--9--9--9--|-9--------------------------------|---------------------------9--9--9--9--|
B|----------------------------7-----11-9--11-|-11---------------7--7----4-------|---------------------------11-11-9--11-|
G|-3--------------------------8--------------|----0--0--10-10---9--9----4----3--|-3-------------------------9--9-----9--|
D|-4---------2---4--2--4---4--9--------------|-------2--10-10---9--9----2----4--|-4--6--6---2---4-----------------------|
A|----4--4-----------------------------------|----------------------------------|----4--4-----------2--4----------------|
E|-------------------------------------------|----------------------------------|---------------------------------------|


E|-9--------------------------------|-----------------------------9--9--9--9--|-9--------------------------------|
B|-11---------------7--7------------|-----------------------------9--11-9--11-|-11-------------7--7--------------|
G|-9--0--0--10-10---9--9----4----3--|-3---------------------------------------|----0--5---10---9--9----4--4---3--|
D|-------2--10-10---9--9----2----4--|-4---------2---4--2--4----0--------------|-----------10---9--9----2--2---4--|
A|----------------------------------|----4--4---------------------------------|----------------------------------|
E|----------------------------------|-----------------------------------------|----------------------------------|


E|------------------------------9--9--9--|-9------------------------------------|-----------------------------|
B|---------------------------11-11-9--11-|-11----------8----7--7----7--7--7--7--|-----------------------------|
G|-3-------------------------------------|----6--6--10-10---9--9----9--9--9--9--|--------6-------4----6--6----|
D|-4--6--6---2---4---2-------------------|----6--6--10-10---9--9----9--9--9--9--|-4---6--6--6-----------------|
A|----4--4--------------2----------------|--------------------------------------|-----------------------------|
E|---------------------------------------|--------------------------------------|-----------------------------|


E|---------------------|-------------------------------|-----------------------------------|
B|---------------------|-------------------------------|-----------------------------------|
G|-6----4--------------|----11------------9----11---11-|-11--11--11--11--11--11--11----11--|
D|-----------4----4----|-11-11-11-0--11----------------|-----------------------------------|
A|---------------------|-------------------------------|-----------------------------------|
E|---------------------|-------------------------------|-----------------------------------|


E|--------------------------|-----------------------------|-----------------------------|
B|--------------------------|-----------------------------|-----------------------------|
G|-8---6--0--6----9----11---|-9----9----0-----------------|-----------9----0--11--11-9--|
D|-9------------------------|--------------11---11-21-----|------9----------------------|
A|-11-----------------------|-----------------------------|-----------------------------|
E|--------------------------|-------------------------18--|-0---------------------------|


E|--------------------------------|---------------------------------------|----------------------------------|
B|-11---11---7--------------------|---------------------------------------|------------------------11--11-11-|
G|-----------8------------4----3--|-3-------------------9----11--11-11-11-|-11-9--------------9----11--11-11-|
D|---------------6--4--2--2----4--|-4-----6---11-11-11--------------------|-------11--11--11-----------------|
A|--------------------------------|----4--4------11-----------------------|----------------------------------|
E|--------------------------------|---------------------------------------|----------------------------------|


E|--------------------------|----------------------------|----------------------------------------------------------|
B|-11-9---------------------|-------------------------14-|-----13--13-13-11----11-13-13-13-11----11-13-13-13-11-1411|
G|-11-9---------------------|-----------9----------------|------------------14----------------14--------------------|
D|-------11----11-----------|-----------11---6--9--------|----------------------------------------------------------|
A|------------------0--0----|-----------12---------------|----------------------------------------------------------|
E|--------------------------|-0---0----------------------|----------------------------------------------------------|


E|----------------------------------------------8---------------|------------------------------13----131416141314-181417181714|
B|-14-13-11-1113141311------------11-13119----8---1113-1011-1413|-11-141114-131113-16-13-14-16----16--------------------------|
G|---------------------1411101113----------10-------------------|-------------------------------------------------------------|
D|--------------------------------------------------------------|-------------------------------------------------------------|
A|--------------------------------------------------------------|-------------------------------------------------------------|
E|--------------------------------------------------------------|-------------------------------------------------------------|


E|-1814171817141814171821182120211714202120181714202120171420212018171417|-18141618161413-131614-13-------------11-14119--1114118--9-118-6-8-9-|
B|-----------------------------------------------------------------------|--------------------------16-13-11-16--------------------------------|
G|-----------------------------------------------------------------------|---------------------------------------------------------------------|
D|-----------------------------------------------------------------------|---------------------------------------------------------------------|
A|-----------------------------------------------------------------------|---------------------------------------------------------------------|
E|-----------------------------------------------------------------------|---------------------------------------------------------------------|


E|-8-6-5-----------------------------------------------|----------------------|---------------8---------------|
B|-------9--7--6---------------------------------------|------21--21----------|---------------10-----------6--|
G|----------------8--6--5--8--5--3-------------7----6--|-6--------------------|-----------7---10-----------7--|
D|----------------------------------4----------8----6--|-6--------------------|-----------8-------6--11-8--8--|
A|-------------------------------------6--4----9-------|----------------------|-----------9-------------------|
E|-----------------------------------------------------|-------------------21-|-0----0------------------------|


E|---------7-----------7--------7---------7--107------|-----------------------------------|
B|-7----7-----10-7--------107------107-------107---7--|-----------------------------------|
G|-9----9-----------9---------9--------9---------9----|-9--9--9--9--9--7------------------|
D|----------------------------------------------------|-------------------9--7-------9----|
A|----------------------------------------------------|-------------------------9---------|
E|----------------------------------------------------|-----------------------------------|


E|------19---19---19-19---19-|-19---19-19---19--19------------|----------------10----------10----7-----10----7--|
B|------19---19------19---19-|-19------19---19--19------------|-------9--7--9-----9--7--9-----9-----9-----9-----|
G|---------------------------|----------------------13-0---13-|-13-7--------------------------------------------|
D|-9-------------------------|--------------------------------|-------------------------------------------------|
A|---------------------------|--------------------------------|-------------------------------------------------|
E|---------------------------|--------------------------------|-------------------------------------------------|


E|---------------------------------------------------|------------------------|---------------------10--------------------|
B|-7--10-7-------------------------------------------|------------------------|---------------------9---------------------|
G|----------9--9--9--7-------------------------------|-----4---4----4-----4---|-4---4---4---4---4--------------4--4----3--|
D|----------------------9--7--6--6---6---0---9-------|------------------------|-----------------------------4-----2----4--|
A|-----------------------------------------------8---|-8----------------------|-------------------------5-----------------|
E|---------------------------------------------------|------------------------|-------------------------5-----------------|


E|--------------------------------------|--------------------------------------|----------------------------|
B|--------------------------------------|------------------------------7-------|----------------------------|
G|-3--3--3--------16-16--16-16--16--16--|-16--16--16--16--16--16--16---8----8--|-8--4--4--4--4----2----2----|
D|-4--4---------------------------------|------------------------------9----9--|-9--------------------------|
A|-------4---0--------------------------|-----------------------------------11-|-11-------------------------|
E|-----------0--------------------------|--------------------------------------|----------------------------|


E|-----------------------------------------------|------------------------------|-------------------------------|
B|-----------------------------------------------|------------------------------|-------------------------------|
G|-2--2--2--2--2--2--2--2--2--2--2--2--2---8--13-|-13--16--0----6--0----4--0----|-0---9--0--0--7--5---5----0----|
D|-----------------------------------------9--13-|-13---------------------------|--------------------------0----|
A|-----------------------------------------11----|------------------------------|--------------------------0----|
E|-----------------------------------------------|------------------------------|-------------------------------|


E|---------------------------------|----------------------------------------|------------------------------------|
B|---------------------------------|----------------------------------------|------------------------------------|
G|-----5---3---3---3---3---3---3---|-3--3--3--3--3--3--3--3--3----3--3------|-------4-----6----9----11--11-11-11-|
D|---------------------------------|-------------------------------------0--|----------4-------------------------|
A|-0-------------------------------|-------------------------------------0--|----------4-------------------------|
E|-0-------------------------------|----------------------------------------|-0--4-------------------------------|


E|----------------------------------|--------------------------------|-----------------------|
B|------------------------11--11-11-|-11-9------------------------7--|-7-----7----7----------|
G|-11-9--------------9----11--11-11-|-11-9---------------0---10---9--|-9-----9----9--4----3--|
D|-------11--11--11-----------------|-------11--11---11--0---10---9--|-9-----9----9--2----4--|
A|----------------------------------|--------------------------------|-----------------------|
E|----------------------------------|--------------------------------|-----------------------|


E|-------------------------------------|-------------------------------|-----------------------------------|
B|-------------------------------------|---------------------11--11-11-|-11-9---------------------------7--|
G|-3-----------------9----11--11-11-11-|-11-9-----------9----11--11-11-|-11-9------------------0---10---9--|
D|-4--2--6---11--11--------------------|-------11---11-----------------|-------11--11--11--11--0---10---9--|
A|-------4-----------------------------|-------------------------------|-----------------------------------|
E|-------------------------------------|-------------------------------|-----------------------------------|


E|------------------------|-------------------------------9--9-----9--|-9------------------------------|
B|-7----7----7------------|-------------------------------11-11-9--11-|-11-------------7--7------------|
G|-9----9----9----4----3--|-3-----------------------4--4--------------|----0--0---10---9--9----4----3--|
D|-9----9----9----2----4--|-4---------2---4--2--4---4--4--------------|-------0---10---9--9----2----4--|
A|------------------------|----4--4-----------------------------------|--------------------------------|
E|------------------------|-------------------------------------------|--------------------------------|


E|------------------------9--9--9--9--|--------------------------------|-----------------------------9--9--9--9--|
B|------------------------11-11-9--11-|-----------8----7--7------------|-----------------------------11-11-9--11-|
G|-3----------------------------------|----0--0---10---9--9----4----3--|-3---------------------------------------|
D|-4---------2---4--------------------|-------0---10---9--9----2----4--|-4---------2---4--2--4---4---------------|
A|----4--4-----------2----------------|--------------------------------|----4--4---------------------------------|
E|------------------------------------|--------------------------------|-----------------------------------------|


E|-9------------------------------|------------------------9--9--9--9--|-9---------------------------|
B|-11--------8----7--7------------|------------------------11-11-9--11-|-11--------8----7--7----7----|
G|----0--5---10---9--9----4----3--|-3----------------------------------|----0--5---10----------------|
D|-------5---10---9--9----2----4--|-4--2------2---4--------------------|-------5---10----------------|
A|--------------------------------|-------4-----------2----------------|-----------------------------|
E|--------------------------------|------------------------------------|-----------------------------|


E|--------------------------|---------------------|---------------------------------------|
B|--------------------------|---------------------|---------------------------------------|
G|----------------4----6----|-4----4--------------|-----11-------11----11-12-9----11---11-|
D|-4---4--6--6--------------|-----------4----4----|-----11----11----11--------------------|
A|--------------------------|---------------------|-2------0------------------------------|
E|--------------------------|---------------------|---------------------------------------|


E|-------------------------------------------|-------------------------------|-------------------------------|
B|-------------------------------------------|-------------------------12----|-------------------------------|
G|-11--11--11--11--11--11--11-11--11-11--11--|-11--6--0-------9----11-----11-|-11---11--9--9-------8---------|
D|-------------------------------------------|-13--------11------------------|----------------11---9---------|
A|-------------------------------------------|-14----------------------------|---------------------11--------|
E|-------------------------------------------|-------------------------------|-------------------------7--0--|


E|----------------------------------|--------------------|-----------------|--------|
B|----------------------------------|-11----11---11---11-|-11--------------|--------|
G|-----4--0--4----9----0--11--11-9--|-----------------11-|-11--------------|--------|
D|----------------------------------|--------------------|-----------------|--------|
A|----------------------------------|--------------------|-----------------|--------|
E|-0--------------------------------|--------------------|-----------------|--------|


E|---------------9-------|-9---12--9----------|--------------------|-9-------9------12------9--12-9---|
B|-----------9-------9---|--------------------|----------------9---|-----9----------------------------|
G|-----------------------|--------------------|--------------------|----------------------------------|
D|-----------------------|--------------------|--------------------|----------------------------------|
A|-----------------------|--------------------|--------------------|----------------------------------|
E|-----------------------|--------------------|--------------------|----------------------------------|


E|-9--12---------14-----14-----14-14-12-14--|-14--14----------|---------------19--------------------------|
B|------------------------------------------|-----------------|----19-19--19----------19--19--17--19--19--|
G|------------------------------------------|-----------------|-------------------------------------------|
D|------------------------------------------|-----------------|-------------------------------------------|
A|------------------------------------------|-----------------|-------------------------------------------|
E|------------------------------------------|-----------------|-------------------------------------------|


E|-----------------------------------------|-----19-------19---------19-------19-----|
B|-19--17--19--17------17------17--17------|-19-----19-19----19--19-----19-19----19--|
G|-------------------------18--------------|-----------------------------------------|
D|-----------------------------------------|-----------------------------------------|
A|-----------------------------------------|-----------------------------------------|
E|-----------------------------------------|-----------------------------------------|


E|-19-------------------------------------------|-----21-------19-------21-------19-------------|
B|----19--19-19--19-19-19-19-19-19-19-19-19--19-|-19-----19-19----19-19----19-19----19-19-17----|
G|----------------------------------------------|--------------------------------------------18-|
D|----------------------------------------------|-----------------------------------------------|
A|----------------------------------------------|-----------------------------------------------|
E|----------------------------------------------|-----------------------------------------------|


E|-----------------------------------------|-----------16-------12-----12------------|
B|-19-17-18--------------17--17--------17--|-------------------------------------12--|
G|----------18-18--16-18--------18-18------|-----15-16----16-13----13--13-13-13------|
D|-----------------------------------------|-----------------------------------------|
A|-----------------------------------------|-----------------------------------------|
E|-----------------------------------------|-----------------------------------------|


E|-16---16---16--------21-|-21---21---21--21---21--|-------------9-----9---------9-----12----|
B|------------------------|------------------------|----11---12-----9-----11--11----9-----11-|
G|-17---17---17-----------|------------------------|-----------------------------------------|
D|----------------0-------|------------------------|-----------------------------------------|
A|----------------0-------|------------------------|-0---------------------------------------|
E|----------------0-------|------------------------|-----------------------------------------|


E|-9-----------9--------------9-----------9---------9---|-----------------------------------------12-|
B|----9--12-12----12-9-----------12-9--------129------12|-9------------------------------------------|
G|----------0-----------11-11----------11--------11-----|----11-11-9---------------------------------|
D|------------------------------------------------------|-------------11-9--11-----------------------|
A|------------------------------------------------------|----------------------9--9--9---------------|
E|------------------------------------------------------|---------------------------------0--0-------|


E|-12----12--12--9-----------|-------------------------------------------|----0--------4--------0-----0--0---4---|
B|------------------12-9-----|-------------------------------------------|----0----------------------------------|
G|------------------------11-|-9---------------------------------13------|---------4------4--1-----1-----1---5---|
D|---------------------------|----11-9---------------------------14------|---------------------------------------|
A|---------------------------|----------11-9--7-----9--7---------16------|---------------------------------------|
E|---------------------------|-------------------9--------9---18-----0---|-0-------------------------------------|


E|-4--6----7----8--8-----------------|---------------------------------------|---------------------------------------|
B|-----------------------------------|---------------------------------------|-------------------------------4-------|
G|-5--6----7----8--8--18-16--4----3--|-3-------------------------------------|-------------------------------4----3--|
D|-----------------------18--2----4--|-4--6--6---6---6---6---6---6--6--6--6--|-6-----6---6---6--6--6---6--6--2----4--|
A|-----------------------------------|----4--4---4---4---4---4---4--4--4--4--|-4--4--4---4---4--4--4---4--4----------|
E|-----------------------------------|---------------------------------------|---------------------------------------|


E|-------------------------------------|---------------------------|---------------------------------------|
B|-------------------------------------|---------10----------------|---------------------------------------|
G|-3-----------------------------------|---------11---8----4----3--|-3-----------------6-------------------|
D|-4-----6---6---6---6---9--9--9----9--|-9---9---13---9----2----4--|-4-----6---6---6---6---6---6--6--6--6--|
A|----4--4---4---4---4-----------------|--------------11-----------|----4--4---4---4---4---4---4--4--4--4--|
E|-------------------------------------|---------------------------|---------------------------------------|


E|-----------------------------|----------------------|
B|-----------------------------|----------------------|
G|-----------14---8----4----3--|-3-----6---6----------|
D|-6--6--6---16---9----2----4--|-4-----6---6----------|
A|-4--4--4---18---11-----------|----4--4---4----------|
E|-----------------------------|----------------------|





Track 2: Untitled

G|--------|--------|--------|--------|--------|--------|--------|--------|--------|
D|--------|--------|--------|--------|--------|--------|--------|--------|--------|
A|--------|--------|--------|--------|--------|--------|--------|--------|--------|
E|--------|--------|--------|--------|--------|--------|--------|--------|--------|


G|--------|--------|--------|--------|--------|--------|--------|--------|--------|
D|--------|--------|--------|--------|--------|--------|--------|--------|--------|
A|--------|--------|--------|--------|--------|--------|--------|--------|--------|
E|--------|--------|--------|--------|--------|--------|--------|--------|--------|


G|--------|--------|--------|--------|--------|--------|--------|--------|--------|
D|--------|--------|--------|--------|--------|--------|--------|--------|--------|
A|--------|--------|--------|--------|--------|--------|--------|--------|--------|
E|--------|--------|--------|--------|--------|--------|--------|--------|--------|


G|--------|--------|--------|--------|--------|--------|--------|--------|--------|
D|--------|--------|--------|--------|--------|--------|--------|--------|--------|
A|--------|--------|--------|--------|--------|--------|--------|--------|--------|
E|--------|--------|--------|--------|--------|--------|--------|--------|--------|


G|--------|--------|--------|--------|--------|--------|--------|--------|--------|
D|--------|--------|--------|--------|--------|--------|--------|--------|--------|
A|--------|--------|--------|--------|--------|--------|--------|--------|--------|
E|--------|--------|--------|--------|--------|--------|--------|--------|--------|


G|--------|--------|--------|--------|--------|--------|--------|--------|--------|
D|--------|--------|--------|--------|--------|--------|--------|--------|--------|
A|--------|--------|--------|--------|--------|--------|--------|--------|--------|
E|--------|--------|--------|--------|--------|--------|--------|--------|--------|


G|--------|--------|--------|--------|--------|--------|--------|--------|--------|
D|--------|--------|--------|--------|--------|--------|--------|--------|--------|
A|--------|--------|--------|--------|--------|--------|--------|--------|--------|
E|--------|--------|--------|--------|--------|--------|--------|--------|--------|


G|--------|--------|--------|--------|--------|--------|--------|--------|--------|
D|--------|--------|--------|--------|--------|--------|--------|--------|--------|
A|--------|--------|--------|--------|--------|--------|--------|--------|--------|
E|--------|--------|--------|--------|--------|--------|--------|--------|--------|


G|--------|--------|--------|--------|--------|--------|--------|--------|--------|
D|--------|--------|--------|--------|--------|--------|--------|--------|--------|
A|--------|--------|--------|--------|--------|--------|--------|--------|--------|
E|--------|--------|--------|--------|--------|--------|--------|--------|--------|


G|--------|--------|--------|--------|--------|--------|--------|--------|--------|
D|--------|--------|--------|--------|--------|--------|--------|--------|--------|
A|--------|--------|--------|--------|--------|--------|--------|--------|--------|
E|--------|--------|--------|--------|--------|--------|--------|--------|--------|


G|--------|--------|--------|--------|--------|--------|--------|--------|--------|
D|--------|--------|--------|--------|--------|--------|--------|--------|--------|
A|--------|--------|--------|--------|--------|--------|--------|--------|--------|
E|--------|--------|--------|--------|--------|--------|--------|--------|--------|


G|--------|--------|--------|--------|--------|--------|--------|--------|--------|
D|--------|--------|--------|--------|--------|--------|--------|--------|--------|
A|--------|--------|--------|--------|--------|--------|--------|--------|--------|
E|--------|--------|--------|--------|--------|--------|--------|--------|--------|


G|--------|--------|--------|--------|--------|--------|--------|--------|
D|--------|--------|--------|--------|--------|--------|--------|--------|
A|--------|--------|--------|--------|--------|--------|--------|--------|
E|--------|--------|--------|--------|--------|--------|--------|--------|