Menu:

 

Search:

 

joe satriani - hordes of locusts:

 



Title: Hordes Of Locusts
Artist: 
Album: Not Of This Earth
Author: Joe Satriani


Track 1: Rhythm Guitar

E|---------------------------------|---------------------------------|---------------------------------|
B|---------------------------------|---------------------------------|---------------------------------|
G|---------------------------------|---------------------------------|---------------------------------|
D|-2----4--------------------------|-2----4--------------------------|-2----4--------------------------|
A|-2----4------4---4---4---4---4---|-2----4------4---4---4---4---4---|-2----4------4---4---4---4---4---|
E|-0----2------2---2---2---2---2---|-0----2------2---2---2---2---2---|-0----2------2---2---2---2---2---|


E|---------------------------------|---------------------------------|---------------------------------|
B|---------------------------------|---------------------------------|---------------------------------|
G|---------------------------------|---------------------------------|---------------------------------|
D|-2----4--------------------------|-2----4--------------------------|-2----4--------------------------|
A|-2----4------4---4---4---4---4---|-2----4------4---4---4---4---4---|-2----4------4---4---4---4---4---|
E|-0----2------2---2---2---2---2---|-0----2------2---2---2---2---2---|-0----2------2---2---2---2---2---|


E|---------------------------------|---------------------------------|--------|--------|
B|---------------------------------|---------------------------------|--------|--------|
G|---------------------------------|---------------------------------|--------|--------|
D|-2----4--------------------------|-2----4--------------------------|--------|--------|
A|-2----4------4---4---4---4---4---|-2----4------4---4---4---4---4---|--------|--------|
E|-0----2------2---2---2---2---2---|-0----2------2---2---2---2---2---|--------|--------|


E|---------------------------------|---------------------------------|--------|--------|
B|---------------------------------|---------------------------------|--------|--------|
G|---------------------------------|---------------------------------|--------|--------|
D|-2----4--------------------------|-2----4--------------------------|--------|--------|
A|-2----4------4---4---4---4---4---|-2----4------4---4---4---4---4---|--------|--------|
E|-0----2------2---2---2---2---2---|-0----2------2---2---2---2---2---|--------|--------|


E|--------|--------|---------------------------------|---------------------------------|
B|--------|--------|---------------------------------|---------------------------------|
G|--------|--------|---------------------------------|---------------------------------|
D|--------|--------|-2----4--------------------------|-2----4--------------------------|
A|--------|--------|-2----4------4---4---4---4---4---|-2----4------4---4---4---4---4---|
E|--------|--------|-0----2------2---2---2---2---2---|-0----2------2---2---2---2---2---|


E|---------------------------------|---------------------------------|---------------------------|
B|---------------------------------|---------------------------------|---------------------------|
G|---------------------------------|---------------------------------|---------------------------|
D|-2----4--------------------------|-2----4--------------------------|---------------------------|
A|-2----4------4---4---4---4---4---|-2----4------4---4---4---4---4---|-5----5---5---5---5---7----|
E|-0----2------2---2---2---2---2---|-0----2------2---2---2---2---2---|---------------------------|


E|------------------------------|---------------------------|------------------------------|
B|------------------------------|---------------------------|------------------------------|
G|------------------------------|---------------------------|------------------------------|
D|------------------------------|---------------------------|------------------------------|
A|-8----8---8---8---8---8---8---|---------------------------|------------------------------|
E|------------------------------|-5----5---5---5---5---4----|-3----3---3---3---3---3---3---|


E|---------------------------|------------------------------|------------------------------|
B|---------------------------|------------------------------|------------------------------|
G|---------------------------|------------------------------|------------------------------|
D|---------------------------|------------------------------|------------------------------|
A|---------------------------|------------------------------|------------------------------|
E|-6----6---6---6---6---0----|-8----8---8---8---8---8---8---|-9----9---9---9---9---9---9---|


E|------------------------------|---------------------------------|---------------------------------|
B|------------------------------|---------------------------------|---------------------------------|
G|------------------------------|---------------------------------|---------------------------------|
D|------------------------------|-2----4--------------------------|-2----4--------------------------|
A|------------------------------|-2----4------4---4---4---4---4---|-2----4------4---4---4---4---4---|
E|-9----9---9---9---9---9---9---|-0----2------2---2---2---2---2---|-0----2------2---2---2---2---2---|


E|--------|--------|--------|--------|--------|--------|---------------------------------|
B|--------|--------|--------|--------|--------|--------|---------------------------------|
G|--------|--------|--------|--------|--------|--------|---------------------------------|
D|--------|--------|--------|--------|--------|--------|---------------------------------|
A|--------|--------|--------|--------|--------|--------|---------------------------------|
E|--------|--------|--------|--------|--------|--------|-2----0------0---0---0---0---0---|


E|---------------------------------|---------------------------------|---------------------------------|
B|---------------------------------|---------------------------------|---------------------------------|
G|---------------------------------|---------------------------------|---------------------------------|
D|---------------------------------|---------------------------------|---------------------------------|
A|---------------------------------|---------------------------------|---------------------------------|
E|-2----0------0---0---0---0---0---|-2----0------0---0---0---0---0---|-2----0------0---0---0---0---0---|


E|---------------------------------|---------------------------------|---------------------------------|
B|---------------------------------|---------------------------------|---------------------------------|
G|---------------------------------|---------------------------------|---------------------------------|
D|---------------------------------|---------------------------------|---------------------------------|
A|---------------------------------|---------------------------------|---------------------------------|
E|-2----0------0---0---0---0---0---|-2----0------0---0---0---0---0---|-2----0------0---0---0---0---0---|


E|---------------------------------|---------------------------------|---------------------------------|
B|---------------------------------|---------------------------------|---------------------------------|
G|---------------------------------|---------------------------------|---------------------------------|
D|---------------------------------|---------------------------------|---------------------------------|
A|---------------------------------|---------------------------------|---------------------------------|
E|-2----0------0---0---0---0---0---|-2----0------0---0---0---0---0---|-2----0------0---0---0---0---0---|


E|---------------------------------|---------------------------------|---------------------------------|
B|---------------------------------|---------------------------------|---------------------------------|
G|---------------------------------|---------------------------------|---------------------------------|
D|---------------------------------|---------------------------------|---------------------------------|
A|---------------------------------|---------------------------------|---------------------------------|
E|-2----0------0---0---0---0---0---|-2----0------0---0---0---0---0---|-2----0------0---0---0---0---0---|


E|---------------------------------|---------------------------------|---------------------------------|
B|---------------------------------|---------------------------------|---------------------------------|
G|---------------------------------|---------------------------------|---------------------------------|
D|---------------------------------|---------------------------------|---------------------------------|
A|---------------------------------|---------------------------------|---------------------------------|
E|-2----0------0---0---0---0---0---|-2----0------0---0---0---0---0---|-2----0------0---0---0---0---0---|


E|--------------------|--------|---------------------------------|---------------------------------|
B|--------------------|--------|---------------------------------|---------------------------------|
G|--------------------|--------|---------------------------------|---------------------------------|
D|--------------------|--------|-2----4--------------------------|-2----4--------------------------|
A|--------------------|--------|-2----4------4---4---4---4---4---|-2----4------4---4---4---4---4---|
E|-2----0-------------|--------|-0----2------2---2---2---2---2---|-0----2------2---2---2---2---2---|


E|---------------------------------|---------------------------------|---------------------------------|
B|---------------------------------|---------------------------------|---------------------------------|
G|---------------------------------|---------------------------------|---------------------------------|
D|-2----4--------------------------|-2----4--------------------------|-2----4--------------------------|
A|-2----4------4---4---4---4---4---|-2----4------4---4---4---4---4---|-2----4------4---4---4---4---4---|
E|-0----2------2---2---2---2---2---|-0----2------2---2---2---2---2---|-0----2------2---2---2---2---2---|


E|---------------------------------|---------------------------------|---------------------------------|
B|---------------------------------|---------------------------------|---------------------------------|
G|---------------------------------|---------------------------------|---------------------------------|
D|-2----4--------------------------|-2----4--------------------------|-2----4--------------------------|
A|-2----4------4---4---4---4---4---|-2----4------4---4---4---4---4---|-2----4------4---4---4---4---4---|
E|-0----2------2---2---2---2---2---|-0----2------2---2---2---2---2---|-0----2------2---2---2---2---2---|


E|--------|--------|--------|--------|---------------------------------|---------------------------------|
B|--------|--------|--------|--------|---------------------------------|---------------------------------|
G|--------|--------|--------|--------|---------------------------------|---------------------------------|
D|--------|--------|--------|--------|-2----4--------------------------|-2----4--------------------------|
A|--------|--------|--------|--------|-2----4------4---4---4---4---4---|-2----4------4---4---4---4---4---|
E|--------|--------|--------|--------|-0----2------2---2---2---2---2---|-0----2------2---2---2---2---2---|


E|---------------------------------|---------------------------------|---------------------------|
B|---------------------------------|---------------------------------|---------------------------|
G|---------------------------------|---------------------------------|---------------------------|
D|-2----4--------------------------|-2----4--------------------------|---------------------------|
A|-2----4------4---4---4---4---4---|-2----4------4---4---4---4---4---|-5----5---5---5---5---7----|
E|-0----2------2---2---2---2---2---|-0----2------2---2---2---2---2---|---------------------------|


E|------------------------------|---------------------------|------------------------------|
B|------------------------------|---------------------------|------------------------------|
G|------------------------------|---------------------------|------------------------------|
D|------------------------------|---------------------------|------------------------------|
A|-8----8---8---8---8---8---8---|---------------------------|------------------------------|
E|------------------------------|-5----5---5---5---5---4----|-3----3---3---3---3---3---3---|


E|---------------------------|------------------------------|------------------------------|
B|---------------------------|------------------------------|------------------------------|
G|---------------------------|------------------------------|------------------------------|
D|---------------------------|------------------------------|------------------------------|
A|---------------------------|------------------------------|------------------------------|
E|-6----6---6---6---6---0----|-8----8---8---8---8---8---8---|-9----9---9---9---9---9---9---|


E|------------------------------|---------------------------------|---------------------------------|
B|------------------------------|---------------------------------|---------------------------------|
G|------------------------------|---------------------------------|---------------------------------|
D|------------------------------|-2----4--------------------------|-2----4--------------------------|
A|------------------------------|-2----4------4---4---4---4---4---|-2----4------4---4---4---4---4---|
E|-9----9---9---9---9---9---9---|-0----2------2---2---2---2---2---|-0----2------2---2---2---2---2---|


E|--------|--------|--------|--------|--------|--------|---------------------------------|
B|--------|--------|--------|--------|--------|--------|---------------------------------|
G|--------|--------|--------|--------|--------|--------|---------------------------------|
D|--------|--------|--------|--------|--------|--------|---------------------------------|
A|--------|--------|--------|--------|--------|--------|---------------------------------|
E|--------|--------|--------|--------|--------|--------|-2----0------0---0---0---0---0---|


E|---------------------------------|---------------------------------|---------------------------------|
B|---------------------------------|---------------------------------|---------------------------------|
G|---------------------------------|---------------------------------|---------------------------------|
D|---------------------------------|---------------------------------|---------------------------------|
A|---------------------------------|---------------------------------|---------------------------------|
E|-2----0------0---0---0---0---0---|-2----0------0---0---0---0---0---|-2----0------0---0---0---0---0---|


E|---------------------------------|---------------------------------|---------------------------------|
B|---------------------------------|---------------------------------|---------------------------------|
G|---------------------------------|---------------------------------|---------------------------------|
D|---------------------------------|---------------------------------|---------------------------------|
A|---------------------------------|---------------------------------|---------------------------------|
E|-2----0------0---0---0---0---0---|-2----0------0---0---0---0---0---|-2----0------0---0---0---0---0---|


E|---------------------------------|---------------------------------|---------------------------------|
B|---------------------------------|---------------------------------|---------------------------------|
G|---------------------------------|---------------------------------|---------------------------------|
D|---------------------------------|---------------------------------|---------------------------------|
A|---------------------------------|---------------------------------|---------------------------------|
E|-2----0------0---0---0---0---0---|-2----0------0---0---0---0---0---|-2----0------0---0---0---0---0---|


E|---------------------------------|---------------------------------|---------------------------------|
B|---------------------------------|---------------------------------|---------------------------------|
G|---------------------------------|---------------------------------|---------------------------------|
D|---------------------------------|---------------------------------|---------------------------------|
A|---------------------------------|---------------------------------|---------------------------------|
E|-2----0------0---0---0---0---0---|-2----0------0---0---0---0---0---|-2----0------0---0---0---0---0---|


E|---------------------------------|---------------------------------|---------------------------------|
B|---------------------------------|---------------------------------|---------------------------------|
G|---------------------------------|---------------------------------|---------------------------------|
D|---------------------------------|---------------------------------|---------------------------------|
A|---------------------------------|---------------------------------|---------------------------------|
E|-2----0------0---0---0---0---0---|-2----0------0---0---0---0---0---|-2----0------0---0---0---0---0---|


E|--------------------|--------|---------------------------------|---------------------------------|
B|--------------------|--------|---------------------------------|---------------------------------|
G|--------------------|--------|---------------------------------|---------------------------------|
D|--------------------|--------|-2----4--------------------------|-2----4--------------------------|
A|--------------------|--------|-2----4------4---4---4---4---4---|-2----4------4---4---4---4---4---|
E|-2----0-------------|--------|-0----2------2---2---2---2---2---|-0----2------2---2---2---2---2---|


E|---------------------------------|---------------------------------|---------------------------------|
B|---------------------------------|---------------------------------|---------------------------------|
G|---------------------------------|---------------------------------|---------------------------------|
D|-2----4--------------------------|-2----4--------------------------|-2----4--------------------------|
A|-2----4------4---4---4---4---4---|-2----4------4---4---4---4---4---|-2----4------4---4---4---4---4---|
E|-0----2------2---2---2---2---2---|-0----2------2---2---2---2---2---|-0----2------2---2---2---2---2---|


E|---------------------------------|---------------------------------|---------------------------------|
B|---------------------------------|---------------------------------|---------------------------------|
G|---------------------------------|---------------------------------|---------------------------------|
D|-2----4--------------------------|-2----4--------------------------|-2----4--------------------------|
A|-2----4------4---4---4---4---4---|-2----4------4---4---4---4---4---|-2----4------4---4---4---4---4---|
E|-0----2------2---2---2---2---2---|-0----2------2---2---2---2---2---|-0----2------2---2---2---2---2---|


E|------------------------------|------------------------------|------------------------------|
B|------------------------------|------------------------------|------------------------------|
G|------------------------------|------------------------------|------------------------------|
D|------------------------------|------------------------------|------------------------------|
A|------------------------------|------------------------------|------------------------------|
E|-9----9---9---9---9---9---9---|-9----9---9---9---9---9---9---|-9----9---9---9---9---9---9---|


E|------------------------------|------------------------------|------------------------|
B|------------------------------|------------------------------|------------------------|
G|------------------------------|------------------------------|------------------------|
D|------------------------------|------------------------------|------------------------|
A|------------------------------|------------------------------|------------------------|
E|-9----9---9---9---9---9---9---|-9----9---9---9---9---9---9---|-9---9-------------9----|


E|---------------------------------|---------------------------------|---------------------------------|
B|---------------------------------|---------------------------------|---------------------------------|
G|---------------------------------|---------------------------------|---------------------------------|
D|-2----4--------------------------|-2----4--------------------------|-2----4--------------------------|
A|-2----4------4---4---4---4---4---|-2----4------4---4---4---4---4---|-2----4------4---4---4---4---4---|
E|-0----2------2---2---2---2---2---|-0----2------2---2---2---2---2---|-0----2------2---2---2---2---2---|


E|---------------------------------|---------------------------------|---------------------------------|
B|---------------------------------|---------------------------------|---------------------------------|
G|---------------------------------|---------------------------------|---------------------------------|
D|-2----4--------------------------|-2----4--------------------------|-2----4--------------------------|
A|-2----4------4---4---4---4---4---|-2----4------4---4---4---4---4---|-2----4------4---4---4---4---4---|
E|-0----2------2---2---2---2---2---|-0----2------2---2---2---2---2---|-0----2------2---2---2---2---2---|


E|---------------------------------|---------------------------------|---------------------------------|
B|---------------------------------|---------------------------------|---------------------------------|
G|---------------------------------|---------------------------------|---------------------------------|
D|-2----4--------------------------|-2----4--------------------------|-2----4--------------------------|
A|-2----4------4---4---4---4---4---|-2----4------4---4---4---4---4---|-2----4------4---4---4---4---4---|
E|-0----2------2---2---2---2---2---|-0----2------2---2---2---2---2---|-0----2------2---2---2---2---2---|


E|---------------------------------|---------------------------------|---------------------------------|
B|---------------------------------|---------------------------------|---------------------------------|
G|---------------------------------|---------------------------------|---------------------------------|
D|-2----4--------------------------|-2----4--------------------------|-2----4--------------------------|
A|-2----4------4---4---4---4---4---|-2----4------4---4---4---4---4---|-2----4------4---4---4---4---4---|
E|-0----2------2---2---2---2---2---|-0----2------2---2---2---2---2---|-0----2------2---2---2---2---2---|


E|---------------------------------|---------------------------------|---------------------------------|
B|---------------------------------|---------------------------------|---------------------------------|
G|---------------------------------|---------------------------------|---------------------------------|
D|-2----4--------------------------|-2----4--------------------------|-2----4--------------------------|
A|-2----4------4---4---4---4---4---|-2----4------4---4---4---4---4---|-2----4------4---4---4---4---4---|
E|-0----2------2---2---2---2---2---|-0----2------2---2---2---2---2---|-0----2------2---2---2---2---2---|


E|---------------------------------|--------|--------|--------|--------|--------|--------|
B|---------------------------------|--------|--------|--------|--------|--------|--------|
G|---------------------------------|--------|--------|--------|--------|--------|--------|
D|-2----4--------------------------|--------|--------|--------|--------|--------|--------|
A|-2----4------4---4---4---4---4---|--------|--------|--------|--------|--------|--------|
E|-0----2------2---2---2---2---2---|--------|--------|--------|--------|--------|--------|


E|--------|--------|--------|--------|--------|--------|--------|--------|--------|
B|--------|--------|--------|--------|--------|--------|--------|--------|--------|
G|--------|--------|--------|--------|--------|--------|--------|--------|--------|
D|--------|--------|--------|--------|--------|--------|--------|--------|--------|
A|--------|--------|--------|--------|--------|--------|--------|--------|--------|
E|--------|--------|--------|--------|--------|--------|--------|--------|--------|


E|--------|
B|--------|
G|--------|
D|--------|
A|--------|
E|--------|





Track 2: Lead Guitar

E|--------|--------|------------------------------------|--------|---------------------------|
B|--------|--------|------------------------------------|--------|---------------------------|
G|--------|--------|------------------------------------|--------|----------11--11---12-9----|
D|--------|--------|------------------------------------|--------|----------4---4----5--2----|
A|--------|--------|------------------------------------|--------|---------------------------|
E|--------|--------|----------28-27-28-27----29-28------|--------|---------------------------|


E|----------------------------|--------------------|--------|---------------------------|
B|-----------------11----12---|-12--11--11---------|--------|---------------------------|
G|-9-----11--11-12-3--12-4----|-4---3---3----------|--------|----------11--11---12-9----|
D|-2-----4---4--5-----5-------|--------------------|--------|----------4---4----5--2----|
A|----------------------------|--------------------|--------|---------------------------|
E|----------------------------|--------------------|--------|---------------------------|


E|----------------------------|--------------------|--------|--------|--------|-----------------------------------------------------------------|
B|-----------------11----12---|-12--11--11---------|--------|--------|--------|-----------------------------------------------------------------|
G|-9-----11--11-12-3--12-4----|-4---3---3----------|--------|--------|--------|-----------------------------------------------------------------|
D|-2-----4---4--5-----5-------|--------------------|--------|--------|--------|-3-2-0-3-2-0-3-2-0-3-2-0-3-2-0-3-2-0-3-2-0-3-2-0-3-2-0-3-2-0-3-2-|
A|----------------------------|--------------------|--------|--------|--------|-----------------------------------------------------------------|
E|----------------------------|--------------------|--------|--------|--------|-----------------------------------------------------------------|


E|----------------------------------------------------------------|---------------------------|
B|----------------------------------------------------------------|---------------------------|
G|----------------------------------------------------------------|----------11--11---12-9----|
D|-0-3-2-0-3-2-0-3-2-0-3-2-0-3-2-0-3-2-0-3-2-0-3-2-0-3-2-0-3-2-0--|----------4---4----5--2----|
A|----------------------------------------------------------------|---------------------------|
E|----------------------------------------------------------------|---------------------------|


E|----------------------------|--------------------|--------|-4-----------|--------|
B|-----------------11----12---|-12--11--11---------|--------|-6------10---|-9------|
G|-9-----11--11-12-3--12-4----|-4---3---3----------|--------|-4------10---|-9------|
D|-2-----4---4--5-----5-------|--------------------|--------|-7------10---|-9------|
A|----------------------------|--------------------|--------|-5------7----|-8------|
E|----------------------------|--------------------|--------|-------------|--------|


E|-7-----------|--------|-------------|--------|--------|-------------|---------------------------|
B|-5------3----|-6------|-7------10---|-9------|-12-----|-13----3-----|-3-------------------------|
G|-5------3----|-6------|-7------10---|-9------|-12-----|-13----3-----|-3--------11--11---12-9----|
D|-6------3----|-6------|-7------10---|-9------|-12-----|-13----------|----------4---4----5--2----|
A|-0-----------|--------|--------7----|--------|--------|-------------|---------------------------|
E|--------4----|-3------|-6-----------|-8------|-9------|-9-----------|---------------------------|


E|------------------------------|-----------------|--------|--------|--------|------25---28---29---29---|
B|-------------------------19---|-19---19---------|--------|--------|--------|------25---28---29---29---|
G|-9-----11-12-16-15-19-18-11---|-11---11---------|--------|--------|--------|------25---28---29---29---|
D|-2-----4--5--9--8--12-11------|-----------------|--------|--------|--------|--------------------------|
A|------------------------------|-----------------|--------|--------|--------|--------------------------|
E|------------------------------|-----------------|--------|--------|--------|--------------------------|


E|-----------------|-14----14---14---1214----|-12----------------------------------------------|
B|-----------------|---------------15-----15-|----14-15-12-14----12----------------------------|
G|-----4-----4-----|-------------------------|----------------15----14-15-12-11----------------|
D|-----4-----4-----|-------------------------|----------------------------------12-------------|
A|-----4-----4-----|-------------------------|-------------------------------------13-12-10-7--|
E|-----------------|-------------------------|-------------------------------------------------|


E|---------------------------------|-------------------------------------------|-12--10--12--14--12--10--12--14--12--10--9---7---|
B|---------------------------------|-------------------------------------------|-------------------------------------------------|
G|-9--8----9--7----9--6----9--5----|-4--5-4-3--4--3--2--0----------------------|-------------------------------------------------|
D|---------------------------------|-----------------------4--0----------------|-------------------------------------------------|
A|---------------------------------|-----------------------------4--0-----7----|-------------------------------------------------|
E|---------------------------------|-----------------------------------0-------|-------------------------------------------------|


E|-9---10--9---10--9---7---6----6----|-6-7-6-------6-7-6-------6-7-6-------6-7-6--------------|
B|-----------------------------------|-------8-7-8-------8-7-8-------8-7-8-------8-7-8-7------|
G|-----------------------------------|---------------------------------------------------7----|
D|-----------------------------------|--------------------------------------------------------|
A|-----------------------------------|--------------------------------------------------------|
E|-----------------------------------|--------------------------------------------------------|


E|--------------------------------------------------|---------------------------------------------------------------------------|
B|--------------------------------------------------|---------------------------------------------------------------------------|
G|-7-9-119-7-6-7-9-7-6-7-9-119-7-6------------------|---------------------------------------6-7-9-7-6-6-7-6-4-------------------|
D|---------------------------------8---8----8-------|-----------------------4-5-7-5-4-5-7-9-------------------7-4-5-7-4-5-7-5-5-|
A|----------------------------------------------10--|-----------------4-5-7-----------------------------------------------------|
E|----------------------------------------------12--|-2-3-5-3-2-3-5-7-----------------------------------------------------------|


E|--------------------------------------------------------------------------|--------------------------------------------------------------------------|
B|--------------------------------------------------------------------------|---------------------------------------------------12-14151412----14151412|
G|-----6-7-9-7-6-7-9-119-7------------------------8-1012108-7-8---7-------9-|-1112119---------11121412111114151412--121415---15------------1512--------|
D|-7-9---------------------117-9-117-9-11-8--10-12--------------10--9-1012--|---------14111214--------------------15-----------------------------------|
A|--------------------------------------------------------------------------|--------------------------------------------------------------------------|
E|--------------------------------------------------------------------------|--------------------------------------------------------------------------|


E|------------------------------------------|-19---19--19--19-18-17-15-17----------|
B|-1214151412--1214151412-------------------|-----------------------------17----17-|
G|-----------15----------1515--15---15--0---|--------------------------------16----|
D|------------------------------------------|--------------------------------------|
A|------------------------------------------|--------------------------------------|
E|------------------------------------------|--------------------------------------|


E|-----------------------------------------------|------------------15-1214151412------------------------|
B|-15----15-14----13-14--------------------------|-------------------------------151214151412------------|
G|----14----------------15-13-12-------------12--|-12-------11-11----------------------------151214151412|
D|-----------------------------------------------|-------------------------------------------------------|
A|-------------------------------13-14-13-14-----|----12-13----------------------------------------------|
E|-----------------------------------------------|-------------------------------------------------------|


E|----------------------------------------------------|---------------------------|
B|----------------------------------------------------|-17---17-17---17--17---17--|
G|----------------------------------------------------|---------------------------|
D|-17-1416171614--------------------------------------|---------------------------|
A|--------------17141617161413-1314161416-12--12------|---------------------------|
E|----------------------------------------------------|---------------------------|


E|---------------------------|---------------------------|----------------------------|
B|-17--17--17-17---17---17---|---------------------------|-----------------11----12---|
G|---------------------------|----------11--11---12-9----|-9-----11--11-12-3--12-4----|
D|---------------------------|----------4---4----5--2----|-2-----4---4--5-----5-------|
A|---------------------------|---------------------------|----------------------------|
E|---------------------------|---------------------------|----------------------------|


E|--------------------|--------|---------------------------|--------------------------------|
B|-12--11--11---------|--------|---------------------------|-----------------------11--15---|
G|-4---3---3----------|--------|----------11--11---12-9----|-9---9---11--11--11-12-3---7----|
D|--------------------|--------|----------4---4----5--2----|-2---2---4---4---4--5-----------|
A|--------------------|--------|---------------------------|--------------------------------|
E|--------------------|--------|---------------------------|--------------------------------|


E|---------------------|---------------------|--------|--------|-----------------------------------------------------------------|
B|-15----14--14---14---|-14----14--14--------|--------|--------|-----------------------------------------------------------------|
G|-7-----6---6----6----|---------------------|--------|--------|-----------------------------------------------------------------|
D|---------------------|---------------------|--------|--------|-3-2-0-3-2-0-3-2-0-3-2-0-3-2-0-3-2-0-3-2-0-3-2-0-3-2-0-3-2-0-3-2-|
A|---------------------|---------------------|--------|--------|-----------------------------------------------------------------|
E|---------------------|---------------------|--------|--------|-----------------------------------------------------------------|


E|----------------------------------------------------------------|---------------------------|
B|----------------------------------------------------------------|---------------------------|
G|----------------------------------------------------------------|----------11--11---12-9----|
D|-0-3-2-0-3-2-0-3-2-0-3-2-0-3-2-0-3-2-0-3-2-0-3-2-0-3-2-0-3-2-0--|----------4---4----5--2----|
A|----------------------------------------------------------------|---------------------------|
E|----------------------------------------------------------------|---------------------------|


E|----------------------------|--------------------|--------|-4-----------|--------|
B|-----------------11----12---|-12--11--11---------|--------|-6------10---|-9------|
G|-9-----11--11-12-3--12-4----|-4---3---3----------|--------|-4------10---|-9------|
D|-2-----4---4--5-----5-------|--------------------|--------|-7------10---|-9------|
A|----------------------------|--------------------|--------|-5------7----|-8------|
E|----------------------------|--------------------|--------|-------------|--------|


E|-7-----------|--------|-------------|--------|--------|-------------|---------------------------|
B|-5------3----|-6------|-7------10---|-9------|-12-----|-13----3-----|-3-------------------------|
G|-5------3----|-6------|-7------10---|-9------|-12-----|-13----3-----|-3--------11--11---12-9----|
D|-6------3----|-6------|-7------10---|-9------|-12-----|-13----------|----------4---4----5--2----|
A|-0-----------|--------|--------7----|--------|--------|-------------|---------------------------|
E|--------4----|-3------|-6-----------|-8------|-9------|-9-----------|---------------------------|


E|------------------------------|-----------------|--------|--------|--------|------25---28---29---29---|
B|-------------------------19---|-19---19---------|--------|--------|--------|------25---28---29---29---|
G|-9-----11-12-16-15-19-18-11---|-11---11---------|--------|--------|--------|------25---28---29---29---|
D|-2-----4--5--9--8--12-11------|-----------------|--------|--------|--------|--------------------------|
A|------------------------------|-----------------|--------|--------|--------|--------------------------|
E|------------------------------|-----------------|--------|--------|--------|--------------------------|


E|-----------------|-14----14---14---1214----|-12----------------------------------------------|
B|-----------------|---------------15-----15-|----14-15-12-14----12----------------------------|
G|-----4-----4-----|-------------------------|----------------15----14-15-12-11----------------|
D|-----4-----4-----|-------------------------|----------------------------------12-------------|
A|-----4-----4-----|-------------------------|-------------------------------------13-12-10-7--|
E|-----------------|-------------------------|-------------------------------------------------|


E|---------------------------------|-------------------------------------------|-12--10--12--14--12--10--12--14--12--10--9---7---|
B|---------------------------------|-------------------------------------------|-------------------------------------------------|
G|-9--8----9--7----9--6----9--5----|-4--5-4-3--4--3--2--0----------------------|-------------------------------------------------|
D|---------------------------------|-----------------------4--0----------------|-------------------------------------------------|
A|---------------------------------|-----------------------------4--0-----7----|-------------------------------------------------|
E|---------------------------------|-----------------------------------0-------|-------------------------------------------------|


E|-9---10--9---10--9---7---6----6----|-6-7-6-------6-7-6-------6-7-6-------6-7-6--------------|
B|-----------------------------------|-------8-7-8-------8-7-8-------8-7-8-------8-7-8-7------|
G|-----------------------------------|---------------------------------------------------7----|
D|-----------------------------------|--------------------------------------------------------|
A|-----------------------------------|--------------------------------------------------------|
E|-----------------------------------|--------------------------------------------------------|


E|--------------------------------------------------|---------------------------------------------------------------------------|
B|--------------------------------------------------|---------------------------------------------------------------------------|
G|-7-9-119-7-6-7-9-7-6-7-9-119-7-6------------------|---------------------------------------6-7-9-7-6-6-7-6-4-------------------|
D|---------------------------------8---8----8-------|-----------------------4-5-7-5-4-5-7-9-------------------7-4-5-7-4-5-7-5-5-|
A|----------------------------------------------10--|-----------------4-5-7-----------------------------------------------------|
E|----------------------------------------------12--|-2-3-5-3-2-3-5-7-----------------------------------------------------------|


E|--------------------------------------------------------------------------|--------------------------------------------------------------------------|
B|--------------------------------------------------------------------------|---------------------------------------------------12-14151412----14151412|
G|-----6-7-9-7-6-7-9-119-7------------------------8-1012108-7-8---7-------9-|-1112119---------11121412111114151412--121415---15------------1512--------|
D|-7-9---------------------117-9-117-9-11-8--10-12--------------10--9-1012--|---------14111214--------------------15-----------------------------------|
A|--------------------------------------------------------------------------|--------------------------------------------------------------------------|
E|--------------------------------------------------------------------------|--------------------------------------------------------------------------|


E|------------------------------------------|-19---19--19--19-18-17-15-17----------|
B|-1214151412--1214151412-------------------|-----------------------------17----17-|
G|-----------15----------1515--15---15--0---|--------------------------------16----|
D|------------------------------------------|--------------------------------------|
A|------------------------------------------|--------------------------------------|
E|------------------------------------------|--------------------------------------|


E|-----------------------------------------------|------------------15-1214151412------------------------|
B|-15----15-14----13-14--------------------------|-------------------------------151214151412------------|
G|----14----------------15-13-12-------------12--|-12-------11-11----------------------------151214151412|
D|-----------------------------------------------|-------------------------------------------------------|
A|-------------------------------13-14-13-14-----|----12-13----------------------------------------------|
E|-----------------------------------------------|-------------------------------------------------------|


E|----------------------------------------------------|---------------------------|
B|----------------------------------------------------|-17---17-17---17--17---17--|
G|----------------------------------------------------|---------------------------|
D|-17-1416171614--------------------------------------|---------------------------|
A|--------------17141617161413-1314161416-12--12------|---------------------------|
E|----------------------------------------------------|---------------------------|


E|---------------------------|---------------------------|----------------------------|
B|-17--17--17-17---17---17---|---------------------------|-----------------11----12---|
G|---------------------------|----------11--11---12-9----|-9-----11--11-12-3--12-4----|
D|---------------------------|----------4---4----5--2----|-2-----4---4--5-----5-------|
A|---------------------------|---------------------------|----------------------------|
E|---------------------------|---------------------------|----------------------------|


E|--------------------|--------|---------------------------|--------------------------------|
B|-12--11--11---------|--------|---------------------------|-----------------------11--15---|
G|-4---3---3----------|--------|----------11--11---12-9----|-9---9---11--11--11-12-3---7----|
D|--------------------|--------|----------4---4----5--2----|-2---2---4---4---4--5-----------|
A|--------------------|--------|---------------------------|--------------------------------|
E|--------------------|--------|---------------------------|--------------------------------|


E|---------------------|---------------------|--------|--------|--------|-21-----|
B|-15----14--14---14---|-14----14--14--------|-13-----|-14-----|-16-----|-18-----|
G|-7-----6---6----6----|---------------------|-13-----|-14-----|-16-----|-18-----|
D|---------------------|---------------------|-13-----|-14-----|-16-----|-18-----|
A|---------------------|---------------------|--------|--------|--------|-16-----|
E|---------------------|---------------------|-9------|-9------|--------|--------|


E|-21-----|-21-----|---------------------------|-----------------18----19---|-19---------------------|
B|-18-----|-18-----|----------19--19---20-17---|-17----19--19-20-11-20-12---|-12--2--------2---------|
G|-18-----|-18-----|----------11--11---12-9----|-9-----11--11-12-3--12-4----|-4----------------------|
D|-18-----|-18-----|----------4---4----5--2----|-2-----4---4--5-----5-------|------------------------|
A|-16-----|-16-----|---------------------------|----------------------------|------------------------|
E|--------|--------|---------------------------|----------------------------|------------------------|


E|--------------------|---------------------------|-----------------18--22---|-22-----21---|
B|-----28-------------|----------19--19---20-17---|-17----19--19-20-11--15---|-15-----17---|
G|--------------------|----------11--11---12-9----|-9-----11--11-12-3---7----|-7------6----|
D|--------------------|----------4---4----5--2----|-2-----4---4--5-----------|-------------|
A|--------------------|---------------------------|--------------------------|-------------|
E|--------------------|---------------------------|--------------------------|-------------|


E|-21---------------------|------------------------------|-----------------18--19---|
B|-17---------------------|-------------19--19---20-17---|-17----19--19-20-11--12---|
G|-6----2----2------------|-------------11--11---12-9----|-9-----11--11-12----------|
D|------------------------|-----24-----------------------|--------------------------|
A|-------------------16---|------------------------------|--------------------------|
E|------------------------|------------------------------|--------------------------|


E|-19---18-----|------29---29---------|------29-------------------|-----------------18--21---|
B|-12---11-----|------29---29---------|----------19--19---20-17---|-17----19--19-20-11--14---|
G|-------------|----------------------|----------11--11---12-9----|-9-----11--11-12----------|
D|-------------|----------------------|---------------------------|--------------------------|
A|-------------|----------------------|---------------------------|--------------------------|
E|-------------|----------------------|---------------------------|--------------------------|


E|-21-----|-21-----|-18-----|-18----18---15---14---|-17-----|-17----17---15---14---|
B|-14-----|-14-----|--------|----------------------|--------|----------------------|
G|--------|--------|--------|----------------------|--------|----------------------|
D|--------|--------|--------|----------------------|--------|----------------------|
A|--------|--------|--------|----------------------|--------|----------------------|
E|--------|--------|--------|----------------------|--------|----------------------|


E|-18-----|-18----18---15---14---|-17-----|-17----17---15---14---|-18-----|-18----18---15---14---|
B|--------|----------------------|--------|----------------------|--------|----------------------|
G|--------|----------------------|--------|----------------------|--------|----------------------|
D|--------|----------------------|--------|----------------------|--------|----------------------|
A|--------|----------------------|--------|----------------------|--------|----------------------|
E|--------|----------------------|--------|----------------------|--------|----------------------|


E|-17-----|-17----17---15---14---|-18-----|-18----18---15---14---|-17-----|-17----17---15---14---|
B|--------|----------------------|--------|----------------------|--------|----------------------|
G|--------|----------------------|--------|----------------------|--------|----------------------|
D|--------|----------------------|--------|----------------------|--------|----------------------|
A|--------|----------------------|--------|----------------------|--------|----------------------|
E|--------|----------------------|--------|----------------------|--------|----------------------|





Track 3: Lead Guitar (Overdub)

E|--------|--------|--------|--------|--------|--------|------------------------------------|
B|--------|--------|--------|--------|--------|--------|------------------------------------|
G|--------|--------|--------|--------|--------|--------|-------------------------5----------|
D|--------|--------|--------|--------|--------|--------|-------------------5--4--------5----|
A|--------|--------|--------|--------|--------|--------|-------------5--4-----------4-------|
E|--------|--------|--------|--------|--------|--------|----------4-------------------------|


E|------------------------------------|---------------------------------|---------------------------------|
B|------------------------------------|---------------------------------|---------------------------------|
G|------------------------------------|---------------------------------|---------------------------------|
D|------------------------------------|-2----4--------------------------|-2----4--------------------------|
A|------------------------------------|-2----4------4---4---4---4---4---|-2----4------4---4---4---4---4---|
E|----------28-27-28-27----29-28------|-0----2------2---2---2---2---2---|-0----2------2---2---2---2---2---|


E|------------------------------------|------------------------------------|--------|
B|------------------------------------|------------------------------------|--------|
G|-------------------------5----------|------------------------------------|--------|
D|-------------------5--4--------5----|------------------------------------|--------|
A|-------------5--4-----------4-------|------------------------------------|--------|
E|----------4-------------------------|----------28-27-28-27----29-28------|--------|


E|--------|--------|--------|--------|--------|------------------------------------|
B|--------|--------|--------|--------|--------|------------------------------------|
G|--------|--------|--------|--------|--------|-------------------------5----------|
D|--------|--------|--------|--------|--------|-------------------5--4--------5----|
A|--------|--------|--------|--------|--------|-------------5--4-----------4-------|
E|--------|--------|--------|--------|--------|----------4-------------------------|


E|------------------------------------|--------|--------|--------|--------|--------|
B|------------------------------------|--------|--------|--------|--------|--------|
G|------------------------------------|--------|--------|--------|--------|--------|
D|------------------------------------|--------|--------|--------|--------|--------|
A|------------------------------------|--------|--------|--------|--------|--------|
E|----------28-27-28-27----29-28------|--------|--------|--------|--------|--------|


E|--------|--------|--------|--------|--------|--------|--------|--------|--------|
B|--------|--------|--------|--------|--------|--------|--------|--------|--------|
G|--------|--------|--------|--------|--------|--------|--------|--------|--------|
D|--------|--------|--------|--------|--------|--------|--------|--------|--------|
A|--------|--------|--------|--------|--------|--------|--------|--------|--------|
E|--------|--------|--------|--------|--------|--------|--------|--------|--------|


E|--------|--------|--------|--------|--------|--------|--------|--------|--------|
B|--------|--------|--------|--------|--------|--------|--------|--------|--------|
G|--------|--------|--------|--------|--------|--------|--------|--------|--------|
D|--------|--------|--------|--------|--------|--------|--------|--------|--------|
A|--------|--------|--------|--------|--------|--------|--------|--------|--------|
E|--------|--------|--------|--------|--------|--------|--------|--------|--------|


E|--------|--------|--------|--------|--------|--------|--------|--------|--------|
B|--------|--------|--------|--------|--------|--------|--------|--------|--------|
G|--------|--------|--------|--------|--------|--------|--------|--------|--------|
D|--------|--------|--------|--------|--------|--------|--------|--------|--------|
A|--------|--------|--------|--------|--------|--------|--------|--------|--------|
E|--------|--------|--------|--------|--------|--------|--------|--------|--------|


E|--------|--------|--------|--------|------------------------------------|------------------------------------|
B|--------|--------|--------|--------|------------------------------------|------------------------------------|
G|--------|--------|--------|--------|-------------------------5----------|------------------------------------|
D|--------|--------|--------|--------|-------------------5--4--------5----|------------------------------------|
A|--------|--------|--------|--------|-------------5--4-----------4-------|------------------------------------|
E|--------|--------|--------|--------|----------4-------------------------|----------28-27-28-27----29-28------|


E|--------|--------|------------------------------------|------------------------------------|
B|--------|--------|------------------------------------|------------------------------------|
G|--------|--------|-------------------------5----------|------------------------------------|
D|--------|--------|-------------------5--4--------5----|------------------------------------|
A|--------|--------|-------------5--4-----------4-------|------------------------------------|
E|--------|--------|----------4-------------------------|----------28-27-28-27----29-28------|


E|--------|--------|--------|--------|--------|--------|------------------------------------|
B|--------|--------|--------|--------|--------|--------|------------------------------------|
G|--------|--------|--------|--------|--------|--------|-------------------------5----------|
D|--------|--------|--------|--------|--------|--------|-------------------5--4--------5----|
A|--------|--------|--------|--------|--------|--------|-------------5--4-----------4-------|
E|--------|--------|--------|--------|--------|--------|----------4-------------------------|


E|------------------------------------|--------|--------|--------|--------|--------|
B|------------------------------------|--------|--------|--------|--------|--------|
G|------------------------------------|--------|--------|--------|--------|--------|
D|------------------------------------|--------|--------|--------|--------|--------|
A|------------------------------------|--------|--------|--------|--------|--------|
E|----------28-27-28-27----29-28------|--------|--------|--------|--------|--------|


E|--------|--------|--------|--------|--------|--------|--------|--------|--------|
B|--------|--------|--------|--------|--------|--------|--------|--------|--------|
G|--------|--------|--------|--------|--------|--------|--------|--------|--------|
D|--------|--------|--------|--------|--------|--------|--------|--------|--------|
A|--------|--------|--------|--------|--------|--------|--------|--------|--------|
E|--------|--------|--------|--------|--------|--------|--------|--------|--------|


E|--------|--------|--------|--------|--------|--------|--------|--------|--------|
B|--------|--------|--------|--------|--------|--------|--------|--------|--------|
G|--------|--------|--------|--------|--------|--------|--------|--------|--------|
D|--------|--------|--------|--------|--------|--------|--------|--------|--------|
A|--------|--------|--------|--------|--------|--------|--------|--------|--------|
E|--------|--------|--------|--------|--------|--------|--------|--------|--------|


E|--------|--------|--------|--------|--------|--------|--------|--------|--------|
B|--------|--------|--------|--------|--------|--------|--------|--------|--------|
G|--------|--------|--------|--------|--------|--------|--------|--------|--------|
D|--------|--------|--------|--------|--------|--------|--------|--------|--------|
A|--------|--------|--------|--------|--------|--------|--------|--------|--------|
E|--------|--------|--------|--------|--------|--------|--------|--------|--------|


E|--------|--------|--------|--------|------------------------------------|------------------------------------|
B|--------|--------|--------|--------|------------------------------------|------------------------------------|
G|--------|--------|--------|--------|-------------------------5----------|------------------------------------|
D|--------|--------|--------|--------|-------------------5--4--------5----|------------------------------------|
A|--------|--------|--------|--------|-------------5--4-----------4-------|------------------------------------|
E|--------|--------|--------|--------|----------4-------------------------|----------28-27-28-27----29-28------|


E|--------|--------|------------------------------------|------------------------------------|
B|--------|--------|------------------------------------|------------------------------------|
G|--------|--------|-------------------------5----------|------------------------------------|
D|--------|--------|-------------------5--4--------5----|------------------------------------|
A|--------|--------|-------------5--4-----------4-------|------------------------------------|
E|--------|--------|----------4-------------------------|----------28-27-28-27----29-28------|


E|--------|--------|--------|--------|--------|--------|--------|--------|------------------------------------|
B|--------|--------|--------|--------|--------|--------|--------|--------|------------------------------------|
G|--------|--------|--------|--------|--------|--------|--------|--------|-------------------------5----------|
D|--------|--------|--------|--------|--------|--------|--------|--------|-------------------5--4--------5----|
A|--------|--------|--------|--------|--------|--------|--------|--------|-------------5--4-----------4-------|
E|--------|--------|--------|--------|--------|--------|--------|--------|----------4-------------------------|


E|------------------------------------|--------|--------|------------------------------------|
B|------------------------------------|--------|--------|------------------------------------|
G|------------------------------------|--------|--------|-------------------------5----------|
D|------------------------------------|--------|--------|-------------------5--4--------5----|
A|------------------------------------|--------|--------|-------------5--4-----------4-------|
E|----------28-27-28-27----29-28------|--------|--------|----------4-------------------------|


E|------------------------------------|--------|--------|------------------------------------|
B|------------------------------------|--------|--------|------------------------------------|
G|------------------------------------|--------|--------|-------------------------5----------|
D|------------------------------------|--------|--------|-------------------5--4--------5----|
A|------------------------------------|--------|--------|-------------5--4-----------4-------|
E|----------28-27-28-27----29-28------|--------|--------|----------4-------------------------|


E|------------------------------------|--------|--------|------------------------------------|
B|------------------------------------|--------|--------|------------------------------------|
G|------------------------------------|--------|--------|-------------------------5----------|
D|------------------------------------|--------|--------|-------------------5--4--------5----|
A|------------------------------------|--------|--------|-------------5--4-----------4-------|
E|----------28-27-28-27----29-28------|--------|--------|----------4-------------------------|


E|------------------------------------|--------|--------|------------------------------------|
B|------------------------------------|--------|--------|------------------------------------|
G|------------------------------------|--------|--------|-------------------------5----------|
D|------------------------------------|--------|--------|-------------------5--4--------5----|
A|------------------------------------|--------|--------|-------------5--4-----------4-------|
E|----------28-27-28-27----29-28------|--------|--------|----------4-------------------------|


E|------------------------------------|--------|--------|------------------------------------|
B|------------------------------------|--------|--------|------------------------------------|
G|------------------------------------|--------|--------|-------------------------5----------|
D|------------------------------------|--------|--------|-------------------5--4--------5----|
A|------------------------------------|--------|--------|-------------5--4-----------4-------|
E|----------28-27-28-27----29-28------|--------|--------|----------4-------------------------|


E|------------------------------------|--------|--------|------------------------------------|
B|------------------------------------|--------|--------|------------------------------------|
G|------------------------------------|--------|--------|-------------------------5----------|
D|------------------------------------|--------|--------|-------------------5--4--------5----|
A|------------------------------------|--------|--------|-------------5--4-----------4-------|
E|----------28-27-28-27----29-28------|--------|--------|----------4-------------------------|


E|------------------------------------|--------|--------|------------------------------------|
B|------------------------------------|--------|--------|------------------------------------|
G|------------------------------------|--------|--------|-------------------------5----------|
D|------------------------------------|--------|--------|-------------------5--4--------5----|
A|------------------------------------|--------|--------|-------------5--4-----------4-------|
E|----------28-27-28-27----29-28------|--------|--------|----------4-------------------------|


E|------------------------------------|
B|------------------------------------|
G|------------------------------------|
D|------------------------------------|
A|------------------------------------|
E|----------28-27-28-27----29-28------|





Track 4: Sitar

E|--------|--------|--------|--------|--------|--------|--------|--------|--------|
B|--------|--------|--------|--------|--------|--------|--------|--------|--------|
G|--------|--------|--------|--------|--------|--------|--------|--------|--------|
D|--------|--------|--------|--------|--------|--------|--------|--------|--------|
A|--------|--------|--------|--------|--------|--------|--------|--------|--------|
E|--------|--------|--------|--------|--------|--------|--------|--------|--------|


E|--------|--------|--------|------------------------------------------|------------------------------------------|
B|--------|--------|--------|---------0--1--0--0--0--5--0--4--0--8--0--|-7--0--12-0--10-0--17-0--16-0--13-0--10---|
G|--------|--------|--------|------------------------------------------|------------------------------------------|
D|--------|--------|--------|------------------------------------------|------------------------------------------|
A|--------|--------|--------|------------------------------------------|------------------------------------------|
E|--------|--------|--------|------------------------------------------|------------------------------------------|


E|--------|--------|--------|--------|--------|--------|--------|--------|--------|
B|--------|--------|--------|--------|--------|--------|--------|--------|--------|
G|--------|--------|--------|--------|--------|--------|--------|--------|--------|
D|--------|--------|--------|--------|--------|--------|--------|--------|--------|
A|--------|--------|--------|--------|--------|--------|--------|--------|--------|
E|--------|--------|--------|--------|--------|--------|--------|--------|--------|


E|--------|--------|--------|--------|--------|--------|--------|--------|--------|
B|--------|--------|--------|--------|--------|--------|--------|--------|--------|
G|--------|--------|--------|--------|--------|--------|--------|--------|--------|
D|--------|--------|--------|--------|--------|--------|--------|--------|--------|
A|--------|--------|--------|--------|--------|--------|--------|--------|--------|
E|--------|--------|--------|--------|--------|--------|--------|--------|--------|


E|--------|--------|--------|--------|--------|--------|--------|--------|--------|
B|--------|--------|--------|--------|--------|--------|--------|--------|--------|
G|--------|--------|--------|--------|--------|--------|--------|--------|--------|
D|--------|--------|--------|--------|--------|--------|--------|--------|--------|
A|--------|--------|--------|--------|--------|--------|--------|--------|--------|
E|--------|--------|--------|--------|--------|--------|--------|--------|--------|


E|--------|--------|--------|--------|--------|--------|--------|--------|--------|
B|--------|--------|--------|--------|--------|--------|--------|--------|--------|
G|--------|--------|--------|--------|--------|--------|--------|--------|--------|
D|--------|--------|--------|--------|--------|--------|--------|--------|--------|
A|--------|--------|--------|--------|--------|--------|--------|--------|--------|
E|--------|--------|--------|--------|--------|--------|--------|--------|--------|


E|--------|--------|--------|--------|--------|--------|--------|--------|--------|
B|--------|--------|--------|--------|--------|--------|--------|--------|--------|
G|--------|--------|--------|--------|--------|--------|--------|--------|--------|
D|--------|--------|--------|--------|--------|--------|--------|--------|--------|
A|--------|--------|--------|--------|--------|--------|--------|--------|--------|
E|--------|--------|--------|--------|--------|--------|--------|--------|--------|


E|--------|--------|--------|------------------------------------------|------------------------------------------|
B|--------|--------|--------|---------0--1--0--0--0--5--0--4--0--8--0--|-7--0--12-0--10-0--17-0--16-0--13-0--10---|
G|--------|--------|--------|------------------------------------------|------------------------------------------|
D|--------|--------|--------|------------------------------------------|------------------------------------------|
A|--------|--------|--------|------------------------------------------|------------------------------------------|
E|--------|--------|--------|------------------------------------------|------------------------------------------|


E|--------|--------|--------|--------|--------|--------|--------|--------|--------|
B|--------|--------|--------|--------|--------|--------|--------|--------|--------|
G|--------|--------|--------|--------|--------|--------|--------|--------|--------|
D|--------|--------|--------|--------|--------|--------|--------|--------|--------|
A|--------|--------|--------|--------|--------|--------|--------|--------|--------|
E|--------|--------|--------|--------|--------|--------|--------|--------|--------|


E|--------|--------|--------|--------|--------|--------|--------|--------|--------|
B|--------|--------|--------|--------|--------|--------|--------|--------|--------|
G|--------|--------|--------|--------|--------|--------|--------|--------|--------|
D|--------|--------|--------|--------|--------|--------|--------|--------|--------|
A|--------|--------|--------|--------|--------|--------|--------|--------|--------|
E|--------|--------|--------|--------|--------|--------|--------|--------|--------|


E|--------|--------|--------|--------|--------|--------|--------|--------|--------|
B|--------|--------|--------|--------|--------|--------|--------|--------|--------|
G|--------|--------|--------|--------|--------|--------|--------|--------|--------|
D|--------|--------|--------|--------|--------|--------|--------|--------|--------|
A|--------|--------|--------|--------|--------|--------|--------|--------|--------|
E|--------|--------|--------|--------|--------|--------|--------|--------|--------|


E|--------|--------|--------|--------|--------|--------|--------|--------|--------|
B|--------|--------|--------|--------|--------|--------|--------|--------|--------|
G|--------|--------|--------|--------|--------|--------|--------|--------|--------|
D|--------|--------|--------|--------|--------|--------|--------|--------|--------|
A|--------|--------|--------|--------|--------|--------|--------|--------|--------|
E|--------|--------|--------|--------|--------|--------|--------|--------|--------|


E|--------|--------|--------|--------|--------|--------|--------|--------|--------|
B|--------|--------|--------|--------|--------|--------|--------|--------|--------|
G|--------|--------|--------|--------|--------|--------|--------|--------|--------|
D|--------|--------|--------|--------|--------|--------|--------|--------|--------|
A|--------|--------|--------|--------|--------|--------|--------|--------|--------|
E|--------|--------|--------|--------|--------|--------|--------|--------|--------|


E|--------|--------|--------|--------|--------|--------|--------|--------|--------|
B|--------|--------|--------|--------|--------|--------|--------|--------|--------|
G|--------|--------|--------|--------|--------|--------|--------|--------|--------|
D|--------|--------|--------|--------|--------|--------|--------|--------|--------|
A|--------|--------|--------|--------|--------|--------|--------|--------|--------|
E|--------|--------|--------|--------|--------|--------|--------|--------|--------|


E|--------|--------|--------|--------|--------|--------|--------|--------|--------|
B|--------|--------|--------|--------|--------|--------|--------|--------|--------|
G|--------|--------|--------|--------|--------|--------|--------|--------|--------|
D|--------|--------|--------|--------|--------|--------|--------|--------|--------|
A|--------|--------|--------|--------|--------|--------|--------|--------|--------|
E|--------|--------|--------|--------|--------|--------|--------|--------|--------|


E|--------|--------|--------|--------|--------|--------|--------|--------|--------|
B|--------|--------|--------|--------|--------|--------|--------|--------|--------|
G|--------|--------|--------|--------|--------|--------|--------|--------|--------|
D|--------|--------|--------|--------|--------|--------|--------|--------|--------|
A|--------|--------|--------|--------|--------|--------|--------|--------|--------|
E|--------|--------|--------|--------|--------|--------|--------|--------|--------|


E|--------|--------|--------|--------|--------|--------|--------|--------|--------|
B|--------|--------|--------|--------|--------|--------|--------|--------|--------|
G|--------|--------|--------|--------|--------|--------|--------|--------|--------|
D|--------|--------|--------|--------|--------|--------|--------|--------|--------|
A|--------|--------|--------|--------|--------|--------|--------|--------|--------|
E|--------|--------|--------|--------|--------|--------|--------|--------|--------|


E|--------|--------|--------|--------|--------|
B|--------|--------|--------|--------|--------|
G|--------|--------|--------|--------|--------|
D|--------|--------|--------|--------|--------|
A|--------|--------|--------|--------|--------|
E|--------|--------|--------|--------|--------|





Track 5: Lead Guitar (Overdub)

E|--------|--------|--------|--------|--------|--------|--------|--------|--------|
B|--------|--------|--------|--------|--------|--------|--------|--------|--------|
G|--------|--------|--------|--------|--------|--------|--------|--------|--------|
D|--------|--------|--------|--------|--------|--------|--------|--------|--------|
A|--------|--------|--------|--------|--------|--------|--------|--------|--------|
E|--------|--------|--------|--------|--------|--------|--------|--------|--------|


E|--------|--------|--------|--------|--------|--------|--------|--------|--------|
B|--------|--------|--------|--------|--------|--------|--------|--------|--------|
G|--------|--------|--------|--------|--------|--------|--------|--------|--------|
D|--------|--------|--------|--------|--------|--------|--------|--------|--------|
A|--------|--------|--------|--------|--------|--------|--------|--------|--------|
E|--------|--------|--------|--------|--------|--------|--------|--------|--------|


E|--------|--------|--------|--------|--------|--------|--------|--------|--------|
B|--------|--------|--------|--------|--------|--------|--------|--------|--------|
G|--------|--------|--------|--------|--------|--------|--------|--------|--------|
D|--------|--------|--------|--------|--------|--------|--------|--------|--------|
A|--------|--------|--------|--------|--------|--------|--------|--------|--------|
E|--------|--------|--------|--------|--------|--------|--------|--------|--------|


E|--------|--------|--------|--------|--------|--------|--------|--------|--------|
B|--------|--------|--------|--------|--------|--------|--------|--------|--------|
G|--------|--------|--------|--------|--------|--------|--------|--------|--------|
D|--------|--------|--------|--------|--------|--------|--------|--------|--------|
A|--------|--------|--------|--------|--------|--------|--------|--------|--------|
E|--------|--------|--------|--------|--------|--------|--------|--------|--------|


E|--------|--------|--------|--------|--------|--------|--------|--------|--------|
B|--------|--------|--------|--------|--------|--------|--------|--------|--------|
G|--------|--------|--------|--------|--------|--------|--------|--------|--------|
D|--------|--------|--------|--------|--------|--------|--------|--------|--------|
A|--------|--------|--------|--------|--------|--------|--------|--------|--------|
E|--------|--------|--------|--------|--------|--------|--------|--------|--------|


E|--------|--------|--------|--------|--------|--------|--------|--------|--------|
B|--------|--------|--------|--------|--------|--------|--------|--------|--------|
G|--------|--------|--------|--------|--------|--------|--------|--------|--------|
D|--------|--------|--------|--------|--------|--------|--------|--------|--------|
A|--------|--------|--------|--------|--------|--------|--------|--------|--------|
E|--------|--------|--------|--------|--------|--------|--------|--------|--------|


E|--------|--------|--------|--------|--------|--------|--------|--------|--------|
B|--------|--------|--------|--------|--------|--------|--------|--------|--------|
G|--------|--------|--------|--------|--------|--------|--------|--------|--------|
D|--------|--------|--------|--------|--------|--------|--------|--------|--------|
A|--------|--------|--------|--------|--------|--------|--------|--------|--------|
E|--------|--------|--------|--------|--------|--------|--------|--------|--------|


E|--------|--------|--------|--------|--------|--------|--------|--------|--------|
B|--------|--------|--------|--------|--------|--------|--------|--------|--------|
G|--------|--------|--------|--------|--------|--------|--------|--------|--------|
D|--------|--------|--------|--------|--------|--------|--------|--------|--------|
A|--------|--------|--------|--------|--------|--------|--------|--------|--------|
E|--------|--------|--------|--------|--------|--------|--------|--------|--------|


E|--------|--------|--------|--------|--------|--------|--------|--------|--------|
B|--------|--------|--------|--------|--------|--------|--------|--------|--------|
G|--------|--------|--------|--------|--------|--------|--------|--------|--------|
D|--------|--------|--------|--------|--------|--------|--------|--------|--------|
A|--------|--------|--------|--------|--------|--------|--------|--------|--------|
E|--------|--------|--------|--------|--------|--------|--------|--------|--------|


E|--------|--------|--------|--------|--------|--------|--------|--------|--------|
B|--------|--------|--------|--------|--------|--------|--------|--------|--------|
G|--------|--------|--------|--------|--------|--------|--------|--------|--------|
D|--------|--------|--------|--------|--------|--------|--------|--------|--------|
A|--------|--------|--------|--------|--------|--------|--------|--------|--------|
E|--------|--------|--------|--------|--------|--------|--------|--------|--------|


E|--------|--------|--------|--------|--------|--------|--------|--------|--------|
B|--------|--------|--------|--------|--------|--------|--------|--------|--------|
G|--------|--------|--------|--------|--------|--------|--------|--------|--------|
D|--------|--------|--------|--------|--------|--------|--------|--------|--------|
A|--------|--------|--------|--------|--------|--------|--------|--------|--------|
E|--------|--------|--------|--------|--------|--------|--------|--------|--------|


E|--------|--------|--------|--------|--------|--------|--------|--------|--------|
B|--------|--------|--------|--------|--------|--------|--------|--------|--------|
G|--------|--------|--------|--------|--------|--------|--------|--------|--------|
D|--------|--------|--------|--------|--------|--------|--------|--------|--------|
A|--------|--------|--------|--------|--------|--------|--------|--------|--------|
E|--------|--------|--------|--------|--------|--------|--------|--------|--------|


E|--------|--------|--------|--------|--------|--------|--------|--------|--------|
B|--------|--------|--------|--------|--------|--------|--------|--------|--------|
G|--------|--------|--------|--------|--------|--------|--------|--------|--------|
D|--------|--------|--------|--------|--------|--------|--------|--------|--------|
A|--------|--------|--------|--------|--------|--------|--------|--------|--------|
E|--------|--------|--------|--------|--------|--------|--------|--------|--------|


E|--------|--------|--------|--------|--------|--------|--------|--------|--------|
B|--------|--------|--------|--------|--------|--------|--------|--------|--------|
G|--------|--------|--------|--------|--------|--------|--------|--------|--------|
D|--------|--------|--------|--------|--------|--------|--------|--------|--------|
A|--------|--------|--------|--------|--------|--------|--------|--------|--------|
E|--------|--------|--------|--------|--------|--------|--------|--------|--------|


E|--------|--------|--------|--------|--------|--------|--------|--------|--------|
B|--------|--------|--------|--------|--------|--------|--------|--------|--------|
G|--------|--------|--------|--------|--------|--------|--------|--------|--------|
D|--------|--------|--------|--------|--------|--------|--------|--------|--------|
A|--------|--------|--------|--------|--------|--------|--------|--------|--------|
E|--------|--------|--------|--------|--------|--------|--------|--------|--------|


E|--------|--------|--------|--------|--------|--------|--------|--------|--------|
B|--------|--------|--------|--------|--------|--------|--------|--------|--------|
G|--------|--------|--------|--------|--------|--------|--------|--------|--------|
D|--------|--------|--------|--------|--------|--------|--------|--------|--------|
A|--------|--------|--------|--------|--------|--------|--------|--------|--------|
E|--------|--------|--------|--------|--------|--------|--------|--------|--------|


E|--------------------------------|------------------------------------------------------|
B|----------17--17---14--15-14-12-|-1412141211-12-11-12-11-8--118-118-7-8-7-8-7-5---5----|
G|--------------------------------|------------------------------------------------------|
D|--------------------------------|------------------------------------------------------|
A|--------------------------------|------------------------------------------------------|
E|--------------------------------|------------------------------------------------------|


E|---------------------------|---------------------|------------------------------------|
B|------7----7---5-----------|---------------------|------------------------------------|
G|-------------------7---6---|-6----4--------------|------------------------------------|
D|---------------------------|-----------2---------|---------------------------14-13-14-|
A|---------------------------|----------------4----|-4---5--4--2---4---4----4-----------|
E|---------------------------|---------------------|------------------------------------|


E|-------------|
B|-15----------|
G|-------2-----|
D|-------------|
A|-------------|
E|-------------|





Track 6: Bass

G|---------------------------------|---------------------------------|---------------------------------|
D|---------------------------------|---------------------------------|---------------------------------|
A|---------------------------------|---------------------------------|---------------------------------|
E|-0----2------2---2---2---2---2---|-0----2------2---2---2---2---2---|-0----2------2---2---2---2---2---|


G|---------------------------------|---------------------------------|---------------------------------|
D|---------------------------------|---------------------------------|---------------------------------|
A|---------------------------------|---------------------------------|---------------------------------|
E|-0----2------2---2---2---2---2---|-0----2------2---2---2---2---2---|-0----2------2---2---2---2---2---|


G|---------------------------------|---------------------------------|---------------------------------|
D|---------------------------------|---------------------------------|---------------------------------|
A|---------------------------------|---------------------------------|---------------------------------|
E|-0----2------2---2---2---2---2---|-0----2------2---2---2---2---2---|-0----2------2---2---2---2---2---|


G|---------------------------------|---------------------------------|---------------------------------|
D|---------------------------------|---------------------------------|---------------------------------|
A|---------------------------------|---------------------------------|---------------------------------|
E|-0----2------2---2---2---2---2---|-0----2------2---2---2---2---2---|-0----2------2---2---2---2---2---|


G|--------------------|--------|--------|--------|---------------------------------|
D|--------------------|--------|--------|--------|---------------------------------|
A|-0----2-------------|--------|--------|--------|---------------------------------|
E|--------------------|--------|--------|--------|-0----2------2---2---2---2---2---|


G|---------------------------------|---------------------------------|---------------------------------|
D|---------------------------------|---------------------------------|---------------------------------|
A|---------------------------------|---------------------------------|---------------------------------|
E|-0----2------2---2---2---2---2---|-0----2------2---2---2---2---2---|-0----2------2---2---2---2---2---|


G|---------------------------|------------------------------|---------------------------|
D|---------------------------|------------------------------|---------------------------|
A|-5----5---5---5---5---7----|-8----8---8---8---8---8---8---|---------------------------|
E|---------------------------|------------------------------|-5----5---5---5---5---4----|


G|------------------------------|---------------------------|------------------------------|
D|------------------------------|---------------------------|------------------------------|
A|------------------------------|---------------------------|------------------------------|
E|-3----3---3---3---3---3---3---|-6----6---6---6---6---0----|-8----8---8---8---8---8---8---|


G|------------------------------|------------------------------|---------------------------------|
D|------------------------------|------------------------------|---------------------------------|
A|------------------------------|------------------------------|---------------------------------|
E|-9----9---9---9---9---9---9---|-9----9---9---9---9---9---9---|-0----2------2---2---2---2---2---|


G|---------------------------------|--------|--------|---------------------------------|
D|---------------------------------|--------|--------|---------------------------------|
A|---------------------------------|--------|--------|---------------------------------|
E|-0----2------2---2---2---2---2---|--------|--------|-2----0------0---0---0---0---0---|


G|---------------------------------|---------------------------------|---------------------------------|
D|---------------------------------|---------------------------------|---------------------------------|
A|---------------------------------|---------------------------------|---------------------------------|
E|-2----0------0---0---0---0---0---|-2----0------0---0---0---0---0---|-2----0------0---0---0---0---0---|


G|---------------------------------|---------------------------------|---------------------------------|
D|---------------------------------|---------------------------------|---------------------------------|
A|---------------------------------|---------------------------------|---------------------------------|
E|-2----0------0---0---0---0---0---|-2----0------0---0---0---0---0---|-2----0------0---0---0---0---0---|


G|---------------------------------|---------------------------------|---------------------------------|
D|---------------------------------|---------------------------------|---------------------------------|
A|---------------------------------|---------------------------------|---------------------------------|
E|-2----0------0---0---0---0---0---|-2----0------0---0---0---0---0---|-2----0------0---0---0---0---0---|


G|---------------------------------|---------------------------------|---------------------------------|
D|---------------------------------|---------------------------------|---------------------------------|
A|---------------------------------|---------------------------------|---------------------------------|
E|-2----0------0---0---0---0---0---|-2----0------0---0---0---0---0---|-2----0------0---0---0---0---0---|


G|---------------------------------|---------------------------------|---------------------------------|
D|---------------------------------|---------------------------------|---------------------------------|
A|---------------------------------|---------------------------------|---------------------------------|
E|-2----0------0---0---0---0---0---|-2----0------0---0---0---0---0---|-2----0------0---0---0---0---0---|


G|---------------------------------|---------------------------------|---------------------------------|
D|---------------------------------|---------------------------------|---------------------------------|
A|---------------------------------|---------------------------------|---------------------------------|
E|-2----0------0---0---0---0---0---|-2----0------0---0---0---0---0---|-2----0------0---0---0---0---0---|


G|---------------------------------|--------------------|--------|---------------------------------|
D|---------------------------------|--------------------|--------|---------------------------------|
A|---------------------------------|--------------------|--------|---------------------------------|
E|-2----0------0---0---0---0---0---|-2----0-------------|--------|-0----2------2---2---2---2---2---|


G|---------------------------------|---------------------------------|---------------------------------|
D|---------------------------------|---------------------------------|---------------------------------|
A|---------------------------------|---------------------------------|---------------------------------|
E|-0----2------2---2---2---2---2---|-0----2------2---2---2---2---2---|-0----2------2---2---2---2---2---|


G|---------------------------------|---------------------------------|---------------------------------|
D|---------------------------------|---------------------------------|---------------------------------|
A|---------------------------------|---------------------------------|---------------------------------|
E|-0----2------2---2---2---2---2---|-0----2------2---2---2---2---2---|-0----2------2---2---2---2---2---|


G|---------------------------------|--------------------|--------|--------|--------|
D|---------------------------------|--------------------|--------|--------|--------|
A|---------------------------------|-0----2-------------|--------|--------|--------|
E|-0----2------2---2---2---2---2---|--------------------|--------|--------|--------|


G|---------------------------------|---------------------------------|---------------------------------|
D|---------------------------------|---------------------------------|---------------------------------|
A|---------------------------------|---------------------------------|---------------------------------|
E|-0----2------2---2---2---2---2---|-0----2------2---2---2---2---2---|-0----2------2---2---2---2---2---|


G|---------------------------------|---------------------------|------------------------------|
D|---------------------------------|---------------------------|------------------------------|
A|---------------------------------|-5----5---5---5---5---7----|-8----8---8---8---8---8---8---|
E|-0----2------2---2---2---2---2---|---------------------------|------------------------------|


G|---------------------------|------------------------------|---------------------------|
D|---------------------------|------------------------------|---------------------------|
A|---------------------------|------------------------------|---------------------------|
E|-5----5---5---5---5---4----|-3----3---3---3---3---3---3---|-6----6---6---6---6---0----|


G|------------------------------|------------------------------|------------------------------|
D|------------------------------|------------------------------|------------------------------|
A|------------------------------|------------------------------|------------------------------|
E|-8----8---8---8---8---8---8---|-9----9---9---9---9---9---9---|-9----9---9---9---9---9---9---|


G|---------------------------------|---------------------------------|--------|--------|
D|---------------------------------|---------------------------------|--------|--------|
A|---------------------------------|---------------------------------|--------|--------|
E|-0----2------2---2---2---2---2---|-0----2------2---2---2---2---2---|--------|--------|


G|---------------------------------|---------------------------------|---------------------------------|
D|---------------------------------|---------------------------------|---------------------------------|
A|---------------------------------|---------------------------------|---------------------------------|
E|-2----0------0---0---0---0---0---|-2----0------0---0---0---0---0---|-2----0------0---0---0---0---0---|


G|---------------------------------|---------------------------------|---------------------------------|
D|---------------------------------|---------------------------------|---------------------------------|
A|---------------------------------|---------------------------------|---------------------------------|
E|-2----0------0---0---0---0---0---|-2----0------0---0---0---0---0---|-2----0------0---0---0---0---0---|


G|---------------------------------|---------------------------------|---------------------------------|
D|---------------------------------|---------------------------------|---------------------------------|
A|---------------------------------|---------------------------------|---------------------------------|
E|-2----0------0---0---0---0---0---|-2----0------0---0---0---0---0---|-2----0------0---0---0---0---0---|


G|---------------------------------|---------------------------------|---------------------------------|
D|---------------------------------|---------------------------------|---------------------------------|
A|---------------------------------|---------------------------------|---------------------------------|
E|-2----0------0---0---0---0---0---|-2----0------0---0---0---0---0---|-2----0------0---0---0---0---0---|


G|---------------------------------|---------------------------------|---------------------------------|
D|---------------------------------|---------------------------------|---------------------------------|
A|---------------------------------|---------------------------------|---------------------------------|
E|-2----0------0---0---0---0---0---|-2----0------0---0---0---0---0---|-2----0------0---0---0---0---0---|


G|---------------------------------|---------------------------------|---------------------------------|
D|---------------------------------|---------------------------------|---------------------------------|
A|---------------------------------|---------------------------------|---------------------------------|
E|-2----0------0---0---0---0---0---|-2----0------0---0---0---0---0---|-2----0------0---0---0---0---0---|


G|---------------------------------|---------------------------------|--------------------|
D|---------------------------------|---------------------------------|--------------------|
A|---------------------------------|---------------------------------|--------------------|
E|-2----0------0---0---0---0---0---|-2----0------0---0---0---0---0---|-2----0-------------|


G|--------|---------------------------------|---------------------------------|---------------------------------|
D|--------|---------------------------------|---------------------------------|---------------------------------|
A|--------|---------------------------------|---------------------------------|---------------------------------|
E|--------|-0----2------2---2---2---2---2---|-0----2------2---2---2---2---2---|-0----2------2---2---2---2---2---|


G|---------------------------------|---------------------------------|---------------------------------|
D|---------------------------------|---------------------------------|---------------------------------|
A|---------------------------------|---------------------------------|---------------------------------|
E|-0----2------2---2---2---2---2---|-0----2------2---2---2---2---2---|-0----2------2---2---2---2---2---|


G|---------------------------------|---------------------------------|------------------------------|
D|---------------------------------|---------------------------------|------------------------------|
A|---------------------------------|---------------------------------|------------------------------|
E|-0----2------2---2---2---2---2---|-0----2------2---2---2---2---2---|-9----9---9---9---9---9---9---|


G|------------------------------|------------------------------|------------------------------|
D|------------------------------|------------------------------|------------------------------|
A|------------------------------|------------------------------|------------------------------|
E|-9----9---9---9---9---9---9---|-9----9---9---9---9---9---9---|-9----9---9---9---9---9---9---|


G|------------------------|---------------------------------|---------------------------------|
D|------------------------|---------------------------------|---------------------------------|
A|------------------------|---------------------------------|---------------------------------|
E|-9---9-------------9----|-0----2------2---2---2---2---2---|-0----2------2---2---2---2---2---|


G|---------------------------------|---------------------------------|---------------------------------|
D|---------------------------------|---------------------------------|---------------------------------|
A|---------------------------------|---------------------------------|---------------------------------|
E|-0----2------2---2---2---2---2---|-0----2------2---2---2---2---2---|-0----2------2---2---2---2---2---|


G|---------------------------------|---------------------------------|---------------------------------|
D|---------------------------------|---------------------------------|---------------------------------|
A|---------------------------------|---------------------------------|---------------------------------|
E|-0----2------2---2---2---2---2---|-0----2------2---2---2---2---2---|-0----2------2---2---2---2---2---|


G|---------------------------------|---------------------------------|---------------------------------|
D|---------------------------------|---------------------------------|---------------------------------|
A|---------------------------------|---------------------------------|---------------------------------|
E|-0----2------2---2---2---2---2---|-0----2------2---2---2---2---2---|-0----2------2---2---2---2---2---|


G|---------------------------------|---------------------------------|---------------------------------|
D|---------------------------------|---------------------------------|---------------------------------|
A|---------------------------------|---------------------------------|---------------------------------|
E|-0----2------2---2---2---2---2---|-0----2------2---2---2---2---2---|-0----2------2---2---2---2---2---|


G|---------------------------------|---------------------------------|---------------------------------|
D|---------------------------------|---------------------------------|---------------------------------|
A|---------------------------------|---------------------------------|---------------------------------|
E|-0----2------2---2---2---2---2---|-0----2------2---2---2---2---2---|-0----2------2---2---2---2---2---|


G|---------------------------------|---------------------------------|---------------------------------|
D|---------------------------------|---------------------------------|---------------------------------|
A|---------------------------------|---------------------------------|---------------------------------|
E|-0----2------2---2---2---2---2---|-0----2------2---2---2---2---2---|-0----2------2---2---2---2---2---|


G|---------------------------------|---------------------------------|---------------------------------|
D|---------------------------------|---------------------------------|---------------------------------|
A|---------------------------------|---------------------------------|---------------------------------|
E|-0----2------2---2---2---2---2---|-0----2------2---2---2---2---2---|-0----2------2---2---2---2---2---|


G|---------------------------------|---------------------------------|---------------------------------|
D|---------------------------------|---------------------------------|---------------------------------|
A|---------------------------------|---------------------------------|---------------------------------|
E|-0----2------2---2---2---2---2---|-0----2------2---2---2---2---2---|-0----2------2---2---2---2---2---|


G|---------------------------------|---------------------------------|---------------------------------|
D|---------------------------------|---------------------------------|---------------------------------|
A|---------------------------------|---------------------------------|---------------------------------|
E|-0----2------2---2---2---2---2---|-0----2------2---2---2---2---2---|-0----2------2---2---2---2---2---|


G|---------------------------------|---------------------------------|---------------------------------|
D|---------------------------------|---------------------------------|---------------------------------|
A|---------------------------------|---------------------------------|---------------------------------|
E|-0----2------2---2---2---2---2---|-0----2------2---2---2---2---2---|-0----2------2---2---2---2---2---|


G|--------|
D|--------|
A|--------|
E|--------|





Track 7: Lead Guitar (Overdub)

E|--------|--------|--------|--------|--------|--------|--------|--------|--------|
B|--------|--------|--------|--------|--------|--------|--------|--------|--------|
G|--------|--------|--------|--------|--------|--------|--------|--------|--------|
D|--------|--------|--------|--------|--------|--------|--------|--------|--------|
A|--------|--------|--------|--------|--------|--------|--------|--------|--------|
E|--------|--------|--------|--------|--------|--------|--------|--------|--------|


E|--------|--------|--------|--------|--------|--------|--------|--------|--------|
B|--------|--------|--------|--------|--------|--------|--------|--------|--------|
G|--------|--------|--------|--------|--------|--------|--------|--------|--------|
D|--------|--------|--------|--------|--------|--------|--------|--------|--------|
A|--------|--------|--------|--------|--------|--------|--------|--------|--------|
E|--------|--------|--------|--------|--------|--------|--------|--------|--------|


E|--------|--------|--------|--------|--------|--------|--------|--------|--------|
B|--------|--------|--------|--------|--------|--------|--------|--------|--------|
G|--------|--------|--------|--------|--------|--------|--------|--------|--------|
D|--------|--------|--------|--------|--------|--------|--------|--------|--------|
A|--------|--------|--------|--------|--------|--------|--------|--------|--------|
E|--------|--------|--------|--------|--------|--------|--------|--------|--------|


E|--------|--------|--------|--------|--------|--------|--------|--------|--------|
B|--------|--------|--------|--------|--------|--------|--------|--------|--------|
G|--------|--------|--------|--------|--------|--------|--------|--------|--------|
D|--------|--------|--------|--------|--------|--------|--------|--------|--------|
A|--------|--------|--------|--------|--------|--------|--------|--------|--------|
E|--------|--------|--------|--------|--------|--------|--------|--------|--------|


E|--------|--------|--------|--------|--------|--------|--------|--------|--------|
B|--------|--------|--------|--------|--------|--------|--------|--------|--------|
G|--------|--------|--------|--------|--------|--------|--------|--------|--------|
D|--------|--------|--------|--------|--------|--------|--------|--------|--------|
A|--------|--------|--------|--------|--------|--------|--------|--------|--------|
E|--------|--------|--------|--------|--------|--------|--------|--------|--------|


E|--------|--------|--------|--------|--------|--------|--------|--------|--------|
B|--------|--------|--------|--------|--------|--------|--------|--------|--------|
G|--------|--------|--------|--------|--------|--------|--------|--------|--------|
D|--------|--------|--------|--------|--------|--------|--------|--------|--------|
A|--------|--------|--------|--------|--------|--------|--------|--------|--------|
E|--------|--------|--------|--------|--------|--------|--------|--------|--------|


E|--------|--------|--------|--------|--------|--------|--------|--------|--------|
B|--------|--------|--------|--------|--------|--------|--------|--------|--------|
G|--------|--------|--------|--------|--------|--------|--------|--------|--------|
D|--------|--------|--------|--------|--------|--------|--------|--------|--------|
A|--------|--------|--------|--------|--------|--------|--------|--------|--------|
E|--------|--------|--------|--------|--------|--------|--------|--------|--------|


E|--------|--------|--------|--------|--------|--------|--------|--------|--------|
B|--------|--------|--------|--------|--------|--------|--------|--------|--------|
G|--------|--------|--------|--------|--------|--------|--------|--------|--------|
D|--------|--------|--------|--------|--------|--------|--------|--------|--------|
A|--------|--------|--------|--------|--------|--------|--------|--------|--------|
E|--------|--------|--------|--------|--------|--------|--------|--------|--------|


E|--------|--------|--------|--------|--------|--------|--------|--------|--------|
B|--------|--------|--------|--------|--------|--------|--------|--------|--------|
G|--------|--------|--------|--------|--------|--------|--------|--------|--------|
D|--------|--------|--------|--------|--------|--------|--------|--------|--------|
A|--------|--------|--------|--------|--------|--------|--------|--------|--------|
E|--------|--------|--------|--------|--------|--------|--------|--------|--------|


E|--------|--------|--------|--------|--------|--------|--------|--------|--------|
B|--------|--------|--------|--------|--------|--------|--------|--------|--------|
G|--------|--------|--------|--------|--------|--------|--------|--------|--------|
D|--------|--------|--------|--------|--------|--------|--------|--------|--------|
A|--------|--------|--------|--------|--------|--------|--------|--------|--------|
E|--------|--------|--------|--------|--------|--------|--------|--------|--------|


E|--------|--------|--------|--------|--------|--------|--------|--------|--------|
B|--------|--------|--------|--------|--------|--------|--------|--------|--------|
G|--------|--------|--------|--------|--------|--------|--------|--------|--------|
D|--------|--------|--------|--------|--------|--------|--------|--------|--------|
A|--------|--------|--------|--------|--------|--------|--------|--------|--------|
E|--------|--------|--------|--------|--------|--------|--------|--------|--------|


E|--------|--------|--------|--------|--------|--------|--------|--------|--------|
B|--------|--------|--------|--------|--------|--------|--------|--------|--------|
G|--------|--------|--------|--------|--------|--------|--------|--------|--------|
D|--------|--------|--------|--------|--------|--------|--------|--------|--------|
A|--------|--------|--------|--------|--------|--------|--------|--------|--------|
E|--------|--------|--------|--------|--------|--------|--------|--------|--------|


E|--------|--------|--------|--------|--------|--------|--------|--------|--------|
B|--------|--------|--------|--------|--------|--------|--------|--------|--------|
G|--------|--------|--------|--------|--------|--------|--------|--------|--------|
D|--------|--------|--------|--------|--------|--------|--------|--------|--------|
A|--------|--------|--------|--------|--------|--------|--------|--------|--------|
E|--------|--------|--------|--------|--------|--------|--------|--------|--------|


E|--------|--------|--------|--------|--------|--------|--------|--------|--------|
B|--------|--------|--------|--------|--------|--------|--------|--------|--------|
G|--------|--------|--------|--------|--------|--------|--------|--------|--------|
D|--------|--------|--------|--------|--------|--------|--------|--------|--------|
A|--------|--------|--------|--------|--------|--------|--------|--------|--------|
E|--------|--------|--------|--------|--------|--------|--------|--------|--------|


E|--------|--------|--------|--------|--------|--------|--------|--------|--------|
B|--------|--------|--------|--------|--------|--------|--------|--------|--------|
G|--------|--------|--------|--------|--------|--------|--------|--------|--------|
D|--------|--------|--------|--------|--------|--------|--------|--------|--------|
A|--------|--------|--------|--------|--------|--------|--------|--------|--------|
E|--------|--------|--------|--------|--------|--------|--------|--------|--------|


E|--------|--------|--------|--------|--------|--------|-----------------------------------------|
B|--------|--------|--------|--------|--------|--------|-----------------------------------------|
G|--------|--------|--------|--------|--------|--------|-----11--11--11--11-12-11-9--11-12-11-9--|
D|--------|--------|--------|--------|--------|--------|-----------------------------------------|
A|--------|--------|--------|--------|--------|--------|-----------------------------------------|
E|--------|--------|--------|--------|--------|--------|-----------------------------------------|


E|-------------------------------------------|-----------------------------------------|
B|-------------------------------------------|-----------------------------------------|
G|-----11--11-12-11-9--11-12-11-9--11-12-11--|-----11--11--11--11-12-11-9--11-12-11-9--|
D|-------------------------------------------|-----------------------------------------|
A|-------------------------------------------|-----------------------------------------|
E|-------------------------------------------|-----------------------------------------|


E|-------------------------------------------|-----------------------------------------|
B|-------------------------------------------|-----------------------------------------|
G|-----11--11-12-11-9--11-12-11-9--11-12-11--|-----11--11--11--11-12-11-9--11-12-11-9--|
D|-------------------------------------------|-----------------------------------------|
A|-------------------------------------------|-----------------------------------------|
E|-------------------------------------------|-----------------------------------------|


E|-------------------------------------------|-----------------------------------------|
B|-------------------------------------------|-----------------------------------------|
G|-----11--11-12-11-9--11-12-11-9--11-12-11--|-----11--11--11--11-12-11-9--11-12-11-9--|
D|-------------------------------------------|-----------------------------------------|
A|-------------------------------------------|-----------------------------------------|
E|-------------------------------------------|-----------------------------------------|


E|-------------------------------------------|--------|
B|-------------------------------------------|--------|
G|-----11--11-12-11-9--11-12-11-9--11-12-11--|--------|
D|-------------------------------------------|--------|
A|-------------------------------------------|--------|
E|-------------------------------------------|--------|