Menu:

 

Search:

 

joe satriani - friends:

 



Title: Friends
Artist: 
Album: The Extremist
Author: Joe Satriani and Andy Johns


Track 1: Rhythm

D#|--------|-----------------|-------------------------------------------|---------------------------------------|
A#|--------|-----------------|--------3--3-------------------------------|---------------------------------------|
F#|--------|-----------------|--------------2---2------------------------|----------2--2-----------2-------------|
C#|--------|-----------------|-0---0---------------0--0------------------|-----------------2---2------2--2---0---|
G#|--------|------------18---|-0-----------------------------------------|-------0---------0---0-----------------|
C#|--------|-----------------|-0-------------------------4---4--0--5--0--|-5--7----------------------------------|


D#|-----------------------------------------|---------------------------------------|
A#|--------3--3-----------------------------|---------------------------------------|
F#|--------------2--------------------------|----------2--2----------2-----------0--|
C#|----0--------------0--0------------------|----------------2----------------------|
G#|-----------------------------------------|-------0-------------0-------0---0-----|
C#|-0-----------------------4---4--0--5--0--|-5--7----------------------------------|


D#|---------------------------------------------|-------------------------------------------|
A#|--------3--3---------------------------------|-------------------------------------------|
F#|--------------2------------------------------|----------2--2------------2------------2---|
C#|-----0-----------0--0--0--0------------------|----------------2------------2-------------|
G#|---------------------------------------------|-------0-----------0---0--------0--0-------|
C#|-0---------------------------4---4--0--5--0--|-5--7--------------------------------------|


D#|-----------------------------------------|-------------------------|-----------------------------------------|
A#|--------3--3-----------------------------|--------3--3-------------|------3--3-------------------------------|
F#|-----------------------------------------|-------------------------|------------2----------------------------|
C#|-----4--------4--------------------------|-----0--------0----0-----|----------------0--0--0------------------|
G#|-2----------------0------------------5---|-------------------------|-----------------------------------------|
C#|---------------------4--5--5---7--7------|-0-----------------------|-0-----------------------4---4--0--5--0--|


D#|-----------------------------------------|---------------------------------------------|
A#|----------------2------------------------|--------3--3---------------------------------|
F#|----------2--2---------------------------|--------------2------------------------------|
C#|-------2------------2--2---2---2---2--0--|-----0-----------0--0--0--0------------------|
G#|----0------------------------------------|---------------------------------------------|
C#|-5---------------------------------------|-0---------------------------4---4--0--5--0--|


D#|-----------------------------------------------|---------------------------------------------|
A#|--------------------------------------2--------|--------3--3---------------------------------|
F#|----------2--2-----2---------------------2--0--|--------------2------------------------------|
C#|----------------2-----2--2--2--2---2-----------|-----0-----------0--0--0--0------------------|
G#|-------0---------------------------------------|---------------------------------------------|
C#|-5--7------------------------------------------|-0---------------------------4---4--0--5--0--|


D#|-------------------------------------------|-------------------------------------------|
A#|-------------2-----------------------------|--------3--3-------------------------------|
F#|----------2---------2--2-------------------|------------------------------0--2---------|
C#|-------2---------2--------2--2---2---2--0--|-----4--------4--4---------0--------2------|
G#|----0--------------------------------------|-2-------------------------------------0---|
C#|-7-----------------------------------------|---------------------4--5------------------|


D#|---------------------------------|-------------------------------------------|---------------------------------------------|
A#|----------3----------------------|--------3--3-------------------------------|---------------------------------------------|
F#|-------2--------2-----------2----|--------------2---2------------------------|----------2--2------------2---------2--------|
C#|----0--------0-----0-------------|-0---0---------------0--0------------------|-----------------2--2--2-----2---2-----2--0--|
G#|---------------------------------|-0-----------------------------------------|-------0---------0--0--0---------------------|
C#|-0---------------------0---------|-0-------------------------4---4--0--5--0--|-5--7----------------------------------------|


D#|-----------------------------------------|---------------------------------------------|
A#|--------3--3-----------------------------|-----------------------------0--2--0---------|
F#|--------------2--2-----------------------|----------2--2------------2-----------2------|
C#|-----0---------------0--0----------------|----------------2------------------------2---|
G#|-----------------------------------------|-------0-----------0---0---------------------|
C#|-0-------------------------4---4--0--5---|-5--7----------------------------------------|


D#|---------------------------------------------|---------------------------------------|
A#|--------3--3---------------------------------|---------------------------------------|
F#|--------------2------------------------------|---------------------------------------|
C#|-----0-----------0--0--0---------------------|----------2--2----------2--------------|
G#|--------------------------0------------------|-------0---------0---0-----0---0---0---|
C#|-0---------------------------4---4--0--5--0--|-5--7----------------------------------|


D#|-----------------------------------------------|----------------------------------|
A#|--------3--3-----------------------------------|--------3--3----------------------|
F#|-----------------------------------------------|--------------2-------------------|
C#|-----4--------4--4--0-----------0--------0-----|-----0------------0--0----0---0---|
G#|-2---------------------------0--------------0--|----------------------------------|
C#|-----------------------4--5--------5--7--------|-0--------------------------------|


D#|--------3--3----------------------2----|-----------------------------------------|
A#|--------3--3----------------3--3-------|----------2--2---------------------------|
F#|-----0--------0---0------2-------------|-------2---------2---2----2--2-----------|
C#|---------------------------------------|----2------------2---2----------2--------|
G#|---------------------------------------|-0---------------0---0-------------0-----|
C#|-5-------------------0-----------------|--------------------------------------4--|


D#|--------3--3--------------2--2---------|--------0--0--0--0---5---------------|--------3--3------------------2--2-----------|
A#|--------3--3---------------------------|-------------------------------------|--------3--3--3---------------------2--2--0--|
F#|-----0-----------------2---------------|-----2--------------------2--2-------|-----0-----------0--0------2-----------------|
C#|----------------0--0-------------------|-------------------------------------|-----------------------0---------------------|
G#|----------------0--0-------------0--0--|-0-------------------------------0---|-----------------------0---------------------|
C#|-5--------------0--0-------------------|-------------------------------------|-5---------------------0---------------------|


D#|-----------------------------------|-------------------------------------------------|
A#|--------2--2-----------------------|----------3--3-----------------------------------|
F#|-----------------------------------|-------4-----------------------------------------|
C#|-2---2---------2---2----2--2-------|----4-----------------------------0--------0--0--|
G#|-0-------------0---0----0--0---0---|-2--------------2--2--0--------0--------0--------|
C#|-----------------------------------|-------------------------3--4--------5-----------|


D#|-----------------------|-------------------------------------------|-------------|
A#|---------3-------------|-------------------------------------------|------3------|
F#|------2------2---------|-------------------------------------------|------2------|
C#|-----------------0-----|----------0--0-----------5--5--5--7--7--7--|------0------|
G#|-----------------------|-------0-----------------------------------|-------------|
C#|-0---------------------|-3--4-------------4--5---------------------|-0-----------|


D#|-----------------------------------------|-------------------------------------------|
A#|--------3--3-----------------------------|------------------------2--3--2------------|
F#|--------------2--------------------------|----------2--2-------------------2------0--|
C#|-----0------------0--0--0----------------|----------2--2---2---2-----------2---2-----|
G#|-----------------------------------------|-------0---------0---0-----------0---0-----|
C#|-0-------------------------4---4--0--5---|-5--7--------------------------------------|


D#|-------------------------------------------|---------------------------------------------|
A#|--------3--3-------------------------------|-----------------------------------2--0--2---|
F#|--------------2----------------------------|-------------2------0--0-----2--0------------|
C#|-----0------------0--0--0------------------|----------2-----2---------2------------------|
G#|-------------------------------------------|-------0-------------------------------------|
C#|-0-------------------------4---4--0--5--0--|-5--7----------------------------------------|


D#|-----------------------------------------|--------------------------------------|
A#|--------3--3-----------------------------|----------------2---------2--0--------|
F#|--------------2--------------------------|-------------2-------------------2----|
C#|-----0------------0--0--0----------------|----------2---------------------------|
G#|-----------------------------------------|-------0------------0--0--------------|
C#|-0-------------------------4---4--0--5---|-5--7---------------------------------|


D#|-------------------------------------------|-------------------------------------------|
A#|--------3--3-------------------------------|-----------3-------------------------------|
F#|-------------------------------------------|--------2-----2--2-------------------------|
C#|-----4--------4-------------0-----------0--|-----0--------------0--0---0---0-----------|
G#|-2-----------------------------------0-----|-----------------------------------2---0---|
C#|-------------------3--4--4-----4--5--------|-0-----------------------------------------|


D#|--------3--3----------------------2------|---------------------------5----|--------3--3--------------2--2-------|
A#|--------------3-------------3--3---------|--------2--2-------2-------5----|--------3--3--------------3--3-------|
F#|-----0-----------0-------2-----------2---|-----2---------2-----------2----|-0---0---------0-------2---------2---|
C#|---------------------0-------------------|-2---------------------2--------|-0-------------0---0-------------0---|
G#|---------------------0-------------------|-0---------------------0--------|-------------------0-----------------|
C#|-5-------------------0-------------------|--------------------------------|-5-----------------0-----------------|


D#|-------------------------------------|--------3--3--------------2--2-------|-------------------------------------|
A#|-------------------------------------|-------------------------------------|--------2--2-------------------------|
F#|------2--2---2--2--2---2--2--2---2---|-0---0--------0--------2--------2----|-----2--------2------2----2--2---2---|
C#|------2--2---2--2--2---2--2--2---2---|-0---0-------------0-----------------|-2---------------2---2----2--2---2---|
G#|-0----0--0---0--0--0---0--0--0---0---|-------------------0-----------------|-0-------------------0----0--0---0---|
C#|-------------------------------------|-5-----------------0-----------------|-------------------------------------|


D#|-----------------------------------------------|----------------------------------|
A#|-----------------------------------------------|-----3---------------3---3---3----|
F#|-------4--4--4---------------------------------|--------2--2-----2---2---2---2----|
C#|----4-----------4--4------------0-----------0--|-0------------0--0---0---0---0----|
G#|-2---------------------------0-----------0-----|-0--------------------------------|
C#|-----------------------3--4--------4--5--------|-0--------------------------------|


D#|-----------------------------------------------|-------------------------|-------------------------------------------|
A#|-----------------------------------------------|------3--3---------------|-------------------------------------------|
F#|--------4--4-----------------------------------|-------------------2-----|-------------------------------------------|
C#|-----4--------4--4--------------------------0--|------------0--0---0-----|--------0--0--0------0--0------0--0--------|
G#|-2------------------0--------------------0-----|-------------------0-----|-----------------0-------------------------|
C#|-----------------------3--4--4--4--4--5--------|-0-----------------0-----|-0---0---------------------4---------5--0--|


D#|---------------------------------------------|-------------------------------------------|
A#|---------------------------------------------|-------------------------------------------|
F#|----------2--2--------------2------------0---|--------2--2-------------------------------|
C#|----------2--2--2--------------2--2--2---0---|-----0--------0--0--0--0--0----------------|
G#|-------0-----------0--0--0-------------------|-------------------------------------0-----|
C#|-5--7----------------------------------------|-0---------------------------4---4------5--|


D#|-----------------------------------------|-------------------------------------------|
A#|-----------------------------------------|--------3--3-------------------------------|
F#|--------0-----------------2---0--0-------|-----2--------2----------------------------|
C#|--------2-----------2--4--2---0--0-------|-----------------0---0--0--0---0-----------|
G#|-0---0--------0--0--0-----0--------------|-------------------------------------------|
C#|---------------------------------5---4---|-0-------------------------4---4--0--5--0--|


D#|-------------------------------------------|-------------------------------------------------|
A#|----------------2--------------------------|-------3-----------------------------------------|
F#|-------------2--------------2--------------|----------4--4-----------------------------------|
C#|----------2--------------2-----2---2---2---|----4-----------4-----------------4-----------0--|
G#|-------0-----------0--0--0---------0---0---|-2-----------------2--0--------0-----------0-----|
C#|-5--7--------------------------------------|-------------------------3--4--------4--5--------|


D#|-------------------------------------------|-----------------------------------------|
A#|--------3--3-------------------------------|--------3--3-----------------------------|
F#|--------------2-------------0--0-----------|--------------4--------------------------|
C#|-----0------------0--0---4--------2--2--0--|-----4-------------------4--4--4--5--5---|
G#|-------------------------------------------|-2---------------------------------------|
C#|-0-----------------------------------------|-------------------3--4--------4--5------|


D#|--------------------------------------|-----------------------------------------------|
A#|------3-------------------------------|----------3--3---------------------------------|
F#|---------2---------0--------2---------|-------4---------------------------------------|
C#|-0----------0---0-----2--4--0---------|----4-----------4--4------------0-----------0--|
G#|-0------------------------------2--0--|-2---------------------------0-----------0-----|
C#|-0------------------------------------|-----------------------3--4--------4--5--------|


D#|-------------------------------------------|-----------------------------------------------|
A#|-------------------------------------------|--------3--3-----------------------------------|
F#|--------------2--0--------------0--0-------|-----------------------------------------------|
C#|-0---2--0--0--------0--2--4--0---------0---|-----4--------4--4--0-----------4-----------0--|
G#|-0-----------------------------------------|-2---------------------------------------0-----|
C#|-0-----------------------------------------|-----------------------3--4--4-----4--5--------|


D#|-----------------------------------------|-------------------------------------------|
A#|--------3--3-----------------------------|--------3--3-------------------------------|
F#|--------------2--2---2---------0--0--0---|-----0--------2----------------------------|
C#|-0---0-----------0---0---------0--0--0---|-0---------------0---0---4--5--------0-----|
G#|-0---------------0---0-------------------|-0--------------------------------0-----0--|
C#|-0-----------------------4--5--5--5--5---|-0-----------------------4--5--5-----------|


D#|-----------------------------------------|--------|
A#|------3--3-------------------------------|-3------|
F#|------------2----------------------------|-2------|
C#|-0--------------0--0---------------------|-0------|
G#|-0---------------------------0-----0--0--|-0------|
C#|-0---------------------4--5-----5--------|-0------|





Track 2: Nashville Tuning

D#|--------|--------|------------------------------------|-------------------------------------------|
A#|--------|--------|------------------------------------|-------------------------------------------|
F#|--------|--------|--------2--2------------------------|--------2--2-------------------------------|
C#|--------|--------|--------0--0------------------------|-----2--------2--2--2--2--2--2---2---2--2--|
G#|--------|--------|-----0--------0---------------------|-0---------------0--0--0--0--0---0---0--0--|
C#|--------|--------|-0----------------0--0--0--4----5---|-------------------------------------------|


D#|------------------------------------|-------------------------------------------|
A#|------------------------------------|-------------------------------------------|
F#|--------2--2------------------------|--------2--2-------------------------------|
C#|--------0--0------------------------|-----2--------2--2--2--2--2--2---2---2--2--|
G#|-----0--------0---------------------|-0---------------0--0--0--0--0---0---0--0--|
C#|-0----------------0--0--0--4----5---|-------------------------------------------|


D#|------------------------------------|-----------------------------|-------------------------------------------|
A#|------------------------------------|-----------------------------|-------------------------------------------|
F#|--------2--2------------------------|--------2--2-----------------|--------4--4-------------------------------|
C#|--------0--0------------------------|-----2--------2--2--2--2-----|-----4--------4------------0--0--------0---|
G#|-----0--------0---------------------|-0---------------0--0--0-----|-2---------------2------0-----------0------|
C#|-0----------------0--0--0--4----5---|-----------------------------|---------------------5-----------7---------|


D#|----------------------------------|--------|--------|--------|--------|--------|
A#|----------------------------------|--------|--------|--------|--------|--------|
F#|--------2--2----------------------|--------|--------|--------|--------|--------|
C#|--------0--0-----------------0----|--------|--------|--------|--------|--------|
G#|-----0--------0----------0--------|--------|--------|--------|--------|--------|
C#|-0----------------0--0------------|--------|--------|--------|--------|--------|


D#|--------|--------|--------|--------|--------|--------|--------|--------|--------|
A#|--------|--------|--------|--------|--------|--------|--------|--------|--------|
F#|--------|--------|--------|--------|--------|--------|--------|--------|--------|
C#|--------|--------|--------|--------|--------|--------|--------|--------|--------|
G#|--------|--------|--------|--------|--------|--------|--------|--------|--------|
C#|--------|--------|--------|--------|--------|--------|--------|--------|--------|


D#|--------|--------|--------3--3------------------2--2-----------|-------------------------------------------|
A#|--------|--------|--------------3---------------------3--------|-------------------------------------------|
F#|--------|--------|---------------------------------------------|--------2--2-------------------------------|
C#|--------|--------|-----0---------------------0-----------------|-----2--------2--2--2--2---2--2--2--2--2---|
G#|--------|--------|---------------------------------------0--0--|-0---------------0--0--0---0--0--0--0--0---|
C#|--------|--------|-5---------------5--5--0---------------------|-------------------------------------------|


D#|--------3--3------------------2--2-----------|-------------------------------------------|
A#|--------------3---------------------3--------|-------------------------------------------|
F#|---------------------------------------------|--------2--2-------------------------------|
C#|-----0---------------------0-----------------|-----2--------2--2--2--2---2--2--2--2--2---|
G#|---------------------------------------0--0--|-0---------------0--0--0---0--0--0--0--0---|
C#|-5---------------5--5--0---------------------|-------------------------------------------|


D#|--------3--3------------------2--2-----------|-------------------------------------------|
A#|--------------3---------------------3--------|-------------------------------------------|
F#|---------------------------------------------|--------2--2-------------------------------|
C#|-----0---------------------0-----------------|-----2--------2-----2--2---2--2--2--2--2---|
G#|---------------------------------------0--0--|-0---------------0--0--0---0--0--0--0--0---|
C#|-5---------------5--5--0---------------------|-------------------------------------------|


D#|-------------------------------------------|-------------------------------------|
A#|-------------------------------------------|-------------------------------------|
F#|--------4--4-------------------------------|--------2--2-------------------------|
C#|-----4--------4------------0--0--------0---|--------0--0-----------------0-------|
G#|-2---------------2------0-----------0------|-----0--------0----------0-------0---|
C#|---------------------4-----------5---------|-0---------------0---0---------------|


D#|---------------------------------------------|-------------------------------------|
A#|---------------------------------------------|-------------------------------------|
F#|---------------------------------------------|--------2--2-------------------------|
C#|--------0--0---------------0--0--------0--0--|--------0--0-----------------0-------|
G#|-----0--------0---------0-----------0--------|-----0--------0----------0-------0---|
C#|-4---------------0---4-----------5-----------|-0---------------0---0---------------|


D#|------------------------------------|-------------------------------------------|
A#|------------------------------------|-------------------------------------------|
F#|--------2--2------------------------|--------2--2-------------------------------|
C#|--------0--0------------------------|-----2--------2--2--2--2--2--2---2---2--2--|
G#|-----0--------0---------------------|-0---------------0--0--0--0--0---0---0--0--|
C#|-0----------------0--0--0--4----5---|-------------------------------------------|


D#|------------------------------------|-------------------------------------------|
A#|------------------------------------|-------------------------------------------|
F#|--------2--2------------------------|--------2--2-------------------------------|
C#|--------0--0------------------------|-----2--------2--2--2--2--2--2---2---2--2--|
G#|-----0--------0---------------------|-0---------------0--0--0--0--0---0---0--0--|
C#|-0----------------0--0--0--4----5---|-------------------------------------------|


D#|------------------------------------|-----------------------------|-------------------------------------------|
A#|------------------------------------|-----------------------------|-------------------------------------------|
F#|--------2--2------------------------|--------2--2-----------------|--------4--4-------------------------------|
C#|--------0--0------------------------|-----2--------2--2--2--2-----|-----4--------4------------0--0--------0---|
G#|-----0--------0---------------------|-0---------------0--0--0-----|-2---------------2------0-----------0------|
C#|-0----------------0--0--0--4----5---|-----------------------------|---------------------4-----------5---------|


D#|-------------------------------------|--------3--3------------------2--2-----------|
A#|-------------------------------------|--------------3---------------------3--------|
F#|--------2--2-------------------------|---------------------------------------------|
C#|--------0--0-----------------0-------|-----0---------------------0-----------------|
G#|-----0--------0----------0-------0---|---------------------------------------0--0--|
C#|-0---------------0---0---------------|-5---------------5--5--0---------------------|


D#|-------------------------------------------|--------3--3------------------2--2-----------|
A#|-------------------------------------------|--------------3---------------------3--------|
F#|--------2--2-------------------------------|---------------------------------------------|
C#|-----2--------2--2--2--2---2--2--2--2--2---|-----0---------------------0-----------------|
G#|-0---------------0--0--0---0--0--0--0--0---|---------------------------------------0--0--|
C#|-------------------------------------------|-5---------------5--5--0---------------------|


D#|-------------------------------------------|--------3--3------------------2--2-----------|
A#|-------------------------------------------|--------------3---------------------3--------|
F#|--------2--2-------------------------------|---------------------------------------------|
C#|-----2--------2--2--2--2---2--2--2--2--2---|-----0---------------------0-----------------|
G#|-0---------------0--0--0---0--0--0--0--0---|---------------------------------------0--0--|
C#|-------------------------------------------|-5---------------5--5--0---------------------|


D#|-------------------------------------------|-------------------------------------------|
A#|-------------------------------------------|-------------------------------------------|
F#|--------2--2-------------------------------|--------4--4-------------------------------|
C#|-----2--------2-----2--2---2--2--2--2--2---|-----4--------4------------0--0--------0---|
G#|-0---------------0--0--0---0--0--0--0--0---|-2---------------2------0-----------0------|
C#|-------------------------------------------|---------------------4-----------5---------|


D#|-------------------------------------|---------------------------------------------|
A#|-------------------------------------|---------------------------------------------|
F#|--------2--2-------------------------|--------4--4---------------------------------|
C#|--------0--0-----------------0-------|-----4--------4------------0--0--------0--0--|
G#|-----0--------0----------0-------0---|-2---------------2------0-----------0--------|
C#|-0---------------0---0---------------|---------------------4-----------5-----------|


D#|---------------------------|--------|--------|--------|--------|------------------------------------|
A#|---------------------------|--------|--------|--------|--------|------------------------------------|
F#|--------2--2---------------|--------|--------|--------|--------|--------2--2------------------------|
C#|--------0--0---------0-----|--------|--------|--------|--------|--------0--0------------------------|
G#|-----0--------0------0-----|--------|--------|--------|--------|-----0--------0---------------------|
C#|-0---------------0---0-----|--------|--------|--------|--------|-0----------------0--0--0--4----5---|


D#|-------------------------------|-------------------------------------------|-------------------------------------|
A#|-------------------------------|-------------------------------------------|-------------------------------------|
F#|--------2--2-------------------|--------4--4-------------------------------|--------2--2-------------------------|
C#|-----2--------2---2--2----2----|-----4--------4------------0--0--------0---|--------0--0-----------------0-------|
G#|-0----------------0--0----0----|-2---------------2------0-----------0------|-----0--------0----------0-------0---|
C#|-------------------------------|---------------------4-----------5---------|-0---------------0---0---------------|


D#|-------------------------------------------|-------------------------------------|
A#|-------------------------------------------|-------------------------------------|
F#|--------4--4-------------------------------|--------2--2-------------------------|
C#|-----4--------4------------0--0--------0---|--------0--0-----------------0-------|
G#|-2---------------2------0-----------0------|-----0--------0----------0-------0---|
C#|---------------------4-----------5---------|-0---------------0---0---------------|


D#|-------------------------------------------|-------------------------------------|
A#|-------------------------------------------|-------------------------------------|
F#|--------4--4-------------------------------|--------2--2-------------------------|
C#|-----4--------4------------0--0--------0---|--------0--0-----------------0-------|
G#|-2---------------2------0-----------0------|-----0--------0----------0-------0---|
C#|---------------------4-----------5---------|-0---------------0---0---------------|


D#|-------------------------------------------|-------------------------------------------|
A#|-------------------------------------------|-------------------------------------------|
F#|--------4--4-------------------------------|-------------------------------------------|
C#|-----4--------4------------0--0--------0---|--------0--0-----------0-------------------|
G#|-2---------------2------0-----------0------|-----0--------0--------0---------0-----0---|
C#|---------------------4-----------5---------|-0---------------0--0--0---4--5-----0------|


D#|-------------------------------------------|-------------------------------------------|
A#|-------------------------------------------|-------------------------------------------|
F#|-------------------------------------------|-------------------------------------------|
C#|--------0--0-----------0-------------------|--------0--0-----------0-------------------|
G#|-----0--------0--------0---------0-----0---|-----0--------0--------0---------0-----0---|
C#|-0---------------0--0--0---4--5-----0------|-0---------------0--0--0---4--5-----0------|


D#|--------|
A#|--------|
F#|--------|
C#|-0------|
G#|-0------|
C#|-0------|





Track 3: Lead Left

D#|--------|--------|--------|--------|--------|--------|--------|--------|--------|
A#|--------|--------|--------|--------|--------|--------|--------|--------|--------|
F#|--------|--------|--------|--------|--------|--------|--------|--------|--------|
C#|--------|--------|--------|--------|--------|--------|--------|--------|--------|
G#|--------|--------|--------|--------|--------|--------|--------|--------|--------|
C#|--------|--------|--------|--------|--------|--------|--------|--------|--------|


D#|--------|------17-17---19-19--17---------|----------------------------------------|
A#|--------|--------------------------------|-15-17--17-17-17----17-17---17-15-------|
F#|--------|--------------------------------|----------------------------------16-14-|
C#|--------|--------------------------------|----------------------------------------|
G#|--------|--------------------------------|----------------------------------------|
C#|--------|--------------------------------|----------------------------------------|


D#|------17-17--17-17-19--22----17------|---------------------------------------|---------------------------------------|
A#|-------------------------------------|-15-17--17-17-17--17-17-------------15-|-15---------------15-15-17--17-----17--|
F#|-------------------------------------|-----------------------------14--16----|-----16----14--16----------------------|
C#|-------------------------------------|---------------------------------------|---------------------------------------|
G#|-------------------------------------|---------------------------------------|---------------------------------------|
C#|-------------------------------------|---------------------------------------|---------------------------------------|


D#|--------------------------------------|--------------------------------|------------------------|
A#|-17--17--17-17----17-17---17-15----15-|-15---17-15---------------------|------------------------|
F#|--------------------------------16----|----------------14-16---14---14-|-7----7-7-7-----7---7---|
C#|--------------------------------------|--------------------------------|------------------------|
G#|--------------------------------------|--------------------------------|------------------------|
C#|--------------------------------------|--------------------------------|------------------------|


D#|------14-14--14--14-14--14-14-12-10--|-12---12-12-14-10--12----|------14-14--15--15-17---17-14-15--|
A#|-------------------------------------|-------------------------|-----------------------------------|
F#|-------------------------------------|-------------------------|-----------------------------------|
C#|-------------------------------------|-------------------------|-----------------------------------|
G#|-------------------------------------|-------------------------|-----------------------------------|
C#|-------------------------------------|-------------------------|-----------------------------------|


D#|-15-17---17-12-10--10-12---12---|-10---10-10--12--14---14-14-12-10--|-12---12-12-----------------------|
A#|--------------------------------|-----------------------------------|------------12-10--10---10-12-14--|
F#|--------------------------------|-----------------------------------|----------------------------------|
C#|--------------------------------|-----------------------------------|----------------------------------|
G#|--------------------------------|-----------------------------------|----------------------------------|
C#|--------------------------------|-----------------------------------|----------------------------------|


D#|-----------------------------------|--------|--------|--------|--------|--------|
A#|-15---15-15-12-10--10-12-----------|--------|--------|--------|--------|--------|
F#|---------------------------14---14-|-7------|--------|--------|--------|--------|
C#|-----------------------------------|--------|--------|--------|--------|--------|
G#|-----------------------------------|--------|--------|--------|--------|--------|
C#|-----------------------------------|--------|--------|--------|--------|--------|


D#|--------|--------|--------|--------|--------|--------|--------|--------|--------|
A#|--------|--------|--------|--------|--------|--------|--------|--------|--------|
F#|--------|--------|--------|--------|--------|--------|--------|--------|--------|
C#|--------|--------|--------|--------|--------|--------|--------|--------|--------|
G#|--------|--------|--------|--------|--------|--------|--------|--------|--------|
C#|--------|--------|--------|--------|--------|--------|--------|--------|--------|


D#|--------|--------|--------|--------|--------|--------|--------|--------|--------|
A#|--------|--------|--------|--------|--------|--------|--------|--------|--------|
F#|--------|--------|--------|--------|--------|--------|--------|--------|--------|
C#|--------|--------|--------|--------|--------|--------|--------|--------|--------|
G#|--------|--------|--------|--------|--------|--------|--------|--------|--------|
C#|--------|--------|--------|--------|--------|--------|--------|--------|--------|


D#|--------|--------|--------|--------|--------|--------|--------|--------|--------|
A#|--------|--------|--------|--------|--------|--------|--------|--------|--------|
F#|--------|--------|--------|--------|--------|--------|--------|--------|--------|
C#|--------|--------|--------|--------|--------|--------|--------|--------|--------|
G#|--------|--------|--------|--------|--------|--------|--------|--------|--------|
C#|--------|--------|--------|--------|--------|--------|--------|--------|--------|


D#|--------|--------|--------|--------|--------|--------|--------|--------|--------|
A#|--------|--------|--------|--------|--------|--------|--------|--------|--------|
F#|--------|--------|--------|--------|--------|--------|--------|--------|--------|
C#|--------|--------|--------|--------|--------|--------|--------|--------|--------|
G#|--------|--------|--------|--------|--------|--------|--------|--------|--------|
C#|--------|--------|--------|--------|--------|--------|--------|--------|--------|


D#|--------|--------|--------|--------|--------|
A#|--------|--------|--------|--------|--------|
F#|--------|--------|--------|--------|--------|
C#|--------|--------|--------|--------|--------|
G#|--------|--------|--------|--------|--------|
C#|--------|--------|--------|--------|--------|





Track 4: Lead Right

D#|--------|--------|--------|--------|--------|--------|--------|--------|--------|
A#|--------|--------|--------|--------|--------|--------|--------|--------|--------|
F#|--------|--------|--------|--------|--------|--------|--------|--------|--------|
C#|--------|--------|--------|--------|--------|--------|--------|--------|--------|
G#|--------|--------|--------|--------|--------|--------|--------|--------|--------|
C#|--------|--------|--------|--------|--------|--------|--------|--------|--------|


D#|--------|--------|--------|--------|--------|--------|--------|--------|--------|
A#|--------|--------|--------|--------|--------|--------|--------|--------|--------|
F#|--------|--------|--------|--------|--------|--------|--------|--------|--------|
C#|--------|--------|--------|--------|--------|--------|--------|--------|--------|
G#|--------|--------|--------|--------|--------|--------|--------|--------|--------|
C#|--------|--------|--------|--------|--------|--------|--------|--------|--------|


D#|-------------------------------------|-------------------------|-----------------------------------|
A#|-------------------------------------|-------------------------|-----------------------------------|
F#|------11-11--11--11-11--11-11-9--7---|-9----9--9--11-7---9-----|------11-11--12--12-14---14-11-12--|
C#|-------------------------------------|-------------------------|-----------------------------------|
G#|-------------------------------------|-------------------------|-----------------------------------|
C#|-------------------------------------|-------------------------|-----------------------------------|


D#|--------------------------------|-----------------------------------|----------------------------------|
A#|--------------------------------|-----------------------------------|----------------------------------|
F#|-12-14---14-9--7---7--9----9----|-7----7--7---9---11---11-11-9--7---|-9----9--9------------------------|
C#|--------------------------------|-----------------------------------|------------9--7---7----7--9--11--|
G#|--------------------------------|-----------------------------------|----------------------------------|
C#|--------------------------------|-----------------------------------|----------------------------------|


D#|-----------------------------------|--------|-17-17---17-17--15-14---15-15-15-15-14-|
A#|-----------------------------------|--------|---------------------------------------|
F#|-----------------------------------|--------|---------------------------------------|
C#|-12---12-12-9--7---7--9------------|--------|---------------------------------------|
G#|---------------------------12---12-|-5------|---------------------------------------|
C#|-----------------------------------|--------|---------------------------------------|


D#|-------------------------|--------21-21-21--21-21---212121-19-21-22-|-22---22-22-22-21-22-22-22---22---|
A#|-15-15---15--15-15-------|------------------------------------------|----------------------------------|
F#|-------------------14----|-14--14-----------------------------------|----------------------------------|
C#|-------------------------|-----14-----------------------------------|----------------------------------|
G#|-------------------------|------------------------------------------|----------------------------------|
C#|-------------------------|------------------------------------------|----------------------------------|


D#|-22-----17-17-17-16-15----14-15-16-17----------|-------------------17---------------------|
A#|-----0-----------------17-------------17-17-15-|-17-17-17-15------------------------------|
F#|-----------------------------------------------|-------------16-16----14-14---14-14-16----|
C#|-----------------------------------------------|------------------------------------------|
G#|-----------------------------------------------|------------------------------------------|
C#|-----------------------------------------------|------------------------------------------|


D#|-20-20---20------17-19----17-19----17-|------------------------|----------------------------------------|
A#|--------------18-------18-------18----|-18---------------------|----------------------------------------|
F#|--------------------------------------|------------------------|----------------------------------------|
C#|--------------------------------------|----12---12-------------|--------0--0----------0--0--------0--0--|
G#|--------------------------------------|--------------29--------|-----0-------------0-----------0--------|
C#|--------------------------------------|--------------29---9----|-4--------------5-----------7-----------|


D#|-------------12------------------------------|-------------------------------------------------|
A#|-------7-----------7--7--7---7--7--7---7--7--|-------------------------------------------------|
F#|----7-----7-----------7--7---7--7--7---7--7--|-------------------------------------------------|
C#|----------------7----------------------------|-----4-2-0---0---4-2-0---0---4-2-0---0---4-2-0---|
G#|---------------------------------------------|-----------4-----------4-----------4-----------4-|
C#|-0-------------------------------------------|-------------------------------------------------|


D#|------------------------------------------------------|---------------------------------------------------------|
A#|------------------------------------------------------|---------------------------------------------------------|
F#|------------------------------------------------------|---------------------------------------------------------|
C#|-0-2-0-----------0-2-0-----------0-2-0----------------|----0-2-4--0-4-5--0-5-7--0-7-9--0-9-11-0-1112-0-1214-0-14|
G#|-------4-5-4-2-0-------4-5-4-2-0-------4-5-4-2-0-0----|-0-------------------------------------------------------|
C#|------------------------------------------------------|---------------------------------------------------------|


D#|--------------------------------------------------------|------------------------------------------------|
A#|--------------------------------------------------------|----22-------22-------22-------22---------------|
F#|-------------------------0-1618-0-1819-0-1921-212119-21-|-21----21-21----21-21----21-21----21-2119---19--|
C#|-16-0-1617-0-1719-0-1921--------------------------------|-----------------------------------------21-----|
G#|--------------------------------------------------------|------------------------------------------------|
C#|--------------------------------------------------------|------------------------------------------------|


D#|----------------------------|-20---2020-20--17-17-17-16-15--------------|------------------------------------------14-|
A#|-22---22--22-22-20-------20-|------------------------------17-17-15-----|---------------------------------------------|
F#|----------------------0-----|---------------------------------------1616|-16-14---------------------------------------|
C#|----------------------------|-------------------------------------------|-------14-14-12----12----12-14-14--14-16-----|
G#|----------------------------|-------------------------------------------|----------------14----14---------------------|
C#|----------------------------|-------------------------------------------|---------------------------------------------|


D#|-17---17-17--15-14---15-15-15-15-14-|------------------------|-10---9--9---7-------------------|
A#|------------------------------------|-15---15---15-----------|-12---10-10--8---10---8--8---7---|
F#|------------------------------------|--------------14---14---|-----------------11---9--9---7---|
C#|------------------------------------|------------------------|---------------------------------|
G#|------------------------------------|------------------------|---------------------------------|
C#|------------------------------------|------------------------|---------------------------------|


D#|-------5--------5-----5--------------------|-10-10---10----7--9--9----9---9--9--7--5--|
A#|----5--------5-----------------------------|------------0-----------------------------|
F#|-7--------7--------7-----7--7--7---7----7--|------------------------------------------|
C#|-------------------------------------------|------------------------------------------|
G#|-------------------------------------------|------------------------------------------|
C#|-------------------------------------------|------------------------------------------|


D#|-7-9-7-5-7-5-----5-------------------------------------|-------------10----12-10----10-------------|
A#|-------------8-7---8-7-5-7-8-7-5-7-5-----9-------------|-10---10-10-----10-------13----13-13-10----|
F#|-------------------------------------7-6-9--7--6-------|----------------------------------------12-|
C#|--------------------------------------------------7----|-------------------------------------------|
G#|-------------------------------------------------------|-------------------------------------------|
C#|-------------------------------------------------------|-------------------------------------------|


D#|----------------------------------------|------10-10----10-10-------14--------15--|
A#|----------------------------------------|-----------------------------------------|
F#|-12-11----12-10----12-10----------------|-11---------11-------11-14-14--14-16-----|
C#|-------12-------12-------12---12--4-----|-----------------------------------------|
G#|----------------------------------------|-----------------------------------------|
C#|----------------------------------------|-----------------------------------------|


D#|--------17-17------22----22--|------17-17---19-19--17---------|------------------------------------------|
A#|-----------------------------|--------------------------------|-15-17----17----17----17-17---17-15-------|
F#|-16-19--19-19--19------------|--------------------------------|------------------------------------16-14-|
C#|-----------------------------|--------------------------------|------------------------------------------|
G#|-----------------------------|--------------------------------|------------------------------------------|
C#|-----------------------------|--------------------------------|------------------------------------------|


D#|------17-17--17-17-19--19----17------|----------------------------------------|
A#|-------------------------------------|-15-17----17----17----17-17----------15-|
F#|-------------------------------------|------------------------------14--16----|
C#|-------------------------------------|----------------------------------------|
G#|-------------------------------------|----------------------------------------|
C#|-------------------------------------|----------------------------------------|


D#|---------------------------------------|----------------------------------------|
A#|-15---------------15-15-17--17-----17--|-17--17----17-17----17-17---17-15----15-|
F#|-----16----14--16----------------------|----------------------------------16----|
C#|---------------------------------------|----------------------------------------|
G#|---------------------------------------|----------------------------------------|
C#|---------------------------------------|----------------------------------------|


D#|--------------------------------|-------------------------------|------------------19-----------------|
A#|-15---17-15---------------------|-------------------------------|-----15--17-15-15--------------------|
F#|----------------14-16---14---14-|-7-----7--7--14-16-16-14-16-14-|---------------------14-16---14---7--|
C#|--------------------------------|-------------------------------|-------------------------------------|
G#|--------------------------------|-------------------------------|-------------------------------------|
C#|--------------------------------|-------------------------------|-------------------------------------|


D#|------10----------------------------------|------------10-----------------|-------------15-----15-------15-------|
A#|------------------10----------------------|-------------------------------|-15---15-17-----17-----17-17----17-17-|
F#|-7-------9--9--7-----9--9--7--------------|-7----9--7-----0--14-16---14---|--------------------------------------|
C#|------------------------------9--7--9--7--|-------------------------------|--------------------------------------|
G#|------------------------------------------|-------------------------------|--------------------------------------|
C#|------------------------------------------|-------------------------------|--------------------------------------|


D#|----------------------------------|---------------------------------------|---------------------------------------|
A#|-15----15-17-15-------------------|------3--3-----------------------------|------3--3-----------------------------|
F#|----16------------14-16---14--14--|------------2------2---------0--0--0---|------------2----------------0--0--0---|
C#|----------------------------------|-0--------------0------------0--0--0---|-0--------------0--0---------0--0--0---|
G#|----------------------------------|---------------------------------------|-0-------------------------------------|
C#|----------------------------------|-----------------------4--5--5--5--5---|-0---------------------4--5--5--5--5---|


D#|---------------------------------------|--------|
A#|------3--3-----------------------------|-3------|
F#|------------2----------------0--0--0---|-2------|
C#|-0--------------0--0---------0--0--0---|-0------|
G#|-0-------------------------------------|-0------|
C#|-0---------------------4--5--5--5--5---|-0------|





Track 5: Untitled

G|--------|--------|--------|--------|--------|--------|--------|--------|--------|
D|--------|--------|--------|--------|--------|--------|--------|--------|--------|
A|--------|--------|--------|--------|--------|--------|--------|--------|--------|
E|--------|--------|--------|--------|--------|--------|--------|--------|--------|


G|--------|--------|--------|--------|--------|--------|--------|--------|--------|
D|--------|--------|--------|--------|--------|--------|--------|--------|--------|
A|--------|--------|--------|--------|--------|--------|--------|--------|--------|
E|--------|--------|--------|--------|--------|--------|--------|--------|--------|


G|--------|--------|--------|--------|--------|--------|--------|--------|--------|
D|--------|--------|--------|--------|--------|--------|--------|--------|--------|
A|--------|--------|--------|--------|--------|--------|--------|--------|--------|
E|--------|--------|--------|--------|--------|--------|--------|--------|--------|


G|--------|--------|--------|--------|--------|--------|--------|--------|--------|
D|--------|--------|--------|--------|--------|--------|--------|--------|--------|
A|--------|--------|--------|--------|--------|--------|--------|--------|--------|
E|--------|--------|--------|--------|--------|--------|--------|--------|--------|


G|--------|--------|--------|--------|--------|--------|--------|--------|--------|
D|--------|--------|--------|--------|--------|--------|--------|--------|--------|
A|--------|--------|--------|--------|--------|--------|--------|--------|--------|
E|--------|--------|--------|--------|--------|--------|--------|--------|--------|


G|--------|--------|--------|--------|--------|--------|--------|--------|--------|
D|--------|--------|--------|--------|--------|--------|--------|--------|--------|
A|--------|--------|--------|--------|--------|--------|--------|--------|--------|
E|--------|--------|--------|--------|--------|--------|--------|--------|--------|


G|--------|--------|--------|--------|--------|--------|--------|--------|--------|
D|--------|--------|--------|--------|--------|--------|--------|--------|--------|
A|--------|--------|--------|--------|--------|--------|--------|--------|--------|
E|--------|--------|--------|--------|--------|--------|--------|--------|--------|


G|--------|--------|--------|--------|--------|--------|--------|--------|
D|--------|--------|--------|--------|--------|--------|--------|--------|
A|--------|--------|--------|--------|--------|--------|--------|--------|
E|--------|--------|--------|--------|--------|--------|--------|--------|