Menu:

 

Search:

 

joe satriani - flying in a blue dream:

 



Title: Flying in a Blue Dream
Artist: 
Album: Time Machine
Author: Joe Satriani


Track 1: Dist Guitar

E|-------------|-24-----|-24-----|-15-----|-15----------|--------|--------|-------------|
B|-------------|--------|--------|--------|-------------|--------|--------|-------------|
G|-------------|--------|--------|--------|-------12----|-12-----|-12-----|-12----------|
D|-------------|--------|--------|--------|-------------|--------|--------|-------------|
A|-3-----3-----|--------|--------|--------|-------------|--------|--------|------7------|
E|-------------|--------|--------|--------|-------------|--------|--------|-------------|


E|--------|--------|--------|-------------|--------|---------------------------------|
B|--------|--------|--------|-------------|--------|---------------------------------|
G|--------|--------|--------|-------------|--------|---------------------------------|
D|--------|--------|--------|-------------|--------|---------------------------------|
A|-7------|-7------|-7------|-7-----10----|-10-----|-10--10--10--10--10--10--10--10--|
E|--------|--------|--------|-------------|--------|---------------------------------|


E|---------------------------------|---------------------------------|---------------------------------|
B|---------------------------------|---------------------------------|---------------------------------|
G|---------------------------------|---------------------------------|---------------------------------|
D|---------------------------------|---------------------------------|---------------------------------|
A|-10--10--10--10--10--10--10--10--|-10--10--10--10--10--10--10--10--|-10--10--10--10--10--10--10--10--|
E|---------------------------------|---------------------------------|---------------------------------|


E|---------------------------------|---------------------------------|-----------------------------|
B|---------------------------------|---------------------------------|-----------------------------|
G|---------------------------------|---------------------------------|-----------------------------|
D|---------------------------------|---------------------------------|-----------------------------|
A|-10--7---7---7---7---7---7---7---|-7----7--7---7---7----7--7---7---|-7-----7--7--7---7--7--7--7--|
E|---------------------------------|---------------------------------|-----------------------------|


E|-----------------|---------------------------------|---------------------------------|
B|-----------------|---------------------------------|---------------------------------|
G|-----------------|-------------7---7---9-------9---|-9----11-11--11--11---12-12--14--|
D|-----------------|---------------------------------|---------------------------------|
A|-7----7----7-----|-7-------------------------------|---------------------------------|
E|-----------------|---------------------------------|---------------------------------|


E|---------------------|-------------|---------------------------|------------------------------|
B|---------------------|-------------|---------------------------|--------------------------12--|
G|-12----12--12---12---|-12---12-----|-12----9---9----11-11--11--|-11-------11--11---12-12------|
D|---------------------|-------------|---------------------------|------------------------------|
A|---------------------|-------------|---------------------------|------------------------------|
E|---------------------|-------------|---------------------------|------------------------------|


E|---------------------|---------------------|---------------------|-----------------15--|
B|-12------------------|---------------------|-------13--13----15--|-15----16--16--------|
G|-------12--12----12--|-12----12--12---12---|-12------------------|---------------------|
D|---------------------|---------------------|---------------------|---------------------|
A|---------------------|---------------------|---------------------|---------------------|
E|---------------------|---------------------|---------------------|---------------------|


E|-15----15--13------18--|-18---15-18---18--15--------------------|------------------------------|
B|-----------------------|---------------------18-15----15--------|----------17--17---19-19--19--|
G|-----------------------|---------------------------17-----------|------------------------------|
D|-----------------------|---------------------------------17-15--|-15---------------------------|
A|-----------------------|----------------------------------------|------------------------------|
E|-----------------------|----------------------------------------|------------------------------|


E|--------------------------19--|-19------------------|-------------|----------21--21--21---22--|
B|-19-------19--19---20-20------|-------20--20----20--|-20----20----|-20------------------------|
G|------------------------------|---------------------|-------------|---------------------------|
D|------------------------------|---------------------|-------------|---------------------------|
A|------------------------------|---------------------|-------------|---------------------------|
E|------------------------------|---------------------|-------------|---------------------------|


E|-22----22--22----|-22-------19--19--19--20--20--|-20-----|-20-----20---|-20---20----20---|
B|-----------------|------------------------------|--------|-------------|-----------------|
G|-----------------|------------------------------|--------|-------------|-----------------|
D|-----------------|------------------------------|--------|-------------|-----------------|
A|-----------------|------------------------------|--------|-------------|-----------------|
E|-----------------|------------------------------|--------|-------------|-----------------|


E|-20---20----20---|-20---------------------------|--------------------|---------------------------------|
B|-----------------|------------------------------|--------------------|---------------------------------|
G|-----------------|------------------------------|--------------------|-----5-----------5-------5-------|
D|-----------------|------------------------------|--------------------|-----5-----------5-------5---4---|
A|-----------------|----------------------7---0---|-3-----3----3---3---|-3-------3---3-------3-----------|
E|-----------------|------24--0---0---0---0-------|--------------------|---------------------------------|


E|----------------------12-12------|--------------------5--7--|-7--3-5-7---3--5--7--7--3-5-7---3-2---2--3-3-5-7---|
B|-----------------7-----------7---|-7------------------------|---------------------------------------------------|
G|-------------5-------------------|-----5----5---5-----------|---------------------------------------------------|
D|-4---5---5-----------------------|--------------------------|---------------------------------------------------|
A|---------------------------------|--------------------------|---------------------------------------------------|
E|---------------------------------|--------------------------|---------------------------------------------------|


E|-3-5-7-------------------------------------|-------------------------------------------------------------|
B|----------3-5-7----7--5--3--5---5--7---3-5-|-7---3-5-7-5-3-0-3-0-----------------------------------------|
G|-------------------------------------------|----------------------7-5-4-5-7-9---7-5---------------4-5-7--|
D|-------------------------------------------|----------------------------------------9-7-5--4-5-7---------|
A|-------------------------------------------|-------------------------------------------------------------|
E|-------------------------------------------|-------------------------------------------------------------|


E|--------------------------------------------|-----------------------------------------------------------------|
B|--------------------------------------------|-----------------------------------------------------------------|
G|-7-5-4--------------------------------------|-----------------------------------------------------------------|
D|-------7-5-4-2--2--2--2---2-----------------|-----------------------------------------------------------------|
A|--------------------------------------------|-2--3--5--3-2-3-5-7--------------2--3--5--3-2-3-5-7--------------|
E|-----------------------------------2--3--5--|------------------------2--3--5-------------------------2--3--5--|


E|---------------------------------------------------------------|--------------------------------------------------------7-8-108-7-|
B|---------------------------------------------------------------|---------------------------------------5--7--5--7--8-10-----------|
G|---------------------------------------------------------------|-------------------4--5--7--5-4-5-7-8-----------------------------|
D|---------------------------------------------------0--2--4--5--|-4--5--7--4--5--7-------------------------------------------------|
A|-2-3-5-3-2-3-5-7-5-3-2-3-5-2-3--5-7-5-3-2-3-5-2-3--------------|------------------------------------------------------------------|
E|---------------------------------------------------------------|------------------------------------------------------------------|


E|-8--10-12-8--10-12-15141512108-14-15-14-12108-1415141015---------|-----------11-15-11-151110----------|
B|-----------------------------------------------------------------|-13---13-------------------11-------|
G|---------------------------------------------------------12------|------------------------------12-10-|
D|-----------------------------------------------------------------|------------------------------------|
A|-------------------------------------------------------------0---|------------------------------------|
E|-------------------------------------------------------------0---|------------------------------------|


E|--------------------------------------|--------------------------------|---------------------------------------------|
B|--------------------------------------|--------------------------------|---------------------------------------------|
G|-7------------------------7---8---10--|-10--10--12---10---8--8---12-15-|-15--12-15-15-12-15-12-15--12-15-15-12-15-12-|
D|----8---------------------------------|--------------------------------|---------------------------------------------|
A|-------10-8--6---8---8----------------|--------------------------------|---------------------------------------------|
E|--------------------------------------|--------------------------------|---------------------------------------------|


E|--------------------------------------------|------------------------------------------------------|
B|--------------------------------------------|------------------------------------------------------|
G|-16---16--12------16--12--16--12-16--16-1616|-16---16--16--1215-1211--11-1211-1211-9-9-119-7-7-9-7-|
D|--------------12----------------------------|------------------------------------------------------|
A|--------------------------------------------|------------------------------------------------------|
E|--------------------------------------------|------------------------------------------------------|


E|--------------------------------------------------------|------------------------|
B|--------------------------------------------------------|------------------------|
G|-5-5-7-5-4--6--5--7-5-4--5-4-2--4-2-0-----0-2-0---------|------------------------|
D|---------------------------------------4---------4--4-2-|-0----------------------|
A|--------------------------------------------------------|-----2-----2----14--0---|
E|--------------------------------------------------------|------------------------|


E|---------------------------------------|-----------------------------------------|
B|---------------------------------------|-------------------------------------11--|
G|---------------------------------------|-------8---8--9--9--12-11---12----11-----|
D|-------------------------------8----9--|-9--9------------------------------------|
A|-9----10----9--9---9--10----0----------|-----------------------------------------|
E|---------------------------------------|-----------------------------------------|


E|-------------------------------14--14-15---|-17---17-15------------------|-------19--15-19-15-19--15-19-15-19--15-19-15-19--|
B|-11-12-12-14-16-16-16-17-17-16-------------|------------17--17--17--17---|-17-0---------------------------------------------|
G|-------------------------------------------|-----------------------------|--------------------------------------------------|
D|-------------------------------------------|-----------------------------|--------------------------------------------------|
A|-------------------------------------------|-----------------------------|--------------------------------------------------|
E|-------------------------------------------|-----------------------------|--------------------------------------------------|


E|-15-19-15-19--15-19-15-19--15-19-15-19--10-10-10-20--|-20--20--17--19----17------17----------|
B|----------------------------------------12-12-12-----|----------------20-----19------19--19--|
G|----------------------------------------12-12-12-----|---------------------------------------|
D|-----------------------------------------------------|---------------------------------------|
A|-----------------------------------------------------|---------------------------------------|
E|-----------------------------------------------------|---------------------------------------|


E|-------------------------------------|-----------------------------------------------|
B|-19-19-19----------------------------|-----------------------------------------------|
G|-------------------------------------|-----------------------------------12-13-13-15-|
D|-------------------------------------|--------------------12-12-13-13-15-------------|
A|-----------7---9---9-----------------|-----10-11-11-13-15----------------------------|
E|-----------0-----------24--7---13----|-11--------------------------------------------|


E|----------------------------15-15-16-16-18-20-20-|-20-20---20--20--20--19-19-19--19-19-|
B|----------15-15-16-16-18-18----------------------|-------------------------------------|
G|-15-17-17----------------------------------------|-------------------------------------|
D|-------------------------------------------------|-------------------------------------|
A|-------------------------------------------------|-------------------------------------|
E|-------------------------------------------------|-------------------------------------|


E|-19-19--17-17-------------------------|---------------------------------------|----------14--14--12-108-7--8--10-8--7-----|
B|--------------10-10-------------------|---------------------------------------|------0---------------------------------10-|
G|---------------------19--19---19--19--|-19--19--19--16----------19--------16--|-16----------------------------------------|
D|--------------------------------------|-----------------17--18------16-14-----|-------------------------------------------|
A|--------------------------------------|---------------------------------------|-------------------------------------------|
E|--------------------------------------|---------------------------------------|-------------------------------------------|


E|-7-8-108-7-107-8-108-7----------------------------------------|---------------------------|
B|-----------------------108------------------------------------|---------------3---3---0---|
G|-------------------------0---12-11-9--------------------------|---------------4---4---0---|
D|--------------------------------------12-10-9--10-12-10-9--0--|---------------------------|
A|--------------------------------------------------------------|-24---12-------------------|
E|--------------------------------------------------------------|-24---12---13--------------|


E|--------------------------------|-------------------------------------|---------------------------------|
B|--------------3-------3---------|-3---5-------------3---5---6---------|-6---5-------8---8---------------|
G|-----3--------3-------3---------|-3---5-------------3---5---5---------|-5---5-------5---5-----------5---|
D|-----3--------------------------|-3---5-------------3---5---7---5--5--|-7---5-------5---5---5---7-------|
A|--------------------------------|-------------------------------------|---------------------------------|
E|-3--------3-------3-------3--3--|---------3---3--3--------------------|---------8-----------------------|


E|---------------------------------|---------------------------|---------12--13--14--15--16--17--|
B|-------------------------13------|-13---13---15--15--15--13--|-13--15--------------------------|
G|-5---7---7---5-------12----------|---------------------------|---------------------------------|
D|-----------------14--------------|---------------------------|---------------------------------|
A|---------------------------------|---------------------------|---------------------------------|
E|---------------------------------|---------------------------|---------------------------------|


E|-17---17---17--------------|--------------------------------|---------------------------------|
B|---------------15--15--13--|-13---13----------13--13--------|---------------------------------|
G|---------------------------|----------15--15----------14-14-|-14--14--14--14--14--12----------|
D|---------------------------|--------------------------------|-------------------------13------|
A|---------------------------|--------------------------------|-----------------------------13--|
E|---------------------------|--------------------------------|---------------------------------|


E|------------------------------|---------------------------------------|-----------------------------------------------|
B|--------------8-------8-------|------------------13----13-17-13----13-|-13--------------------------------------------|
G|--------------8-------8-------|------0---15--15-----15----------15----|----14-14-12-----------------------------------|
D|--------------8-------8---10--|-10------------------------------------|-------------15-14-----------------------------|
A|-13---13--0-------------------|---------------------------------------|-------------------15-15-13-----13-13----13----|
E|----------0-------11----------|---------------------------------------|-----------------------------15-------15----15-|


E|-------------------------------------------|-----------15-17-18-17-15--12--17-15-13-0--------------------|
B|-------------------------------------------|--------17---------------------------------10-11-13-11-10----|
G|-------------------------------------------|-----17---------------------------------------------------12-|
D|-------------------------------------------|-------------------------------------------------------------|
A|-13-----13-13----13----13-----13-15-15-15--|-15----------------------------------------------------------|
E|-----15-------15----15-----15--------------|-------------------------------------------------------------|


E|--------------------------------------------------------------------------|---------------------|
B|------------------0-------------------------------------------------------|---------------------|
G|-9--10-12-10-9--0---7--9--10-9--7--10-------------------------------------|---------------------|
D|--------------------------------------7--8--10-8--7--10-------------------|---------------------|
A|--------------------------------------------------------7--8--10-8--7--5--|-8-------------------|
E|--------------------------------------------------------------------------|-6-----6---6-----6---|


E|------------------------------|---------------------------------|---------------------|
B|------------------------------|---------------------------------|---------------------|
G|----------7---7---9-------9---|-9---11------11--11---12-12--14--|-12----12--12----12--|
D|------------------------------|---------------------------------|---------------------|
A|------------------------------|---------------------------------|---------------------|
E|------------------------------|---------------------------------|---------------------|


E|-------------|---------------------------|---------------------------------|------------------------|
B|-------------|-------5---5----7--7---7---|-7----7--7---7---7---8---8---12--|-12---------------------|
G|-12---12-----|-12------------------------|---------------------------------|-------12--12--12---12--|
D|-------------|---------------------------|---------------------------------|------------------------|
A|-------------|---------------------------|---------------------------------|------------------------|
E|-------------|---------------------------|---------------------------------|------------------------|


E|---------------------|---------------------|-----------------15--|-15----15--13------18--|
B|---------------------|-------13--13----15--|-15----16--16--------|-----------------------|
G|-12----12--12---12---|-12------------------|---------------------|-----------------------|
D|---------------------|---------------------|---------------------|-----------------------|
A|---------------------|---------------------|---------------------|-----------------------|
E|---------------------|---------------------|---------------------|-----------------------|


E|-18----18--18--15--------------------|------------------------------|--------------------------19--|
B|------------------18-15----15--------|----------17--17---19-19--19--|-19-------19--19---20-20------|
G|------------------------17-----------|------------------------------|------------------------------|
D|------------------------------17-15--|-15---------------------------|------------------------------|
A|-------------------------------------|------------------------------|------------------------------|
E|-------------------------------------|------------------------------|------------------------------|


E|------------------------|------------------------|-------21--21--21---22--|-22----22----|
B|-20----20--20---20------|----------20--20---20---|-20---------------------|-------------|
G|------------------------|-----19-----------------|------------------------|-------------|
D|--------------------17--|-17---------------------|------------------------|-------------|
A|------------------------|------------------------|------------------------|-------------|
E|------------------------|------------------------|------------------------|-------------|


E|-22---22--19--19--19---20--|-20-----20---|-20-----20---|-20---20----20---|-20---20----------------|
B|---------------------------|-------------|-------------|-----------------|------------------------|
G|---------------------------|-------------|-------------|-----------------|------------------------|
D|---------------------------|-------------|-------------|-----------------|------------------------|
A|---------------------------|-------------|-------------|-----------------|---------------0--------|
E|---------------------------|-------------|-------------|-----------------|-----------10--0---10---|


E|-----------------------|----------21--21--21---22--|-22----22----|-22---22-0--19--19--19---20--|
B|-----0----0---0-----0--|---------------------------|-------------|-----------------------------|
G|-----0----0---0-----0--|---------------------------|-------------|-----------------------------|
D|-----------------------|---------------------------|-------------|-----------------------------|
A|-----------------------|-22------------------------|-------------|-----------------------------|
E|-10--------------------|-22--3---------------------|-------------|-----------------------------|


E|-20-----20---|-20-----20---|-20---20----20---|-20---20----20---|-20---20----20---|
B|-------------|-------------|-----------------|-----------------|-----------------|
G|-------------|-------------|-----------------|-----------------|-----------------|
D|-------------|-------------|-----------------|-----------------|-----------------|
A|-------------|-------------|-----------------|-----------------|-----------------|
E|-------------|-------------|-----------------|-----------------|-----------------|


E|-20---20----20---|-20---20----20---|-20---20---20--20-------|-------------------------------|
B|-----------------|-----------------|------------------------|-0---3-----3---3---3-----------|
G|-----------------|-----------------|-------------------0----|-0-----------------------------|
D|-----------------|-----------------|-------------------0----|-----------------------4-------|
A|-----------------|-----------------|------------------------|-----------------------5-------|
E|-----------------|-----------------|------------------------|---------------------------3---|


E|---------------------------|---------------------------|-----------------------------------|
B|-------7---7---7---5-------|-5-------------------------|-------------7---7---7---------5---|
G|-5-----7---7---7---5---5---|-5---------5-------5-------|-----5-------7---7---7---5--5--5---|
D|-5-----5---5---5---5---5---|-5---------------------4---|-4---5---5---5---5---5---5--5--5---|
A|-3-----3---3---3-------3---|-3-----3-------3-------3---|-3---3---5---3---3---3---3--3--3---|
E|---------------------------|---------------------------|-----------------------------------|


E|-----------------------------|-----------------------------------|------------------------------|
B|-5---------------------------|---------------7---7---7---5-------|-5----------------------------|
G|-5---------------------------|---------------7---7---7---5---5---|-5------------5-------5-------|
D|-5-----5---5----5--5--5--4---|-4---5--5------5---5---5---5---5---|-5----5---5---5-----------4---|
A|-3---------------------------|-----------3---3---3---3-------3---|-3----3---3---3---3-----------|
E|-----------------------------|-----------------------------------|------------------------------|


E|---------------------------------|---------------------------------|------------------------------|
B|-----5---5-----------------------|---------------------------------|-------------7---7---7--------|
G|-4---5---5-----------------------|---------------------------------|-------------7---7---7--------|
D|-----3---3-----------------------|---------------------------------|-------------5---5---5--------|
A|-------------3---3-------3-------|-3-------3-------3-------3-------|-3-------3---3---3---3--------|
E|---------------------3-------3---|-----3-------3-------3-------3---|-----3--------------------3---|


E|--------------------|-19---19--19--19--19--19--191919-201919-|-19-20-19-17-19-20-19--20-17-19-20-19-19-20-17-19-20-19-19-20-17171917|
B|-5------------------|----------------------------------------|----------------------------------------------------------------------|
G|-5------------------|----------------------------------------|----------------------------------------------------------------------|
D|-5------------------|----------------------------------------|----------------------------------------------------------------------|
A|-3------3---0-3--0--|----------------------------------------|----------------------------------------------------------------------|
E|--------------------|----------------------------------------|----------------------------------------------------------------------|


E|-15151517151518151414151514-17-15-16--15-18-15-14-15--15-17-15-14-|-15--15-17-15-14-15--12-14--15-14-12-14-12-10-10-12-14-121412-9--|
B|------------------------------------------------------------------|-----------------------------------------------------------------|
G|------------------------------------------------------------------|-----------------------------------------------------------------|
D|------------------------------------------------------------------|-----------------------------------------------------------------|
A|------------------------------------------------------------------|-----------------------------------------------------------------|
E|------------------------------------------------------------------|-----------------------------------------------------------------|


E|-9-129--8--8-108--7--7--8--10-8-----7-8-108-7-107-138-108-7-107-5---|-7-8-7-5----------------------------------------------------------------|
B|---------------------------------7----------------------------------|---------8-5-7-8-7-5----------------------------------------------------|
G|--------------------------------------------------------------------|---------------------7--5--4--5--7--4--5--7--9--7--5--------------------|
D|--------------------------------------------------------------------|---------------------------------------------------------------5--7--9--|
A|--------------------------------------------------------------------|------------------------------------------------------7--8--9-----------|
E|--------------------------------------------------------------------|------------------------------------------------------------------------|


E|--------------------------------------------------------------|----------------------------------------------------------|
B|--------------------------------------------------------------|----------------------------------------------------------|
G|-5-7-5-4-5-7-9-5-4-5-7-4-5---7--9--7--5---------------5-7-5-4-|----------------------------------------------------------|
D|-----------------------------------------9--5--4--5-----------|-7--4-5-7--4--5--9--4-5-7-4-5-7-9-5-4--0------------------|
A|--------------------------------------------------------------|------------------------------------------2--3--5--3--2---|
E|--------------------------------------------------------------|----------------------------------------------------------|


E|---------------------|------------------------|-----------------------|----------------|
B|---------------------|------------------------|-----------------------|------------5---|
G|---------------------|------------------------|-----------------------|------------5---|
D|---------------------|------------------------|-----------------------|------------5---|
A|-------2----2----2---|-----2----2----2----2---|-2---2---3---3-----3---|------------3---|
E|---------------------|------------------------|-----------------------|----------------|


E|-----------------------------|
B|-----------------------------|
G|-----------------------------|
D|-----------------------------|
A|---------3--0----------------|
E|-----------------------------|





Track 2: Matt Bissonette

G|--------|--------|--------|--------|--------|---------------------------------|---------------------------------|
D|--------|--------|--------|--------|--------|-10--10--10--10--10--10--10--10--|-10--10--10--10--10--10--10--10--|
A|--------|--------|--------|--------|--------|---------------------------------|---------------------------------|
E|--------|--------|--------|--------|--------|---------------------------------|---------------------------------|


G|---------------------------------|---------------------------------|---------------------------------|
D|-10--10--10--10--10--10--10--10--|-10--10--10--10--10--10--10--10--|-10------------------------------|
A|---------------------------------|---------------------------------|-----15--15--15--15--15--15--15--|
E|---------------------------------|---------------------------------|---------------------------------|


G|---------------------------------|---------------------------------|---------------------------------|
D|---------------------------------|---------------------------------|---------------------------------|
A|-15--15--15--15--15--15--15--15--|-15--15--15--15--15--15--15--15--|-15--15--15--15--15--15--15--15--|
E|---------------------------------|---------------------------------|---------------------------------|


G|---------------------------------|---------------------------------|---------------------------------|
D|-10------------------------------|---------------------------------|---------------------------------|
A|-----15--15--15--15--15--15--15--|-15--15--15--15--15--15--15--15--|-15--15--15--15--15--15--15--15--|
E|---------------------------------|---------------------------------|---------------------------------|


G|---------------------------------|---------------------------------|---------------------------------|
D|---------------------------------|-10------------------------------|---------------------------------|
A|-15--15--15--15--15--15--15--15--|-----15--15--15--15--15--15--15--|-15--15--15--15--15--15--15--15--|
E|---------------------------------|---------------------------------|---------------------------------|


G|---------------------------------|---------------------------------|---------------------------------|
D|---------------------------------|---------------------------------|-10------------------------------|
A|-15--15--15--15--15--15--15--15--|-15--15--15--15--15--15--15--15--|-----15--15--15--15--15--15--15--|
E|---------------------------------|---------------------------------|---------------------------------|


G|---------------------------------|---------------------------------|---------------------------------|
D|---------------------------------|---------------------------------|---------------------------------|
A|-15--15--15--15--15--15--15--15--|-15--15--15--15--15--15--15--15--|-15--15--15--15--15--15--15--15--|
E|---------------------------------|---------------------------------|---------------------------------|


G|---------------------------------|---------------------------------|---------------------------------|
D|-10------------------------------|---------------------------------|---------------------------------|
A|-----15--15--15--15--15--15--15--|-15--15--15--15--15--15--15--15--|-15--15--15--15--15--15--15--15--|
E|---------------------------------|---------------------------------|---------------------------------|


G|---------------------------------|---------------------------------|---------------------------------|
D|---------------------------------|---------------------------------|---------------------------------|
A|-15--15--15--15--15--15--15--15--|-11--11--11--11--11--11--11--11--|-11--11--11--11--11--11--11--11--|
E|---------------------------------|---------------------------------|---------------------------------|


G|---------------------------------|---------------------------------|---------------------------------|
D|---------------------------------|---------------------------------|---------------------------------|
A|-11--11--11--11--11--11--11--11--|-11--11--11--11--11--11--11--11--|-15--15--15--15--15--15--15--15--|
E|---------------------------------|---------------------------------|---------------------------------|


G|---------------------------------|---------------------------------|---------------------------------|
D|---------------------------------|---------------------------------|---------------------------------|
A|-15--15--15--15--15--15--15--15--|-15--15--15--15--15--15--15--15--|-15--15--15--15--15--15--15--15--|
E|---------------------------------|---------------------------------|---------------------------------|


G|---------------------------------|---------------------------------|---------------------------------|
D|---------------------------------|---------------------------------|---------------------------------|
A|-22--22--22--22--22--22--22--22--|-22--22--22--22--22--22--22--22--|-20--20--20--20--20--20--20--20--|
E|---------------------------------|---------------------------------|---------------------------------|


G|---------------------------------|---------------------------------|---------------------------------|
D|---------------------------------|-10--10--10--10--10--10--10--10--|-10--10--10--10--10--10--10--10--|
A|-20--20--20--20--20--20--20--20--|---------------------------------|---------------------------------|
E|---------------------------------|---------------------------------|---------------------------------|


G|---------------------------------|---------------------------------|---------------------------------|
D|-10--10--10--10--10--10--10--10--|-10--10--10--10--10--10--10--10--|-10--10--10--10--10--10--10--10--|
A|---------------------------------|---------------------------------|---------------------------------|
E|---------------------------------|---------------------------------|---------------------------------|


G|---------------------------------|---------------------------------|---------------------------------|
D|-10--10--10--10--10--10--10--10--|-10--10--10--10--10--10--10--10--|-10--10--10--10--10--10--10--10--|
A|---------------------------------|---------------------------------|---------------------------------|
E|---------------------------------|---------------------------------|---------------------------------|


G|---------------------------------|---------------------------------|---------------------------------|
D|-10--10--10--10--10--10--10--10--|-10--10--10--10--10--10--10--10--|-10--10--10--10--10--10--10--10--|
A|---------------------------------|---------------------------------|---------------------------------|
E|---------------------------------|---------------------------------|---------------------------------|


G|---------------------------------|---------------------------------|---------------------------------|
D|-10--10--10--10--10--10--10--10--|-10--10--10--10--10--10--10--10--|-10--10--10--10--10--10--10--10--|
A|---------------------------------|---------------------------------|---------------------------------|
E|---------------------------------|---------------------------------|---------------------------------|


G|---------------------------------|---------------------------------|---------------------------------|
D|-10--10--10--10--10--10--10--10--|-10--10--10--10--10--10--10--10--|---------------------------------|
A|---------------------------------|---------------------------------|-11--11--11--11--11--11--11--11--|
E|---------------------------------|---------------------------------|---------------------------------|


G|---------------------------------|---------------------------------|---------------------------------|
D|---------------------------------|---------------------------------|---------------------------------|
A|-11--11--11--11--11--11--11--11--|-11--11--11--11--11--11--11--11--|-11--11--11--11--11--11--11--11--|
E|---------------------------------|---------------------------------|---------------------------------|


G|---------------------------------|---------------------------------|---------------------------------|
D|---------------------------------|---------------------------------|---------------------------------|
A|-15--15--15--15--15--15--15--15--|-15--15--15--15--15--15--15--15--|-15--15--15--15--15--15--15--15--|
E|---------------------------------|---------------------------------|---------------------------------|


G|---------------------------------|---------------------------------|---------------------------------|
D|---------------------------------|---------------------------------|---------------------------------|
A|-15--15--15--15--15--15--15--15--|-15--15--15--15--15--15--15--15--|-15--15--15--15--15--15--15--15--|
E|---------------------------------|---------------------------------|---------------------------------|


G|---------------------------------|---------------------------------|---------------------------------|
D|---------------------------------|---------------------------------|---------------------------------|
A|-15--15--15--15--15--15--15--15--|-15--15--15--15--15--15--15--15--|-15--15--15--15--15--15--15--15--|
E|---------------------------------|---------------------------------|---------------------------------|


G|---------------------------------|---------------------------------|---------------------------------|
D|---------------------------------|---------------------------------|---------------------------------|
A|-15--15--15--15--15--15--15--15--|-15--15--15--15--15--15--15--15--|-15--15--15--15--15--15--15--15--|
E|---------------------------------|---------------------------------|---------------------------------|


G|---------------------------------|---------------------------------|---------------------------------|
D|---------------------------------|---------------------------------|---------------------------------|
A|-11--11--11--11--11--11--11--11--|-11--11--11--11--11--11--11--11--|-8---8---8---8---8---8---8---8---|
E|---------------------------------|---------------------------------|---------------------------------|


G|---------------------------------|---------------------------------|---------------------------------|
D|---------------------------------|---------------------------------|---------------------------------|
A|-8---8---8---8---8---8---8---8---|-15--15--15--15--15--15--15--15--|-15--15--15--15--15--15--15--15--|
E|---------------------------------|---------------------------------|---------------------------------|


G|---------------------------------|---------------------------------|---------------------------------|
D|---------------------------------|---------------------------------|---------------------------------|
A|-15--15--15--15--15--15--15--15--|-15--15--15--15--15--15--15--15--|-10--10--10--10--10--10--10--10--|
E|---------------------------------|---------------------------------|---------------------------------|


G|---------------------------------|---------------------------------|---------------------------------|
D|---------------------------------|---------------------------------|---------------------------------|
A|-10--10--10--10--10--10--10--10--|---------------------------------|---------------------------------|
E|---------------------------------|-8---8---8---8---8---8---8---8---|-8---8---8---8---8---8---8---8---|


G|---------------------------------|---------------------------------|---------------------------------|
D|---------------------------------|---------------------------------|---------------------------------|
A|-10--10--10--10--10--10--10--10--|-10--10--10--10--10--10--10--10--|---------------------------------|
E|---------------------------------|---------------------------------|-8---8---8---8---8---8---8---8---|


G|---------------------------------|---------------------------------|---------------------------------|
D|---------------------------------|---------------------------------|---------------------------------|
A|---------------------------------|-10--10--10--10--10--10--10--10--|-10--10--10--10--10--10--10--10--|
E|-8---8---8---8---8---8---8---8---|---------------------------------|---------------------------------|


G|---------------------------------|---------------------------------|---------------------------------|
D|---------------------------------|---------------------------------|---------------------------------|
A|---------------------------------|---------------------------------|---------------------------------|
E|-8---8---8---8---8---8---8---8---|-8---8---8---8---8---8---8---8---|-8---8---8---8---8---8---8---8---|


G|---------------------------------|---------------------------------|---------------------------------|
D|---------------------------------|---------------------------------|---------------------------------|
A|-15--15--15--15--15--15--15--15--|-15--15--15--15--15--15--15--15--|-15--15--15--15--15--15--15--15--|
E|---------------------------------|---------------------------------|---------------------------------|


G|---------------------------------|---------------------------------|---------------------------------|
D|---------------------------------|---------------------------------|---------------------------------|
A|-15--15--15--15--15--15--15--15--|-15--15--15--15--15--15--15--15--|-15--15--15--15--15--15--15--15--|
E|---------------------------------|---------------------------------|---------------------------------|


G|---------------------------------|---------------------------------|---------------------------------|
D|---------------------------------|---------------------------------|---------------------------------|
A|-15--15--15--15--15--15--15--15--|-15--15--15--15--15--15--15--15--|-11--11--11--11--11--11--11--11--|
E|---------------------------------|---------------------------------|---------------------------------|


G|---------------------------------|---------------------------------|---------------------------------|
D|---------------------------------|---------------------------------|---------------------------------|
A|-11--11--11--11--11--11--11--11--|-11--11--11--11--11--11--11--11--|-11--11--11--11--11--11--11--11--|
E|---------------------------------|---------------------------------|---------------------------------|


G|---------------------------------|---------------------------------|---------------------------------|
D|---------------------------------|---------------------------------|---------------------------------|
A|-15--15--15--15--15--15--15--15--|-15--15--15--15--15--15--15--15--|-15--15--15--15--15--15--15--15--|
E|---------------------------------|---------------------------------|---------------------------------|


G|---------------------------------|---------------------------------|---------------------------------|
D|---------------------------------|---------------------------------|---------------------------------|
A|-15--15--15--15--15--15--15--15--|-10--10--10--10--10--10--10--10--|-10--10--10--10--10--10--10--10--|
E|---------------------------------|---------------------------------|---------------------------------|


G|---------------------------------|---------------------------------|---------------------------------|
D|---------------------------------|---------------------------------|---------------------------------|
A|-8---8---8---8---8---8---8---8---|-8---8---8---8---8---8---8---8---|-15--15--15--15--15--15--15--15--|
E|---------------------------------|---------------------------------|---------------------------------|


G|---------------------------------|---------------------------------|---------------------------------|
D|---------------------------------|---------------------------------|---------------------------------|
A|-15--15--15--15--15--15--15--15--|-15--15--15--15--15--15--15--15--|-15--15--15--15--15--15--15--15--|
E|---------------------------------|---------------------------------|---------------------------------|


G|---------------------------------|---------------------------------|---------------------------------|
D|---------------------------------|---------------------------------|---------------------------------|
A|-10--10--10--10--10--10--10--10--|-10--10--10--10--10--10--10--10--|-8---8---8---8---8---8---8---8---|
E|---------------------------------|---------------------------------|---------------------------------|


G|---------------------------------|---------------------------------|---------------------------------|
D|---------------------------------|---------------------------------|---------------------------------|
A|-8---8---8---8---8---8---8---8---|-15--15--15--15--15--15--15--15--|-15--15--15--15--15--15--15--15--|
E|---------------------------------|---------------------------------|---------------------------------|


G|---------------------------------|---------------------------------|---------------------------------|
D|---------------------------------|---------------------------------|---------------------------------|
A|-15--15--15--15--15--15--15--15--|-15--15--15--15--15--15--15--15--|-15--15--15--15--15--15--15--15--|
E|---------------------------------|---------------------------------|---------------------------------|


G|---------------------------------|---------------------------------|---------------------------------|
D|---------------------------------|---------------------------------|---------------------------------|
A|-15--15--15--15--15--15--15--15--|-15--15--15--15--15--15--15--15--|-15--15--15--15--15--15--15--15--|
E|---------------------------------|---------------------------------|---------------------------------|


G|---------------------------------|---------------------------------|---------------------------------|
D|---------------------------------|---------------------------------|---------------------------------|
A|-15--15--15--15--15--15--15--15--|-15--15--15--15--15--15--15--15--|-15--15--15--15--15--15--15--15--|
E|---------------------------------|---------------------------------|---------------------------------|


G|---------------------------------|--------|--------|--------|--------|--------|-------------|
D|---------------------------------|--------|--------|--------|--------|--------|-------------|
A|-15--15--15--15--15--15--15--15--|--------|--------|--------|--------|--------|-------------|
E|---------------------------------|--------|--------|-8------|--------|--------|-------------|


G|-------------|-------------|-------------|-----------------|----------------|----------------|
D|-------------|-------------|-------------|-----------------|----------------|----------------|
A|-------------|-------------|-------------|-----------------|----------------|----------------|
E|-------------|-------------|-------------|-----------------|----------------|----------------|


G|----------------|--------|--------|--------|--------|--------|--------|--------|
D|----------------|--------|--------|--------|--------|--------|--------|--------|
A|----------------|--------|--------|--------|--------|--------|--------|--------|
E|----------------|--------|--------|--------|--------|--------|--------|--------|


G|--------|--------|
D|--------|--------|
A|--------|--------|
E|--------|--------|





Track 3: Rhy Guit

C|--------|--------|--------|--------|--------|-------------7---7---7----7---|-7------|
A|--------|--------|--------|--------|--------|-------------9---9---9----7---|-7------|
F|--------|--------|--------|--------|--------|-------------9---9---9----7---|-7------|
C|--------|--------|--------|--------|--------|---------7--------------------|--------|
F|--------|--------|--------|--------|--------|-----7------------------------|--------|
C|--------|--------|--------|--------|--------|-0----------------------------|--------|


C|--------|--------|-------------7---7---7----7---|-7------|-------------7---7---7----7---|
A|--------|--------|-------------9---9---9----7---|-7------|-------------9---9---9----7---|
F|--------|--------|-------------9---9---9----7---|-7------|-------------9---9---9----7---|
C|--------|--------|---------7--------------------|--------|---------7--------------------|
F|--------|--------|-----7------------------------|--------|-----7------------------------|
C|--------|--------|-0----------------------------|--------|-0----------------------------|


C|-7------|-------------7---7---7----7---|-7------|-------------7---7---7----7---|
A|-7------|-------------9---9---9----7---|-7------|-------------9---9---9----7---|
F|-7------|-------------9---9---9----7---|-7------|-------------9---9---9----7---|
C|--------|---------7--------------------|--------|---------7--------------------|
F|--------|-----7------------------------|--------|-----7------------------------|
C|--------|-0----------------------------|--------|-0----------------------------|


C|-7------|-------------7---7---7----7---|-7------|-------------7---7---7----7---|
A|-7------|-------------9---9---9----7---|-7------|-------------9---9---9----7---|
F|-7------|-------------9---9---9----7---|-7------|-------------9---9---9----7---|
C|--------|---------7--------------------|--------|---------7--------------------|
F|--------|-----7------------------------|--------|-----7------------------------|
C|--------|-0----------------------------|--------|-0----------------------------|


C|-7------|-------------7---7---7----7---|-7------|-------------7---7---7----7---|
A|-7------|-------------9---9---9----7---|-7------|-------------9---9---9----7---|
F|-7------|-------------9---9---9----7---|-7------|-------------9---9---9----7---|
C|--------|---------7--------------------|--------|---------7--------------------|
F|--------|-----7------------------------|--------|-----7------------------------|
C|--------|-0----------------------------|--------|-0----------------------------|


C|-7------|-------------7---7---7----7---|-7------|-------------7---7---7----7---|
A|-7------|-------------9---9---9----7---|-7------|-------------9---9---9----7---|
F|-7------|-------------9---9---9----7---|-7------|-------------9---9---9----7---|
C|--------|---------7--------------------|--------|---------7--------------------|
F|--------|-----7------------------------|--------|-----7------------------------|
C|--------|-0----------------------------|--------|-0----------------------------|


C|-7------|-------------3---3---3----3---|-3------|-------------3---3---3----3---|
A|-7------|-------------5---5---5----3---|-3------|-------------5---5---5----3---|
F|-7------|---------5---5---5---5----3---|-3------|---------5---5---5---5----3---|
C|--------|-----3------------------------|--------|-----3------------------------|
F|--------|-3----------------------------|--------|-3----------------------------|
C|--------|------------------------------|--------|------------------------------|


C|-3------|-------------7---7---7----7---|-7------|-------------7---7---7----7---|
A|-3------|-------------9---9---9----7---|-7------|-------------9---9---9----7---|
F|-3------|-------------9---9---9----7---|-7------|-------------9---9---9----7---|
C|--------|---------7--------------------|--------|---------7--------------------|
F|--------|-----7------------------------|--------|-----7------------------------|
C|--------|-0----------------------------|--------|-0----------------------------|


C|-7------|-------------2---2---2----2---|-2------|-------------0---0---0----0---|
A|-7------|-------------4---4---4----2---|-2------|-------------2---2---2----0---|
F|-7------|---------4---4---4---4----2---|-2------|---------2---2---2---2----0---|
C|--------|-----2------------------------|--------|-----0------------------------|
F|--------|-2----------------------------|--------|-0----------------------------|
C|--------|------------------------------|--------|------------------------------|


C|-0------|-------------7---7---7----7---|-7------|-------------7---7---7----7---|
A|-0------|-------------9---9---9----7---|-7------|-------------9---9---9----7---|
F|-0------|-------------9---9---9----7---|-7------|-------------9---9---9----7---|
C|--------|---------7--------------------|--------|---------7--------------------|
F|--------|-----7------------------------|--------|-----7------------------------|
C|--------|-0----------------------------|--------|-0----------------------------|


C|-7------|-------------7---7---7----7---|-7------|-------------7---7---7----7---|
A|-7------|-------------9---9---9----7---|-7------|-------------9---9---9----7---|
F|-7------|-------------9---9---9----7---|-7------|-------------9---9---9----7---|
C|--------|---------7--------------------|--------|---------7--------------------|
F|--------|-----7------------------------|--------|-----7------------------------|
C|--------|-0----------------------------|--------|-0----------------------------|


C|-7------|-------------7---7---7----7---|-7------|-------------7---7---7----7---|
A|-7------|-------------9---9---9----7---|-7------|-------------9---9---9----7---|
F|-7------|-------------9---9---9----7---|-7------|-------------9---9---9----7---|
C|--------|---------7--------------------|--------|---------7--------------------|
F|--------|-----7------------------------|--------|-----7------------------------|
C|--------|-0----------------------------|--------|-0----------------------------|


C|-7------|-------------7---7---7----7---|-7------|-------------7---7---7----7---|
A|-7------|-------------9---9---9----7---|-7------|-------------9---9---9----7---|
F|-7------|-------------9---9---9----7---|-7------|-------------9---9---9----7---|
C|--------|---------7--------------------|--------|---------7--------------------|
F|--------|-----7------------------------|--------|-----7------------------------|
C|--------|-0----------------------------|--------|-0----------------------------|


C|-7------|-------------3---3---3----3---|-3------|-------------3---3---3----3---|
A|-7------|-------------5---5---5----3---|-3------|-------------5---5---5----3---|
F|-7------|---------5---5---5---5----3---|-3------|---------5---5---5---5----3---|
C|--------|-----3------------------------|--------|-----3------------------------|
F|--------|-3----------------------------|--------|-3----------------------------|
C|--------|------------------------------|--------|------------------------------|


C|-3------|-------------7---7---7----7---|-7------|-------------7---7---7----7---|
A|-3------|-------------9---9---9----7---|-7------|-------------9---9---9----7---|
F|-3------|-------------9---9---9----7---|-7------|-------------9---9---9----7---|
C|--------|---------7--------------------|--------|---------7--------------------|
F|--------|-----7------------------------|--------|-----7------------------------|
C|--------|-0----------------------------|--------|-0----------------------------|


C|-7------|-------------7---7---7----7---|-7------|-------------7---7---7----7---|
A|-7------|-------------9---9---9----7---|-7------|-------------9---9---9----7---|
F|-7------|-------------9---9---9----7---|-7------|-------------9---9---9----7---|
C|--------|---------7--------------------|--------|---------7--------------------|
F|--------|-----7------------------------|--------|-----7------------------------|
C|--------|-0----------------------------|--------|-0----------------------------|


C|-7------|-------------7---7---7----7---|-7------|-------------7---7---7----7---|
A|-7------|-------------9---9---9----7---|-7------|-------------9---9---9----7---|
F|-7------|-------------9---9---9----7---|-7------|-------------9---9---9----7---|
C|--------|---------7--------------------|--------|---------7--------------------|
F|--------|-----7------------------------|--------|-----7------------------------|
C|--------|-0----------------------------|--------|-0----------------------------|


C|-7------|-------------3---3---3----3---|-3------|-------------0---0---0----0---|
A|-7------|-------------5---5---5----3---|-3------|-------------2---2---2----0---|
F|-7------|---------5---5---5---5----3---|-3------|---------2---2---2---2----0---|
C|--------|-----3------------------------|--------|-----0------------------------|
F|--------|-3----------------------------|--------|-0----------------------------|
C|--------|------------------------------|--------|------------------------------|


C|-0------|-------------7---7---7----7---|-7------|-------------7---7---7----7---|
A|-0------|-------------9---9---9----7---|-7------|-------------9---9---9----7---|
F|-0------|-------------9---9---9----7---|-7------|-------------9---9---9----7---|
C|--------|---------7--------------------|--------|---------7--------------------|
F|--------|-----7------------------------|--------|-----7------------------------|
C|--------|-0----------------------------|--------|-0----------------------------|


C|-7------|-------------0---0-----|-0----------|--------------------------0---|-0---0-----0-----|
A|-7------|-------------0---0-----|-0----------|-------------10--10--0----10--|-10--------------|
F|-7------|---------5-------------|------------|-------------9---9--------9---|-9---------------|
C|--------|-----5-----------------|------------|---------7--------------------|-----------------|
F|--------|-2---------------------|------------|-----7------------------------|-----------------|
C|--------|-----------------------|--------0---|-0----------------------------|-----------------|


C|-------------0---0-----|-0----------|--------------------------0---|-0---0-----0-----|
A|-------------0---0-----|-0----------|-------------10--10--0----10--|-10--------------|
F|---------5-------------|------------|-------------9---9--------9---|-9---------------|
C|-----5-----------------|------------|---------7--------------------|-----------------|
F|-2---------------------|------------|-----7------------------------|-----------------|
C|-----------------------|--------0---|-0----------------------------|-----------------|


C|-------------0---0-----|-0----------|--------------------------0---|-0---0-----0-----|
A|-------------0---0-----|-0----------|-------------10--10--0----10--|-10--------------|
F|---------5-------------|------------|-------------9---9--------9---|-9---------------|
C|-----5-----------------|------------|---------7--------------------|-----------------|
F|-2---------------------|------------|-----7------------------------|-----------------|
C|-----------------------|--------0---|-0----------------------------|-----------------|


C|-0------|-------------7---7---7----7---|-7------|-------------7---7---7----7---|
A|-10-----|-------------9---9---9----7---|-7------|-------------9---9---9----7---|
F|-9------|-------------9---9---9----7---|-7------|-------------9---9---9----7---|
C|--------|---------7--------------------|--------|---------7--------------------|
F|--------|-----7------------------------|--------|-----7------------------------|
C|--------|-0----------------------------|--------|-0----------------------------|


C|-7------|-------------7---7---7----7---|-7------|-------------7---7---7----7---|
A|-7------|-------------9---9---9----7---|-7------|-------------9---9---9----7---|
F|-7------|-------------9---9---9----7---|-7------|-------------9---9---9----7---|
C|--------|---------7--------------------|--------|---------7--------------------|
F|--------|-----7------------------------|--------|-----7------------------------|
C|--------|-0----------------------------|--------|-0----------------------------|


C|-7------|-------------3---3---3----3---|-3------|-------------3---3---3----3---|
A|-7------|-------------5---5---5----3---|-3------|-------------5---5---5----3---|
F|-7------|---------5---5---5---5----3---|-3------|---------5---5---5---5----3---|
C|--------|-----3------------------------|--------|-----3------------------------|
F|--------|-3----------------------------|--------|-3----------------------------|
C|--------|------------------------------|--------|------------------------------|


C|-3------|-------------7---7---7----7---|-7------|-------------7---7---7----7---|
A|-3------|-------------9---9---9----7---|-7------|-------------9---9---9----7---|
F|-3------|-------------9---9---9----7---|-7------|-------------9---9---9----7---|
C|--------|---------7--------------------|--------|---------7--------------------|
F|--------|-----7------------------------|--------|-----7------------------------|
C|--------|-0----------------------------|--------|-0----------------------------|


C|-7------|-------------2---2---2----2---|-2------|-------------0---0---0----0---|
A|-7------|-------------4---4---4----2---|-2------|-------------2---2---2----0---|
F|-7------|---------4---4---4---4----2---|-2------|---------2---2---2---2----0---|
C|--------|-----2------------------------|--------|-----0------------------------|
F|--------|-2----------------------------|--------|-0----------------------------|
C|--------|------------------------------|--------|------------------------------|


C|-0------|-------------7---7---7----7---|-7------|-------------7---7---7----7---|
A|-0------|-------------9---9---9----7---|-7------|-------------9---9---9----7---|
F|-0------|-------------9---9---9----7---|-7------|-------------9---9---9----7---|
C|--------|---------7--------------------|--------|---------7--------------------|
F|--------|-----7------------------------|--------|-----7------------------------|
C|--------|-0----------------------------|--------|-0----------------------------|


C|-7------|-------------2---2---2----2---|-2------|-------------0---0---0----0---|
A|-7------|-------------4---4---4----2---|-2------|-------------2---2---2----0---|
F|-7------|---------4---4---4---4----2---|-2------|---------2---2---2---2----0---|
C|--------|-----2------------------------|--------|-----0------------------------|
F|--------|-2----------------------------|--------|-0----------------------------|
C|--------|------------------------------|--------|------------------------------|


C|-0------|-------------7---7---7----7---|-7------|-------------7---7---7----7---|
A|-0------|-------------9---9---9----7---|-7------|-------------9---9---9----7---|
F|-0------|-------------9---9---9----7---|-7------|-------------9---9---9----7---|
C|--------|---------7--------------------|--------|---------7--------------------|
F|--------|-----7------------------------|--------|-----7------------------------|
C|--------|-0----------------------------|--------|-0----------------------------|


C|-7------|-------------7---7---7----7---|-7------|-------------7---7---7----7---|
A|-7------|-------------9---9---9----7---|-7------|-------------9---9---9----7---|
F|-7------|-------------9---9---9----7---|-7------|-------------9---9---9----7---|
C|--------|---------7--------------------|--------|---------7--------------------|
F|--------|-----7------------------------|--------|-----7------------------------|
C|--------|-0----------------------------|--------|-0----------------------------|


C|-7------|-------------7---7---7----7---|-7------|-------------7---7---7----7---|
A|-7------|-------------9---9---9----7---|-7------|-------------9---9---9----7---|
F|-7------|-------------9---9---9----7---|-7------|-------------9---9---9----7---|
C|--------|---------7--------------------|--------|---------7--------------------|
F|--------|-----7------------------------|--------|-----7------------------------|
C|--------|-0----------------------------|--------|-0----------------------------|


C|-7------|---------------------------------|---------------------------------|-12-----|
A|-7------|---------------------------------|-------------0-------9---12--12--|-10-----|
F|-7------|---------------------------------|---------1-------9---------------|-7------|
C|--------|-0-------0-------0-------0-------|-0---2---------------------------|-7------|
F|--------|-----2-------2-------2-------2---|---------------------------------|--------|
C|--------|---------------------------------|---------------------------------|--------|


C|-12-----|-12-----|-12----12----|-------12----|-------12----|------12-----|-12----12----12--|
A|-10-----|-10-----|-10----10----|-------10----|-------10----|------10-----|-10----10----10--|
F|-7------|-7------|-7-----7-----|-------7-----|-------7-----|------7------|-7-----7-----7---|
C|-7------|-7------|-7-----7-----|-------7-----|-------7-----|------7------|-7-----7-----7---|
F|--------|--------|-------------|-------------|-------------|-------------|-----------------|
C|--------|--------|-------------|-------------|-------------|-------------|-----------------|


C|------------12--|------------12--|----------------|-----------------|--------|--------|
A|------------10--|------------10--|------------7---|-----------------|--------|--------|
F|------------7---|------------7---|------------7---|-----------------|--------|--------|
C|------------7---|------------7---|------------7---|-----------------|--------|--------|
F|----------------|----------------|------------7---|-----------------|--------|--------|
C|----------------|----------------|----------------|-----------------|--------|--------|


C|--------|--------|--------|--------|--------|--------|
A|--------|--------|--------|--------|--------|--------|
F|--------|--------|--------|--------|--------|--------|
C|--------|--------|--------|--------|--------|--------|
F|--------|--------|--------|--------|--------|--------|
C|--------|--------|--------|--------|--------|--------|