Menu:

 

Search:

 

joe satriani - flying in a blue dream:

 



Title: Flying in a Blue Dream
Artist: 
Album: Flying in a Blue Dream
Author: Joe Satriani


Track 1: Joe Satriani Lead

E|--------|--------|--------|--------|--------|--------|--------|--------|--------|
B|--------|--------|--------|--------|--------|--------|--------|--------|--------|
G|--------|--------|--------|--------|--------|--------|--------|--------|--------|
D|--------|--------|--------|--------|--------|--------|--------|--------|--------|
A|-3------|-3------|-3------|-3------|-3------|-3------|-3------|-3------|-3------|
E|--------|--------|--------|--------|--------|--------|--------|--------|--------|


E|--------|--------|--------|--------|--------|--------|--------|--------|--------|
B|--------|--------|--------|--------|--------|--------|--------|--------|--------|
G|--------|--------|--------|--------|--------|--------|--------|--------|--------|
D|--------|--------|--------|--------|--------|--------|--------|--------|--------|
A|-3------|-3------|-3------|-3------|-3------|-3------|-3------|-3------|-3------|
E|--------|--------|--------|--------|--------|--------|--------|--------|--------|


E|---------------------------|---------------------------------|-----------------|
B|---------------------------|---------------------------------|-----------------|
G|-------9-------9-------9---|-9---11------11------11--12------|-14--12----12----|
D|---------------------------|---------------------------------|-----------------|
A|-3-------------------------|---------------------------------|-----------------|
E|---------------------------|---------------------------------|-----------------|


E|-------------|---------------------------|------------------------------|-----------------|
B|-------------|---------------------------|--------------------------12--|-12--------------|
G|-12---12-----|-12----9---9---11------11--|-11-------11--11--12----------|-------12--12----|
D|-------------|---------------------------|------------------------------|-----------------|
A|-------------|---------------------------|------------------------------|-----------------|
E|-------------|---------------------------|------------------------------|-----------------|


E|-------------|---------------------|--------------------15--|-15----15--13------18--|
B|-------------|-------13--13----15--|-15----16--16-----------|-----------------------|
G|-12---12-----|-12------------------|------------------------|-----------------------|
D|-------------|---------------------|------------------------|-----------------------|
A|-------------|---------------------|------------------------|-----------------------|
E|-------------|---------------------|------------------------|-----------------------|


E|-18----18--15--------------------|----------12--12---14-14--14--|-14-------14--14---15-----19--|
B|--------------18-15--------------|------------------------------|------------------------------|
G|--------------------17-15--------|------------------------------|------------------------------|
D|--------------------------17-15--|------------------------------|------------------------------|
A|---------------------------------|------------------------------|------------------------------|
E|---------------------------------|------------------------------|------------------------------|


E|-15-----|-15-----|-15----21--21--21---22--|-22-----|-22----19--19--19---20--|-20-----20---|
B|--------|--------|------------------------|--------|------------------------|-------------|
G|--------|--------|------------------------|--------|------------------------|-------------|
D|--------|--------|------------------------|--------|------------------------|-------------|
A|--------|--------|------------------------|--------|------------------------|-------------|
E|--------|--------|------------------------|--------|------------------------|-------------|


E|-20-----|-20-----|-20-----|-20-----|-20-----|-20-----|-20-----|-20----------|--------|
B|--------|--------|--------|--------|--------|--------|--------|-------------|--------|
G|--------|--------|--------|--------|--------|--------|--------|-------------|--------|
D|--------|--------|--------|--------|--------|--------|--------|-------------|--------|
A|--------|--------|--------|--------|--------|--------|--------|-------------|--------|
E|--------|--------|--------|--------|--------|--------|--------|-------------|--------|


E|--------|--------|--------|--------|--------|--------|--------|--------|--------|
B|--------|--------|--------|--------|--------|--------|--------|--------|--------|
G|--------|--------|--------|--------|--------|--------|--------|--------|--------|
D|--------|--------|--------|--------|--------|--------|--------|--------|--------|
A|--------|--------|--------|--------|--------|--------|--------|--------|--------|
E|--------|--------|--------|--------|--------|--------|--------|--------|--------|


E|--------|--------|--------|--------|--------|--------|--------|--------|--------|
B|--------|--------|--------|--------|--------|--------|--------|--------|--------|
G|--------|--------|--------|--------|--------|--------|--------|--------|--------|
D|--------|--------|--------|--------|--------|--------|--------|--------|--------|
A|--------|--------|--------|--------|--------|--------|--------|--------|--------|
E|--------|--------|--------|--------|--------|--------|--------|--------|--------|


E|--------|--------|--------|--------|--------|--------|--------|--------|--------|
B|--------|--------|--------|--------|--------|--------|--------|--------|--------|
G|--------|--------|--------|--------|--------|--------|--------|--------|--------|
D|--------|--------|--------|--------|--------|--------|--------|--------|--------|
A|--------|--------|--------|--------|--------|--------|--------|--------|--------|
E|--------|--------|--------|--------|--------|--------|--------|--------|--------|


E|--------|--------|--------|--------|--------|--------|--------|--------|--------|
B|--------|--------|--------|--------|--------|--------|--------|--------|--------|
G|--------|--------|--------|--------|--------|--------|--------|--------|--------|
D|--------|--------|--------|--------|--------|--------|--------|--------|--------|
A|--------|--------|--------|--------|--------|--------|--------|--------|--------|
E|--------|--------|--------|--------|--------|--------|--------|--------|--------|


E|--------|--------|--------|--------|--------|--------|--------|--------|--------|
B|--------|--------|--------|--------|--------|--------|--------|--------|--------|
G|--------|--------|--------|--------|--------|--------|--------|--------|--------|
D|--------|--------|--------|--------|--------|--------|--------|--------|--------|
A|--------|--------|--------|--------|--------|--------|--------|--------|--------|
E|--------|--------|--------|--------|--------|--------|--------|--------|--------|


E|--------|--------|--------|--------|--------|--------|--------|--------|--------|
B|--------|--------|--------|--------|--------|--------|--------|--------|--------|
G|--------|--------|--------|--------|--------|--------|--------|--------|--------|
D|--------|--------|--------|--------|--------|--------|--------|--------|--------|
A|--------|--------|--------|--------|--------|--------|--------|--------|--------|
E|--------|--------|--------|--------|--------|--------|--------|--------|--------|


E|--------|--------|--------|--------|--------|--------|--------|--------|--------|
B|--------|--------|--------|--------|--------|--------|--------|--------|--------|
G|--------|--------|--------|--------|--------|--------|--------|--------|--------|
D|--------|--------|--------|--------|--------|--------|--------|--------|--------|
A|--------|--------|--------|--------|--------|--------|--------|--------|--------|
E|--------|--------|--------|--------|--------|--------|--------|--------|--------|


E|--------|--------|--------|--------|--------|--------|--------|--------|--------|
B|--------|--------|--------|--------|--------|--------|--------|--------|--------|
G|--------|--------|--------|--------|--------|--------|--------|--------|--------|
D|--------|--------|--------|--------|--------|--------|--------|--------|--------|
A|--------|--------|--------|--------|--------|--------|--------|--------|--------|
E|--------|--------|--------|--------|--------|--------|--------|--------|--------|


E|--------|--------|--------|--------|--------|--------|--------|--------|--------|
B|--------|--------|--------|--------|--------|--------|--------|--------|--------|
G|--------|--------|--------|--------|--------|--------|--------|--------|--------|
D|--------|--------|--------|--------|--------|--------|--------|--------|--------|
A|--------|--------|--------|--------|--------|--------|--------|--------|--------|
E|--------|--------|--------|--------|--------|--------|--------|--------|--------|


E|--------|--------|--------|--------|--------|--------|--------|--------|--------|
B|--------|--------|--------|--------|--------|--------|--------|--------|--------|
G|--------|--------|--------|--------|--------|--------|--------|--------|--------|
D|--------|--------|--------|--------|--------|--------|--------|--------|--------|
A|--------|--------|--------|--------|--------|--------|--------|--------|--------|
E|--------|--------|--------|--------|--------|--------|--------|--------|--------|


E|--------|--------|--------|--------|--------|--------|--------|--------|--------|
B|--------|--------|--------|--------|--------|--------|--------|--------|--------|
G|--------|--------|--------|--------|--------|--------|--------|--------|--------|
D|--------|--------|--------|--------|--------|--------|--------|--------|--------|
A|--------|--------|--------|--------|--------|--------|--------|--------|--------|
E|--------|--------|--------|--------|--------|--------|--------|--------|--------|


E|--------|--------|--------|--------|--------|--------|--------|--------|--------|
B|--------|--------|--------|--------|--------|--------|--------|--------|--------|
G|--------|--------|--------|--------|--------|--------|--------|--------|--------|
D|--------|--------|--------|--------|--------|--------|--------|--------|--------|
A|--------|--------|--------|--------|--------|--------|--------|--------|--------|
E|--------|--------|--------|--------|--------|--------|--------|--------|--------|


E|--------|--------|--------|--------|--------|--------|--------|--------|--------|
B|--------|--------|--------|--------|--------|--------|--------|--------|--------|
G|--------|--------|--------|--------|--------|--------|--------|--------|--------|
D|--------|--------|--------|--------|--------|--------|--------|--------|--------|
A|--------|--------|--------|--------|--------|--------|--------|--------|--------|
E|--------|--------|--------|--------|--------|--------|--------|--------|--------|


E|--------|--------|--------|--------|--------|--------|--------|--------|--------|
B|--------|--------|--------|--------|--------|--------|--------|--------|--------|
G|--------|--------|--------|--------|--------|--------|--------|--------|--------|
D|--------|--------|--------|--------|--------|--------|--------|--------|--------|
A|--------|--------|--------|--------|--------|--------|--------|--------|--------|
E|--------|--------|--------|--------|--------|--------|--------|--------|--------|


E|--------|--------|--------|--------|--------|--------|--------|--------|--------|
B|--------|--------|--------|--------|--------|--------|--------|--------|--------|
G|--------|--------|--------|--------|--------|--------|--------|--------|--------|
D|--------|--------|--------|--------|--------|--------|--------|--------|--------|
A|--------|--------|--------|--------|--------|--------|--------|--------|--------|
E|--------|--------|--------|--------|--------|--------|--------|--------|--------|


E|--------|--------|--------|--------|--------|
B|--------|--------|--------|--------|--------|
G|--------|--------|--------|--------|--------|
D|--------|--------|--------|--------|--------|
A|--------|--------|--------|--------|--------|
E|--------|--------|--------|--------|--------|





Track 2: Clean Guitar

F|--------|--------|-------------7---7---7----7---|-7------|-------------7---7---7----7---|
C|--------|--------|-------------9---9---9----7---|-7------|-------------9---9---9----7---|
A|--------|--------|-------------9---9---9----7---|-7------|-------------9---9---9----7---|
C|--------|--------|---------7--------------------|--------|---------7--------------------|
F|--------|--------|-----7------------------------|--------|-----7------------------------|
C|--------|--------|-0----------------------------|--------|-0----------------------------|


F|-7------|-------------7---7---7----7---|-7------|-------------7---7---7----7---|
C|-7------|-------------9---9---9----7---|-7------|-------------9---9---9----7---|
A|-7------|-------------9---9---9----7---|-7------|-------------9---9---9----7---|
C|--------|---------7--------------------|--------|---------7--------------------|
F|--------|-----7------------------------|--------|-----7------------------------|
C|--------|-0----------------------------|--------|-0----------------------------|


F|-7------|-------------7---7---7----7---|-7------|-------------7---7---7----7---|
C|-7------|-------------9---9---9----7---|-7------|-------------9---9---9----7---|
A|-7------|-------------9---9---9----7---|-7------|-------------9---9---9----7---|
C|--------|---------7--------------------|--------|---------7--------------------|
F|--------|-----7------------------------|--------|-----7------------------------|
C|--------|-0----------------------------|--------|-0----------------------------|


F|-7------|-------------7---7---7----7---|-7------|-------------7---7---7----7---|
C|-7------|-------------9---9---9----7---|-7------|-------------9---9---9----7---|
A|-7------|-------------9---9---9----7---|-7------|-------------9---9---9----7---|
C|--------|---------7--------------------|--------|---------7--------------------|
F|--------|-----7------------------------|--------|-----7------------------------|
C|--------|-0----------------------------|--------|-0----------------------------|


F|-7------|-------------7---7---7----7---|-7------|-------------7---7---7----7---|
C|-7------|-------------9---9---9----7---|-7------|-------------9---9---9----7---|
A|-7------|-------------9---9---9----7---|-7------|-------------9---9---9----7---|
C|--------|---------7--------------------|--------|---------7--------------------|
F|--------|-----7------------------------|--------|-----7------------------------|
C|--------|-0----------------------------|--------|-0----------------------------|


F|-7------|-------------7---7---7----7---|-7------|-------------7---7---7----7---|
C|-7------|-------------9---9---9----7---|-7------|-------------9---9---9----7---|
A|-7------|-------------9---9---9----7---|-7------|-------------9---9---9----7---|
C|--------|---------7--------------------|--------|---------7--------------------|
F|--------|-----7------------------------|--------|-----7------------------------|
C|--------|-0----------------------------|--------|-0----------------------------|


F|-7------|-------------3---3---3----3---|-3------|-------------3---3---3----3---|
C|-7------|-------------5---5---5----3---|-3------|-------------5---5---5----3---|
A|-7------|---------5---5---5---5----3---|-3------|---------5---5---5---5----3---|
C|--------|-----3------------------------|--------|-----3------------------------|
F|--------|-3----------------------------|--------|-3----------------------------|
C|--------|------------------------------|--------|------------------------------|


F|-3------|-------------7---7---7----7---|-7------|-------------7---7---7----7---|
C|-3------|-------------9---9---9----7---|-7------|-------------9---9---9----7---|
A|-3------|-------------9---9---9----7---|-7------|-------------9---9---9----7---|
C|--------|---------7--------------------|--------|---------7--------------------|
F|--------|-----7------------------------|--------|-----7------------------------|
C|--------|-0----------------------------|--------|-0----------------------------|


F|-7------|-------------2---2---2----2---|-2------|-------------0---0---0----0---|
C|-7------|-------------4---4---4----2---|-2------|-------------2---2---2----0---|
A|-7------|---------4---4---4---4----2---|-2------|---------2---2---2---2----0---|
C|--------|-----2------------------------|--------|-----0------------------------|
F|--------|-2----------------------------|--------|-0----------------------------|
C|--------|------------------------------|--------|------------------------------|


F|-0------|-------------7---7---7----7---|-7------|-------------7---7---7----7---|
C|-0------|-------------9---9---9----7---|-7------|-------------9---9---9----7---|
A|-0------|-------------9---9---9----7---|-7------|-------------9---9---9----7---|
C|--------|---------7--------------------|--------|---------7--------------------|
F|--------|-----7------------------------|--------|-----7------------------------|
C|--------|-0----------------------------|--------|-0----------------------------|


F|-7------|-------------7---7---7----7---|-7------|-------------7---7---7----7---|
C|-7------|-------------9---9---9----7---|-7------|-------------9---9---9----7---|
A|-7------|-------------9---9---9----7---|-7------|-------------9---9---9----7---|
C|--------|---------7--------------------|--------|---------7--------------------|
F|--------|-----7------------------------|--------|-----7------------------------|
C|--------|-0----------------------------|--------|-0----------------------------|


F|-7------|--------|--------|--------|--------|--------|--------|--------|--------|
C|-7------|--------|--------|--------|--------|--------|--------|--------|--------|
A|-7------|--------|--------|--------|--------|--------|--------|--------|--------|
C|--------|--------|--------|--------|--------|--------|--------|--------|--------|
F|--------|--------|--------|--------|--------|--------|--------|--------|--------|
C|--------|--------|--------|--------|--------|--------|--------|--------|--------|


F|--------|--------|--------|--------|--------|--------|--------|--------|--------|
C|--------|--------|--------|--------|--------|--------|--------|--------|--------|
A|--------|--------|--------|--------|--------|--------|--------|--------|--------|
C|--------|--------|--------|--------|--------|--------|--------|--------|--------|
F|--------|--------|--------|--------|--------|--------|--------|--------|--------|
C|--------|--------|--------|--------|--------|--------|--------|--------|--------|


F|--------|--------|--------|--------|--------|--------|--------|--------|--------|
C|--------|--------|--------|--------|--------|--------|--------|--------|--------|
A|--------|--------|--------|--------|--------|--------|--------|--------|--------|
C|--------|--------|--------|--------|--------|--------|--------|--------|--------|
F|--------|--------|--------|--------|--------|--------|--------|--------|--------|
C|--------|--------|--------|--------|--------|--------|--------|--------|--------|


F|--------|--------|--------|--------|--------|--------|--------|--------|--------|
C|--------|--------|--------|--------|--------|--------|--------|--------|--------|
A|--------|--------|--------|--------|--------|--------|--------|--------|--------|
C|--------|--------|--------|--------|--------|--------|--------|--------|--------|
F|--------|--------|--------|--------|--------|--------|--------|--------|--------|
C|--------|--------|--------|--------|--------|--------|--------|--------|--------|


F|--------|--------|--------|--------|--------|--------|--------|--------|--------|
C|--------|--------|--------|--------|--------|--------|--------|--------|--------|
A|--------|--------|--------|--------|--------|--------|--------|--------|--------|
C|--------|--------|--------|--------|--------|--------|--------|--------|--------|
F|--------|--------|--------|--------|--------|--------|--------|--------|--------|
C|--------|--------|--------|--------|--------|--------|--------|--------|--------|


F|--------|--------|--------|--------|--------|--------|--------|--------|--------|
C|--------|--------|--------|--------|--------|--------|--------|--------|--------|
A|--------|--------|--------|--------|--------|--------|--------|--------|--------|
C|--------|--------|--------|--------|--------|--------|--------|--------|--------|
F|--------|--------|--------|--------|--------|--------|--------|--------|--------|
C|--------|--------|--------|--------|--------|--------|--------|--------|--------|


F|--------|--------|--------|--------|--------|--------|--------|--------|--------|
C|--------|--------|--------|--------|--------|--------|--------|--------|--------|
A|--------|--------|--------|--------|--------|--------|--------|--------|--------|
C|--------|--------|--------|--------|--------|--------|--------|--------|--------|
F|--------|--------|--------|--------|--------|--------|--------|--------|--------|
C|--------|--------|--------|--------|--------|--------|--------|--------|--------|


F|--------|--------|--------|--------|--------|--------|--------|--------|--------|
C|--------|--------|--------|--------|--------|--------|--------|--------|--------|
A|--------|--------|--------|--------|--------|--------|--------|--------|--------|
C|--------|--------|--------|--------|--------|--------|--------|--------|--------|
F|--------|--------|--------|--------|--------|--------|--------|--------|--------|
C|--------|--------|--------|--------|--------|--------|--------|--------|--------|


F|--------|--------|--------|--------|--------|--------|--------|--------|--------|
C|--------|--------|--------|--------|--------|--------|--------|--------|--------|
A|--------|--------|--------|--------|--------|--------|--------|--------|--------|
C|--------|--------|--------|--------|--------|--------|--------|--------|--------|
F|--------|--------|--------|--------|--------|--------|--------|--------|--------|
C|--------|--------|--------|--------|--------|--------|--------|--------|--------|


F|--------|--------|--------|--------|--------|--------|--------|--------|--------|
C|--------|--------|--------|--------|--------|--------|--------|--------|--------|
A|--------|--------|--------|--------|--------|--------|--------|--------|--------|
C|--------|--------|--------|--------|--------|--------|--------|--------|--------|
F|--------|--------|--------|--------|--------|--------|--------|--------|--------|
C|--------|--------|--------|--------|--------|--------|--------|--------|--------|


F|--------|--------|--------|--------|--------|--------|--------|--------|--------|
C|--------|--------|--------|--------|--------|--------|--------|--------|--------|
A|--------|--------|--------|--------|--------|--------|--------|--------|--------|
C|--------|--------|--------|--------|--------|--------|--------|--------|--------|
F|--------|--------|--------|--------|--------|--------|--------|--------|--------|
C|--------|--------|--------|--------|--------|--------|--------|--------|--------|


F|--------|--------|--------|--------|--------|--------|--------|--------|--------|
C|--------|--------|--------|--------|--------|--------|--------|--------|--------|
A|--------|--------|--------|--------|--------|--------|--------|--------|--------|
C|--------|--------|--------|--------|--------|--------|--------|--------|--------|
F|--------|--------|--------|--------|--------|--------|--------|--------|--------|
C|--------|--------|--------|--------|--------|--------|--------|--------|--------|


F|--------|--------|--------|--------|--------|--------|--------|--------|--------|
C|--------|--------|--------|--------|--------|--------|--------|--------|--------|
A|--------|--------|--------|--------|--------|--------|--------|--------|--------|
C|--------|--------|--------|--------|--------|--------|--------|--------|--------|
F|--------|--------|--------|--------|--------|--------|--------|--------|--------|
C|--------|--------|--------|--------|--------|--------|--------|--------|--------|


F|--------|--------|--------|--------|--------|--------|--------|--------|--------|
C|--------|--------|--------|--------|--------|--------|--------|--------|--------|
A|--------|--------|--------|--------|--------|--------|--------|--------|--------|
C|--------|--------|--------|--------|--------|--------|--------|--------|--------|
F|--------|--------|--------|--------|--------|--------|--------|--------|--------|
C|--------|--------|--------|--------|--------|--------|--------|--------|--------|


F|--------|--------|--------|--------|--------|--------|--------|--------|--------|
C|--------|--------|--------|--------|--------|--------|--------|--------|--------|
A|--------|--------|--------|--------|--------|--------|--------|--------|--------|
C|--------|--------|--------|--------|--------|--------|--------|--------|--------|
F|--------|--------|--------|--------|--------|--------|--------|--------|--------|
C|--------|--------|--------|--------|--------|--------|--------|--------|--------|


F|--------|--------|--------|--------|--------|--------|--------|
C|--------|--------|--------|--------|--------|--------|--------|
A|--------|--------|--------|--------|--------|--------|--------|
C|--------|--------|--------|--------|--------|--------|--------|
F|--------|--------|--------|--------|--------|--------|--------|
C|--------|--------|--------|--------|--------|--------|--------|





Track 3: Joe Satriani Solo

E|--------|--------|--------|--------|--------|--------|--------|--------|--------|
B|--------|--------|--------|--------|--------|--------|--------|--------|--------|
G|--------|--------|--------|--------|--------|--------|--------|--------|--------|
D|--------|--------|--------|--------|--------|--------|--------|--------|--------|
A|--------|--------|--------|--------|--------|--------|--------|--------|--------|
E|--------|--------|--------|--------|--------|--------|--------|--------|--------|


E|--------|--------|--------|--------|--------|--------|--------|--------|--------|
B|--------|--------|--------|--------|--------|--------|--------|--------|--------|
G|--------|--------|--------|--------|--------|--------|--------|--------|--------|
D|--------|--------|--------|--------|--------|--------|--------|--------|--------|
A|--------|--------|--------|--------|--------|--------|--------|--------|--------|
E|--------|--------|--------|--------|--------|--------|--------|--------|--------|


E|--------|--------|--------|--------|--------|--------|--------|--------|--------|
B|--------|--------|--------|--------|--------|--------|--------|--------|--------|
G|--------|--------|--------|--------|--------|--------|--------|--------|--------|
D|--------|--------|--------|--------|--------|--------|--------|--------|--------|
A|--------|--------|--------|--------|--------|--------|--------|--------|--------|
E|--------|--------|--------|--------|--------|--------|--------|--------|--------|


E|--------|--------|--------|--------|--------|--------|--------|--------|--------|
B|--------|--------|--------|--------|--------|--------|--------|--------|--------|
G|--------|--------|--------|--------|--------|--------|--------|--------|--------|
D|--------|--------|--------|--------|--------|--------|--------|--------|--------|
A|--------|--------|--------|--------|--------|--------|--------|--------|--------|
E|--------|--------|--------|--------|--------|--------|--------|--------|--------|


E|--------|--------|--------|--------|--------|-----------------|-------------|---------------------------|
B|--------|--------|--------|--------|--------|-----------------|-------------|---------------------------|
G|--------|--------|--------|--------|--------|-----------------|-------------|---------------------------|
D|--------|--------|--------|--------|--------|-----------------|-------------|---------------------------|
A|--------|--------|--------|--------|--------|------------14---|-3-----3-----|-3-----3---3---3---3---3---|
E|--------|--------|--------|--------|--------|-----------------|-------------|---------------------------|


E|---------------------------|-----------------------7---|-7--5--3--7--3--5--7---5--3--5--3-5-7--5-3-2---2--3--2--3--5--7--|
B|---------------------------|---------------------------|-----------------------------------------------------------------|
G|---------------------------|---------------------------|-----------------------------------------------------------------|
D|---------------------------|---------------------------|-----------------------------------------------------------------|
A|-3---3---3---3---3-----3---|-3-----3---3---3-----------|-----------------------------------------------------------------|
E|---------------------------|---------------------------|-----------------------------------------------------------------|


E|-7---5--3-----------------------------------|---------------------------------------------------------------------|
B|-----------7--3--5--7----5-3-7-3-5----7--3--|-5-7-5-3-------------------5-----------------------------------------|
G|--------------------------------------------|---------7-6-5-4-7-5-4-5-7---7-5-------------4--5--7--5--4-----------|
D|--------------------------------------------|---------------------------------7--5--4--7-----------------5--4--2--|
A|--------------------------------------------|---------------------------------------------------------------------|
E|--------------------------------------------|---------------------------------------------------------------------|


E|---------------------------------------|----------------------------------------------------------------------|
B|---------------------------------------|----------------------------------------------------------------------|
G|---------------------------------------|----------------------------------------------------------------------|
D|-4--5--2--2--2----2----2---------------|----------------------------------------------------------------------|
A|---------------------------------------|----2--3--5-3-2-3-7--5--3-----------2-3-2-3-5-3-2-3-7--5--3-----------|
E|---------------------------5--2--3--4--|-5-------------------------5--3--2---------------------------5--3--2--|


E|--------------------------------------------------------------------|-----------------------------7-8-10-8--7-------------7--8--10-8--7--|
B|--------------------------------------------------------------------|---------3-5-5-7-8-7-5-7-8-10-------------108-7-8-12----------------|
G|------------------------------------4-5-7-9-7-5-4-------------4--5--|-7-5-4-5------------------------------------------------------------|
D|-----------------2--4--5--7-5-4-5-7---------------7--5--4--5--------|--------------------------------------------------------------------|
A|-0-2-3-5-3-2-3-5----------------------------------------------------|--------------------------------------------------------------------|
E|--------------------------------------------------------------------|--------------------------------------------------------------------|


E|-8-10-1415-14-15-14-15-14-1410141514--14------------|-------11----11-15-11-15-11-10----|
B|----------------------------------------------------|-13-------15----------------------|
G|----------------------------------------------------|-------------------------------12-|
D|-----------------------------------------14-14------|----------------------------------|
A|-----------------------------------------14-14------|----------------------------------|
E|-----------------------------------------------12---|----------------------------------|


E|--------------------------------------|-----------------------------|-------------------------------------------------|
B|--------------------------------------|-----------------------------|-------------------------------------------------|
G|-7------------------------7---8---10--|-10--10----10--10--8---14-15-|-15-12-14--12-14--12-14-14--12-14--12-14--12-14--|
D|-----8-5------------------------------|-----------------------------|-------------------------------------------------|
A|----------6--6--8----8----------------|-----------------------------|-------------------------------------------------|
E|--------------------------------------|-----------------------------|-------------------------------------------------|


E|--------------------------------------------|------------------------------------------------------|
B|--------------------------------------------|------------------------------------------------------|
G|-14---14-12----16-16-12--16-16--12-------16-|-16--16-16--12-16-14-12-------------------------------|
D|------------16---------------------16-12----|------------------------12--4--5-7-5-4----4-----------|
A|--------------------------------------------|---------------------------------------7------7---7---|
E|--------------------------------------------|------------------------------------------------------|


E|-----------------------------|-----------------------|----------------------------------------|
B|-----------------------------|-----------------------|----------------------------------------|
G|-----------------------------|-----------------------|-------------------------------------8--|
D|-----------------------------|-------2---2-----------|--------7----------9--8--8--8--9--9-----|
A|-7----7--7--5---5--3----2----|-2---------------10-9--|-9---10----9----10----------------------|
E|-----------------------------|-----------------------|----------------------------------------|


E|-------------------------------------------------|----------------15-15-14-14-14-14-15-----17--|
B|-------------------------------------------------|-------16-16-16------------------------------|
G|-8--8--8--9-----12-11-11-11-12-12-16-15-15-15-16-|-16-16---------------------------------------|
D|-------------------------------------------------|---------------------------------------------|
A|-------------------------------------------------|---------------------------------------------|
E|-------------------------------------------------|---------------------------------------------|


E|-17---17--15---------------------|-------19--15-------19--15-------19--15-------19--|
B|-------------17-17-17-17-17-17---|-17-17--------19-15--------19-15--------19-15-----|
G|---------------------------------|--------------------------------------------------|
D|---------------------------------|--------------------------------------------------|
A|---------------------------------|--------------------------------------------------|
E|---------------------------------|--------------------------------------------------|


E|-15-------19--15-------19--15-------19--15-------20--|-20---20--17--19------17------------------|
B|----19-15--------19-15--------19-15--------19-17-----|------------------20------19--19--19--19--|
G|-----------------------------------------------------|------------------------------------------|
D|-----------------------------------------------------|------------------------------------------|
A|-----------------------------------------------------|------------------------------------------|
E|-----------------------------------------------------|------------------------------------------|


E|------------------------|-------------------------------------------------|----------------15-16-16-18--18---20--|
B|-19---------------------|-------------------------------------------------|-15-15-16-16-18-----------------------|
G|------------------------|-------------------------------------------15-17-|--------------------------------------|
D|------12--4---4----8----|-------------------------------15-17-18-18-------|--------------------------------------|
A|-------------------7----|----------------15-18-17-18-18-------------------|--------------------------------------|
E|------------------------|-16-16-16-16-18----------------------------------|--------------------------------------|


E|-20----20--20---19-19--19--|-19-17---------------------|------------------------------------------|
B|---------------------------|-------20------------------|------------------------------------------|
G|---------------------------|-----------19----19-17-19--|-19--19--16---------------19----------16--|
D|---------------------------|---------------------------|--------------17--17--16------16--14------|
A|---------------------------|---------------------------|------------------------------------------|
E|---------------------------|---------------------------|------------------------------------------|


E|---------------14--12-10-8--1012108-|-7--8-108-7-5--7--8--7--5---------------------------------------|
B|------------------------------------|--------------------------8-7-5-7-8-7-5-----------------3-5-3---|
G|-16--16----16-----------------------|----------------------------------------7-4--4--5-4-2-4-------5-|
D|-----------17-----------------------|----------------------------------------------------------------|
A|------------------------------------|----------------------------------------------------------------|
E|------------------------------------|----------------------------------------------------------------|


E|------------------------------------|---------------------------------|---------------------------------|
B|------------------------------------|-----------------3-------3-------|-3---6-----------3---5---5-------|
G|-0--0--2--4--2--0-------------------|-----3---3-------3-------3-------|-3---5-------3---3---5---5-------|
D|-------------------0----0-----------|-----3---3-------3-------3-------|-3---5-------2---3---5---5-------|
A|------------------------------2-----|---------------------------------|---------------------------------|
E|---------------------------------3--|-1-----------3-------3-------3---|---------------------------------|


E|-----------------------------------|-------------------------8-------|-8-----10---10--8---|
B|-5--6------6-----------------------|---------------------8-----------|--------------------|
G|-5-----5---5---5---5---5-------5---|-5---7---7---5---9---------------|--------------------|
D|-5-----5---5---5---5---------------|---------------------------------|--------------------|
A|-----------------------------------|---------------------------------|--------------------|
E|-----------------------------------|---------------------------------|--------------------|


E|-8-------12--13--14--15--16--17--|-17---17---17--------------|------------------------------|
B|-----15--------------------------|---------------15--15------|------------------------------|
G|---------------------------------|-----------------------17--|-17--17---15--15--17--17--14--|
D|---------------------------------|---------------------------|------------------------------|
A|---------------------------------|---------------------------|------------------------------|
E|---------------------------------|---------------------------|------------------------------|


E|---------------------------------|-------------------------------------|------------------8-----12-8-----8--|
B|---------------------------------|-------------------8---8--8--8-------|----------10--10-----8--------12----|
G|-14--14--14--14--14--17----------|---------------8---8---8--8--8-------|------------------------------------|
D|-------------------------13------|---------------10----------------10--|-10---9-----------------------------|
A|-----------------------------13--|-13--13-1--0-------------------------|------------------------------------|
E|---------------------------------|-------------------------------------|------------------------------------|


E|--------------------------------------|------------------------------------|----------15-15-1517181715-13-15-12-13-15-1312101310-12-13-12-10-13-|
B|----11-8------------------------------|------------------------------------|--------------------------------------------------------------------|
G|----------10-10-10--------------------|------------------------------------|--------------------------------------------------------------------|
D|-------------------10-8--8--------8---|-8-----8------8--8-----8---8---10---|-10-10--------------------------------------------------------------|
A|------------------------------10------|----10-----10-------10--------------|--------------------------------------------------------------------|
E|--------------------------------------|------------------------------------|--------------------------------------------------------------------|


E|-----------------------------------------------------------------------|------------|
B|-10-11-13-1110---------------------------------------------------------|------------|
G|--------------12129--10-12-109-7-9-7--9--10-9--7-----------------------|------------|
D|--------------------------------------------------10-7--8--10-7--8--10-|------------|
A|-----------------------------------------------------------------------|------------|
E|-----------------------------------------------------------------------|-6------6---|


E|---------------------------|---------------------------------|-----------------|
B|---------------------------|---------------------------------|-----------------|
G|-------9-------9-------9---|-9---11------11------11--12------|-14--12----12----|
D|---------------------------|---------------------------------|-----------------|
A|-3-------------------------|---------------------------------|-----------------|
E|---------------------------|---------------------------------|-----------------|


E|-------------|---------------------------|------------------------------|-----------------|
B|-------------|---------------------------|--------------------------12--|-12--------------|
G|-12---12-----|-12----9---9---11------11--|-11-------11--11--12----------|-------12--12----|
D|-------------|---------------------------|------------------------------|-----------------|
A|-------------|---------------------------|------------------------------|-----------------|
E|-------------|---------------------------|------------------------------|-----------------|


E|-------------|---------------------|--------------------15--|-15----15--13------18--|
B|-------------|-------13--13----15--|-15----16--16-----------|-----------------------|
G|-12---12-----|-12------------------|------------------------|-----------------------|
D|-------------|---------------------|------------------------|-----------------------|
A|-------------|---------------------|------------------------|-----------------------|
E|-------------|---------------------|------------------------|-----------------------|


E|-18----18--15--------------------|----------12--12---14-14--14--|-14-------14--14---15-----19--|
B|--------------18-15--------------|------------------------------|------------------------------|
G|--------------------17-15--------|------------------------------|------------------------------|
D|--------------------------17-15--|------------------------------|------------------------------|
A|---------------------------------|------------------------------|------------------------------|
E|---------------------------------|------------------------------|------------------------------|


E|-15-----|-15-----|-15----21--21--21---22--|-22-----|-22----19--19--19---20--|-20-----20---|
B|--------|--------|------------------------|--------|------------------------|-------------|
G|--------|--------|------------------------|--------|------------------------|-------------|
D|--------|--------|------------------------|--------|------------------------|-------------|
A|--------|--------|------------------------|--------|------------------------|-------------|
E|--------|--------|------------------------|--------|------------------------|-------------|


E|-20-----|-20-----|-20-----|-20-----|-20-----|-20-----|-20-----|-20----------|-7--5--3--7--3--5--7---5--3--5--3-5-7--5-3-2---2--3--2--3--5--7--|
B|--------|--------|--------|--------|--------|--------|--------|-------------|-----------------------------------------------------------------|
G|--------|--------|--------|--------|--------|--------|--------|-------------|-----------------------------------------------------------------|
D|--------|--------|--------|--------|--------|--------|--------|-------------|-----------------------------------------------------------------|
A|--------|--------|--------|--------|--------|--------|--------|-------------|-----------------------------------------------------------------|
E|--------|--------|--------|--------|--------|--------|--------|-------------|-----------------------------------------------------------------|


E|-7---5--3-----------------------------------|---------------------------------------------------------------------|
B|-----------7--3--5--7----5-3-7-3-5----7--3--|-5-7-5-3-------------------5-----------------------------------------|
G|--------------------------------------------|---------7-6-5-4-7-5-4-5-7---7-5-------------4--5--7--5--4-----------|
D|--------------------------------------------|---------------------------------7--5--4--7-----------------5--4--2--|
A|--------------------------------------------|---------------------------------------------------------------------|
E|--------------------------------------------|---------------------------------------------------------------------|


E|---------------------------------------|----------------------------------------------------------------------|
B|---------------------------------------|----------------------------------------------------------------------|
G|---------------------------------------|----------------------------------------------------------------------|
D|-4--5--2--2--2----2----2---------------|----------------------------------------------------------------------|
A|---------------------------------------|----2--3--5-3-2-3-7--5--3-----------2-3-2-3-5-3-2-3-7--5--3-----------|
E|---------------------------5--2--3--4--|-5-------------------------5--3--2---------------------------5--3--2--|


E|--------------------------------------------------------------------|-----------------------------7-8-10-8--7-------------7--8--10-8--7--|
B|--------------------------------------------------------------------|---------3-5-5-7-8-7-5-7-8-10-------------108-7-8-12----------------|
G|------------------------------------4-5-7-9-7-5-4-------------4--5--|-7-5-4-5------------------------------------------------------------|
D|-----------------2--4--5--7-5-4-5-7---------------7--5--4--5--------|--------------------------------------------------------------------|
A|-0-2-3-5-3-2-3-5----------------------------------------------------|--------------------------------------------------------------------|
E|--------------------------------------------------------------------|--------------------------------------------------------------------|


E|-8-10-1415-14-15-14-15-14-1410141514--14------------|-------11----11-15-11-15-11-10----|
B|----------------------------------------------------|-13-------15----------------------|
G|----------------------------------------------------|-------------------------------12-|
D|-----------------------------------------14-14------|----------------------------------|
A|-----------------------------------------14-14------|----------------------------------|
E|-----------------------------------------------12---|----------------------------------|


E|--------------------------------------|-----------------------------|-------------------------------------------------|
B|--------------------------------------|-----------------------------|-------------------------------------------------|
G|-7------------------------7---8---10--|-10--10----10--10--8---14-15-|-15-12-14--12-14--12-14-14--12-14--12-14--12-14--|
D|-----8-5------------------------------|-----------------------------|-------------------------------------------------|
A|----------6--6--8----8----------------|-----------------------------|-------------------------------------------------|
E|--------------------------------------|-----------------------------|-------------------------------------------------|


E|--------------------------------------------|------------------------------------------------------|
B|--------------------------------------------|------------------------------------------------------|
G|-14---14-12----16-16-12--16-16--12-------16-|-16--16-16--12-16-14-12-------------------------------|
D|------------16---------------------16-12----|------------------------12--4--5-7-5-4----4-----------|
A|--------------------------------------------|---------------------------------------7------7---7---|
E|--------------------------------------------|------------------------------------------------------|


E|-----------------------------|-----------------------|----------------------------------------|
B|-----------------------------|-----------------------|----------------------------------------|
G|-----------------------------|-----------------------|-------------------------------------8--|
D|-----------------------------|-------2---2-----------|--------7----------9--8--8--8--9--9-----|
A|-7----7--7--5---5--3----2----|-2---------------10-9--|-9---10----9----10----------------------|
E|-----------------------------|-----------------------|----------------------------------------|


E|-------------------------------------------------|----------------15-15-14-14-14-14-15-----17--|
B|-------------------------------------------------|-------16-16-16------------------------------|
G|-8--8--8--9-----12-11-11-11-12-12-16-15-15-15-16-|-16-16---------------------------------------|
D|-------------------------------------------------|---------------------------------------------|
A|-------------------------------------------------|---------------------------------------------|
E|-------------------------------------------------|---------------------------------------------|


E|-17---17--15---------------------|-------19--15-------19--15-------19--15-------19--|
B|-------------17-17-17-17-17-17---|-17-17--------19-15--------19-15--------19-15-----|
G|---------------------------------|--------------------------------------------------|
D|---------------------------------|--------------------------------------------------|
A|---------------------------------|--------------------------------------------------|
E|---------------------------------|--------------------------------------------------|


E|-15-------19--15-------19--15-------19--15-------20--|-20---20--17--19------17------------------|
B|----19-15--------19-15--------19-15--------19-17-----|------------------20------19--19--19--19--|
G|-----------------------------------------------------|------------------------------------------|
D|-----------------------------------------------------|------------------------------------------|
A|-----------------------------------------------------|------------------------------------------|
E|-----------------------------------------------------|------------------------------------------|


E|------------------------|-------------------------------------------------|----------------15-16-16-18--18---20--|
B|-19---------------------|-------------------------------------------------|-15-15-16-16-18-----------------------|
G|------------------------|-------------------------------------------15-17-|--------------------------------------|
D|------12--4---4----8----|-------------------------------15-17-18-18-------|--------------------------------------|
A|-------------------7----|----------------15-18-17-18-18-------------------|--------------------------------------|
E|------------------------|-16-16-16-16-18----------------------------------|--------------------------------------|


E|-20----20--20---19-19--19--|-19-17---------------------|------------------------------------------|
B|---------------------------|-------20------------------|------------------------------------------|
G|---------------------------|-----------19----19-17-19--|-19--19--16---------------19----------16--|
D|---------------------------|---------------------------|--------------17--17--16------16--14------|
A|---------------------------|---------------------------|------------------------------------------|
E|---------------------------|---------------------------|------------------------------------------|


E|---------------14--12-10-8--1012108-|-7--8-108-7-5--7--8--7--5---------------------------------------|
B|------------------------------------|--------------------------8-7-5-7-8-7-5-----------------3-5-3---|
G|-16--16----16-----------------------|----------------------------------------7-4--4--5-4-2-4-------5-|
D|-----------17-----------------------|----------------------------------------------------------------|
A|------------------------------------|----------------------------------------------------------------|
E|------------------------------------|----------------------------------------------------------------|


E|------------------------------------|---------------------------------|---------------------------------|
B|------------------------------------|-----------------3-------3-------|-3---6-----------3---5---5-------|
G|-0--0--2--4--2--0-------------------|-----3---3-------3-------3-------|-3---5-------3---3---5---5-------|
D|-------------------0----0-----------|-----3---3-------3-------3-------|-3---5-------2---3---5---5-------|
A|------------------------------2-----|---------------------------------|---------------------------------|
E|---------------------------------3--|-1-----------3-------3-------3---|---------------------------------|


E|-----------------------------------|-------------------------8-------|-8-----10---10--8---|
B|-5--6------6-----------------------|---------------------8-----------|--------------------|
G|-5-----5---5---5---5---5-------5---|-5---7---7---5---9---------------|--------------------|
D|-5-----5---5---5---5---------------|---------------------------------|--------------------|
A|-----------------------------------|---------------------------------|--------------------|
E|-----------------------------------|---------------------------------|--------------------|


E|-8-------12--13--14--15--16--17--|-17---17---17--------------|------------------------------|
B|-----15--------------------------|---------------15--15------|------------------------------|
G|---------------------------------|-----------------------17--|-17--17---15--15--17--17--14--|
D|---------------------------------|---------------------------|------------------------------|
A|---------------------------------|---------------------------|------------------------------|
E|---------------------------------|---------------------------|------------------------------|


E|---------------------------------|-------------------------------------|------------------8-----12-8-----8--|
B|---------------------------------|-------------------8---8--8--8-------|----------10--10-----8--------12----|
G|-14--14--14--14--14--17----------|---------------8---8---8--8--8-------|------------------------------------|
D|-------------------------13------|---------------10----------------10--|-10---9-----------------------------|
A|-----------------------------13--|-13--13-1--0-------------------------|------------------------------------|
E|---------------------------------|-------------------------------------|------------------------------------|


E|--------------------------------------|------------------------------------|----------15-15-1517181715-13-15-12-13-15-1312101310-12-13-12-10-13-|
B|----11-8------------------------------|------------------------------------|--------------------------------------------------------------------|
G|----------10-10-10--------------------|------------------------------------|--------------------------------------------------------------------|
D|-------------------10-8--8--------8---|-8-----8------8--8-----8---8---10---|-10-10--------------------------------------------------------------|
A|------------------------------10------|----10-----10-------10--------------|--------------------------------------------------------------------|
E|--------------------------------------|------------------------------------|--------------------------------------------------------------------|


E|-----------------------------------------------------------------------|------------|
B|-10-11-13-1110---------------------------------------------------------|------------|
G|--------------12129--10-12-109-7-9-7--9--10-9--7-----------------------|------------|
D|--------------------------------------------------10-7--8--10-7--8--10-|------------|
A|-----------------------------------------------------------------------|------------|
E|-----------------------------------------------------------------------|-6------6---|


E|-20-----|-20-----|-20-----|-20-----|-20-----|-20-----|-20-----------|--------------------|
B|--------|--------|--------|--------|--------|--------|--------------|--------------------|
G|--------|--------|--------|--------|--------|--------|--------------|-2------------2-----|
D|--------|--------|--------|--------|--------|--------|-----------0--|--------------------|
A|--------|--------|--------|--------|--------|--------|--------0-----|--------------------|
E|--------|--------|--------|--------|--------|--------|--------------|--------------------|


E|--------------------|--------|--------|--------|--------|--------|--------|--------|
B|--------------------|--------|--------|--------|--------|--------|--------|--------|
G|--------------------|--------|--------|--------|--------|--------|--------|--------|
D|--------------------|--------|--------|--------|--------|--------|--------|--------|
A|-3--------3---3-----|-3------|-3------|-3------|-3------|-3------|-3------|-3------|
E|--------------------|--------|--------|--------|--------|--------|--------|--------|


E|--------|
B|--------|
G|--------|
D|--------|
A|-3------|
E|--------|





Track 4: Clean Guitar

F|--------|--------|--------|--------|--------|--------|--------|--------|--------|
C|--------|--------|--------|--------|--------|--------|--------|--------|--------|
A|--------|--------|--------|--------|--------|--------|--------|--------|--------|
C|--------|--------|--------|--------|--------|--------|--------|--------|--------|
F|--------|--------|--------|--------|--------|--------|--------|--------|--------|
C|--------|--------|--------|--------|--------|--------|--------|--------|--------|


F|--------|--------|--------|--------|--------|--------|--------|--------|--------|
C|--------|--------|--------|--------|--------|--------|--------|--------|--------|
A|--------|--------|--------|--------|--------|--------|--------|--------|--------|
C|--------|--------|--------|--------|--------|--------|--------|--------|--------|
F|--------|--------|--------|--------|--------|--------|--------|--------|--------|
C|--------|--------|--------|--------|--------|--------|--------|--------|--------|


F|--------|--------|--------|--------|--------|--------|--------|--------|--------|
C|--------|--------|--------|--------|--------|--------|--------|--------|--------|
A|--------|--------|--------|--------|--------|--------|--------|--------|--------|
C|--------|--------|--------|--------|--------|--------|--------|--------|--------|
F|--------|--------|--------|--------|--------|--------|--------|--------|--------|
C|--------|--------|--------|--------|--------|--------|--------|--------|--------|


F|--------|--------|--------|--------|--------|--------|--------|--------|--------|
C|--------|--------|--------|--------|--------|--------|--------|--------|--------|
A|--------|--------|--------|--------|--------|--------|--------|--------|--------|
C|--------|--------|--------|--------|--------|--------|--------|--------|--------|
F|--------|--------|--------|--------|--------|--------|--------|--------|--------|
C|--------|--------|--------|--------|--------|--------|--------|--------|--------|


F|--------|--------|--------|--------|--------|--------|--------|--------|--------|
C|--------|--------|--------|--------|--------|--------|--------|--------|--------|
A|--------|--------|--------|--------|--------|--------|--------|--------|--------|
C|--------|--------|--------|--------|--------|--------|--------|--------|--------|
F|--------|--------|--------|--------|--------|--------|--------|--------|--------|
C|--------|--------|--------|--------|--------|--------|--------|--------|--------|


F|--------|-------------7---7---7----7---|-7------|-------------7---7---7----7---|
C|--------|-------------9---9---9----7---|-7------|-------------9---9---9----7---|
A|--------|-------------9---9---9----7---|-7------|-------------9---9---9----7---|
C|--------|---------7--------------------|--------|---------7--------------------|
F|--------|-----7------------------------|--------|-----7------------------------|
C|--------|-0----------------------------|--------|-0----------------------------|


F|-7------|-------------7---7---7----7---|-7------|-------------7---7---7----7---|
C|-7------|-------------9---9---9----7---|-7------|-------------9---9---9----7---|
A|-7------|-------------9---9---9----7---|-7------|-------------9---9---9----7---|
C|--------|---------7--------------------|--------|---------7--------------------|
F|--------|-----7------------------------|--------|-----7------------------------|
C|--------|-0----------------------------|--------|-0----------------------------|


F|-7------|-------------3---3---3----3---|-3------|-------------3---3---3----3---|
C|-7------|-------------5---5---5----3---|-3------|-------------5---5---5----3---|
A|-7------|---------5---5---5---5----3---|-3------|---------5---5---5---5----3---|
C|--------|-----3------------------------|--------|-----3------------------------|
F|--------|-3----------------------------|--------|-3----------------------------|
C|--------|------------------------------|--------|------------------------------|


F|-3------|-------------7---7---7----7---|-7------|-------------7---7---7----7---|
C|-3------|-------------9---9---9----7---|-7------|-------------9---9---9----7---|
A|-3------|-------------9---9---9----7---|-7------|-------------9---9---9----7---|
C|--------|---------7--------------------|--------|---------7--------------------|
F|--------|-----7------------------------|--------|-----7------------------------|
C|--------|-0----------------------------|--------|-0----------------------------|


F|-7------|-------------7---7---7----7---|-7------|-------------7---7---7----7---|
C|-7------|-------------9---9---9----7---|-7------|-------------9---9---9----7---|
A|-7------|-------------9---9---9----7---|-7------|-------------9---9---9----7---|
C|--------|---------7--------------------|--------|---------7--------------------|
F|--------|-----7------------------------|--------|-----7------------------------|
C|--------|-0----------------------------|--------|-0----------------------------|


F|-7------|-------------7---7---7----7---|-7------|-------------7---7---7----7---|
C|-7------|-------------9---9---9----7---|-7------|-------------9---9---9----7---|
A|-7------|-------------9---9---9----7---|-7------|-------------9---9---9----7---|
C|--------|---------7--------------------|--------|---------7--------------------|
F|--------|-----7------------------------|--------|-----7------------------------|
C|--------|-0----------------------------|--------|-0----------------------------|


F|-7------|-------------3---3---3----3---|-3------|-------------0---0---0----0---|
C|-7------|-------------5---5---5----3---|-3------|-------------2---2---2----0---|
A|-7------|---------5---5---5---5----3---|-3------|---------2---2---2---2----0---|
C|--------|-----3------------------------|--------|-----0------------------------|
F|--------|-3----------------------------|--------|-0----------------------------|
C|--------|------------------------------|--------|------------------------------|


F|-0------|-------------7---7---7----7---|-7------|-------------7---7---7----7---|
C|-0------|-------------9---9---9----7---|-7------|-------------9---9---9----7---|
A|-0------|-------------9---9---9----7---|-7------|-------------9---9---9----7---|
C|--------|---------7--------------------|--------|---------7--------------------|
F|--------|-----7------------------------|--------|-----7------------------------|
C|--------|-0----------------------------|--------|-0----------------------------|


F|-7------|-------------0---0-----|-0-------------------------|-----0----0---0---0---0---0---|
C|-7------|-------------0---0-----|-0-------------------------|-----10---10--10--10--10--10--|
A|-7------|---------5-------------|---------------------------|-----9----9---9---9---9---9---|
C|--------|-----5-----------------|---------------------------|-----7----7---7---7---7---7---|
F|--------|-2---------------------|---------------------------|-----7----7---7---7---7---7---|
C|--------|-----------------------|-------0---2---0---2---0---|-0----------------------------|


F|-0----0--------------------|-------------0---0-----|-0-------------------------|
C|-10---10-------------------|-------------0---0-----|-0-------------------------|
A|-9----9--------------------|---------5-------------|---------------------------|
C|-7----7--------------------|-----5-----------------|---------------------------|
F|-7----7--------0---1---2---|-2---------------------|---------------------------|
C|-----------4---------------|-----------------------|-------0---2---0---2---0---|


F|-----0----0---0---0---0---0---|-0----0--------------------|-------------0---0-----|
C|-----10---10--10--10--10--10--|-10---10-------------------|-------------0---0-----|
A|-----9----9---9---9---9---9---|-9----9--------------------|---------5-------------|
C|-----7----7---7---7---7---7---|-7----7--------------------|-----5-----------------|
F|-----7----7---7---7---7---7---|-7----7--------4---4---2---|-2---------------------|
C|-0----------------------------|---------------------------|-----------------------|


F|-0-------------------------|-----0----0---0---0---0---0---|-0----0--------------------|
C|-0-------------------------|-----10---10--10--10--10--10--|-10---10-------------------|
A|---------------------------|-----9----9---9---9---9---9---|-9----9--------------------|
C|---------------------------|-----7----7---7---7---7---7---|-7----7--------------------|
F|---------------------------|-----7----7---7---7---7---7---|-7----7--------0---1---2---|
C|-------0---2---0---2---0---|-0----------------------------|-----------4---------------|


F|-------------0---0-----|-0-------------------------|-----0----0---0---0---0---0---|
C|-------------0---0-----|-0-------------------------|-----10---10--10--10--10--10--|
A|---------5-------------|---------------------------|-----9----9---9---9---9---9---|
C|-----5-----------------|---------------------------|-----7----7---7---7---7---7---|
F|-2---------------------|---------------------------|-----7----7---7---7---7---7---|
C|-----------------------|-------0---2---0---2---0---|-0----------------------------|


F|-0----0------|-------------7---7---7----7---|-7------|-------------7---7---7----7---|
C|-10---10-----|-------------9---9---9----7---|-7------|-------------9---9---9----7---|
A|-9----9------|-------------9---9---9----7---|-7------|-------------9---9---9----7---|
C|-7----7------|---------7--------------------|--------|---------7--------------------|
F|-7----7------|-----7------------------------|--------|-----7------------------------|
C|-0-----------|-0----------------------------|--------|-0----------------------------|


F|-7------|-------------7---7---7----7---|-7------|-------------7---7---7----7---|
C|-7------|-------------9---9---9----7---|-7------|-------------9---9---9----7---|
A|-7------|-------------9---9---9----7---|-7------|-------------9---9---9----7---|
C|--------|---------7--------------------|--------|---------7--------------------|
F|--------|-----7------------------------|--------|-----7------------------------|
C|--------|-0----------------------------|--------|-0----------------------------|


F|-7------|-------------3---3---3----3---|-3------|-------------3---3---3----3---|
C|-7------|-------------5---5---5----3---|-3------|-------------5---5---5----3---|
A|-7------|---------5---5---5---5----3---|-3------|---------5---5---5---5----3---|
C|--------|-----3------------------------|--------|-----3------------------------|
F|--------|-3----------------------------|--------|-3----------------------------|
C|--------|------------------------------|--------|------------------------------|


F|-3------|-------------7---7---7----7---|-7------|-------------7---7---7----7---|
C|-3------|-------------9---9---9----7---|-7------|-------------9---9---9----7---|
A|-3------|-------------9---9---9----7---|-7------|-------------9---9---9----7---|
C|--------|---------7--------------------|--------|---------7--------------------|
F|--------|-----7------------------------|--------|-----7------------------------|
C|--------|-0----------------------------|--------|-0----------------------------|


F|-7------|-------------2---2---2----2---|-2------|-------------0---0---0----0---|
C|-7------|-------------4---4---4----2---|-2------|-------------2---2---2----0---|
A|-7------|---------4---4---4---4----2---|-2------|---------2---2---2---2----0---|
C|--------|-----2------------------------|--------|-----0------------------------|
F|--------|-2----------------------------|--------|-0----------------------------|
C|--------|------------------------------|--------|------------------------------|


F|-0------|-------------7---7---7----7---|-7------|-------------7---7---7----7---|
C|-0------|-------------9---9---9----7---|-7------|-------------9---9---9----7---|
A|-0------|-------------9---9---9----7---|-7------|-------------9---9---9----7---|
C|--------|---------7--------------------|--------|---------7--------------------|
F|--------|-----7------------------------|--------|-----7------------------------|
C|--------|-0----------------------------|--------|-0----------------------------|


F|-7------|-------------7---7---7----7---|-7------|-------------7---7---7----7---|
C|-7------|-------------9---9---9----7---|-7------|-------------9---9---9----7---|
A|-7------|-------------9---9---9----7---|-7------|-------------9---9---9----7---|
C|--------|---------7--------------------|--------|---------7--------------------|
F|--------|-----7------------------------|--------|-----7------------------------|
C|--------|-0----------------------------|--------|-0----------------------------|


F|-7------|--------|--------|--------|--------|--------|--------|--------|--------|
C|-7------|--------|--------|--------|--------|--------|--------|--------|--------|
A|-7------|--------|--------|--------|--------|--------|--------|--------|--------|
C|--------|--------|--------|--------|--------|--------|--------|--------|--------|
F|--------|--------|--------|--------|--------|--------|--------|--------|--------|
C|--------|--------|--------|--------|--------|--------|--------|--------|--------|


F|--------|--------|--------|--------|--------|--------|--------|--------|--------|
C|--------|--------|--------|--------|--------|--------|--------|--------|--------|
A|--------|--------|--------|--------|--------|--------|--------|--------|--------|
C|--------|--------|--------|--------|--------|--------|--------|--------|--------|
F|--------|--------|--------|--------|--------|--------|--------|--------|--------|
C|--------|--------|--------|--------|--------|--------|--------|--------|--------|


F|--------|--------|--------|--------|--------|--------|--------|--------|--------|
C|--------|--------|--------|--------|--------|--------|--------|--------|--------|
A|--------|--------|--------|--------|--------|--------|--------|--------|--------|
C|--------|--------|--------|--------|--------|--------|--------|--------|--------|
F|--------|--------|--------|--------|--------|--------|--------|--------|--------|
C|--------|--------|--------|--------|--------|--------|--------|--------|--------|


F|--------|--------|--------|--------|--------|--------|--------|--------|--------|
C|--------|--------|--------|--------|--------|--------|--------|--------|--------|
A|--------|--------|--------|--------|--------|--------|--------|--------|--------|
C|--------|--------|--------|--------|--------|--------|--------|--------|--------|
F|--------|--------|--------|--------|--------|--------|--------|--------|--------|
C|--------|--------|--------|--------|--------|--------|--------|--------|--------|


F|--------|--------|--------|--------|--------|--------|--------|--------|--------|
C|--------|--------|--------|--------|--------|--------|--------|--------|--------|
A|--------|--------|--------|--------|--------|--------|--------|--------|--------|
C|--------|--------|--------|--------|--------|--------|--------|--------|--------|
F|--------|--------|--------|--------|--------|--------|--------|--------|--------|
C|--------|--------|--------|--------|--------|--------|--------|--------|--------|


F|--------|--------|--------|--------|--------|--------|--------|--------|--------|
C|--------|--------|--------|--------|--------|--------|--------|--------|--------|
A|--------|--------|--------|--------|--------|--------|--------|--------|--------|
C|--------|--------|--------|--------|--------|--------|--------|--------|--------|
F|--------|--------|--------|--------|--------|--------|--------|--------|--------|
C|--------|--------|--------|--------|--------|--------|--------|--------|--------|


F|--------|--------|--------|--------|--------|--------|--------|--------|--------|
C|--------|--------|--------|--------|--------|--------|--------|--------|--------|
A|--------|--------|--------|--------|--------|--------|--------|--------|--------|
C|--------|--------|--------|--------|--------|--------|--------|--------|--------|
F|--------|--------|--------|--------|--------|--------|--------|--------|--------|
C|--------|--------|--------|--------|--------|--------|--------|--------|--------|


F|--------|--------|--------|
C|--------|--------|--------|
A|--------|--------|--------|
C|--------|--------|--------|
F|--------|--------|--------|
C|--------|--------|--------|





Track 5: Joe Satriani Solo

E|--------|--------|--------|--------|--------|--------|--------|--------|--------|
B|--------|--------|--------|--------|--------|--------|--------|--------|--------|
G|--------|--------|--------|--------|--------|--------|--------|--------|--------|
D|--------|--------|--------|--------|--------|--------|--------|--------|--------|
A|--------|--------|--------|--------|--------|--------|--------|--------|--------|
E|--------|--------|--------|--------|--------|--------|--------|--------|--------|


E|--------|--------|--------|--------|--------|--------|--------|--------|--------|
B|--------|--------|--------|--------|--------|--------|--------|--------|--------|
G|--------|--------|--------|--------|--------|--------|--------|--------|--------|
D|--------|--------|--------|--------|--------|--------|--------|--------|--------|
A|--------|--------|--------|--------|--------|--------|--------|--------|--------|
E|--------|--------|--------|--------|--------|--------|--------|--------|--------|


E|--------|--------|--------|--------|--------|--------|--------|--------|--------|
B|--------|--------|--------|--------|--------|--------|--------|--------|--------|
G|--------|--------|--------|--------|--------|--------|--------|--------|--------|
D|--------|--------|--------|--------|--------|--------|--------|--------|--------|
A|--------|--------|--------|--------|--------|--------|--------|--------|--------|
E|--------|--------|--------|--------|--------|--------|--------|--------|--------|


E|--------|--------|--------|--------|--------|--------|--------|--------|--------|
B|--------|--------|--------|--------|--------|--------|--------|--------|--------|
G|--------|--------|--------|--------|--------|--------|--------|--------|--------|
D|--------|--------|--------|--------|--------|--------|--------|--------|--------|
A|--------|--------|--------|--------|--------|--------|--------|--------|--------|
E|--------|--------|--------|--------|--------|--------|--------|--------|--------|


E|--------|--------|--------|--------|--------|--------|--------|--------|--------|
B|--------|--------|--------|--------|--------|--------|--------|--------|--------|
G|--------|--------|--------|--------|--------|--------|--------|--------|--------|
D|--------|--------|--------|--------|--------|--------|--------|--------|--------|
A|--------|--------|--------|--------|--------|--------|--------|--------|--------|
E|--------|--------|--------|--------|--------|--------|--------|--------|--------|


E|--------|--------|--------|--------|--------|--------|--------|--------|--------|
B|--------|--------|--------|--------|--------|--------|--------|--------|--------|
G|--------|--------|--------|--------|--------|--------|--------|--------|--------|
D|--------|--------|--------|--------|--------|--------|--------|--------|--------|
A|--------|--------|--------|--------|--------|--------|--------|--------|--------|
E|--------|--------|--------|--------|--------|--------|--------|--------|--------|


E|--------|--------|--------|--------|--------|--------|--------|--------|--------|
B|--------|--------|--------|--------|--------|--------|--------|--------|--------|
G|--------|--------|--------|--------|--------|--------|--------|--------|--------|
D|--------|--------|--------|--------|--------|--------|--------|--------|--------|
A|--------|--------|--------|--------|--------|--------|--------|--------|--------|
E|--------|--------|--------|--------|--------|--------|--------|--------|--------|


E|--------|--------|--------|--------|--------|--------|--------|--------|--------|
B|--------|--------|--------|--------|--------|--------|--------|--------|--------|
G|--------|--------|--------|--------|--------|--------|--------|--------|--------|
D|--------|--------|--------|--------|--------|--------|--------|--------|--------|
A|--------|--------|--------|--------|--------|--------|--------|--------|--------|
E|--------|--------|--------|--------|--------|--------|--------|--------|--------|


E|--------|--------|--------|--------|--------|--------|--------|--------|--------|
B|--------|--------|--------|--------|--------|--------|--------|--------|--------|
G|--------|--------|--------|--------|--------|--------|--------|--------|--------|
D|--------|--------|--------|--------|--------|--------|--------|--------|--------|
A|--------|--------|--------|--------|--------|--------|--------|--------|--------|
E|--------|--------|--------|--------|--------|--------|--------|--------|--------|


E|--------|--------|--------|--------|--------|--------|--------|--------|--------|
B|--------|--------|--------|--------|--------|--------|--------|--------|--------|
G|--------|--------|--------|--------|--------|--------|--------|--------|--------|
D|--------|--------|--------|--------|--------|--------|--------|--------|--------|
A|--------|--------|--------|--------|--------|--------|--------|--------|--------|
E|--------|--------|--------|--------|--------|--------|--------|--------|--------|


E|--------|--------|--------|--------|--------|--------|--------|--------|--------|
B|--------|--------|--------|--------|--------|--------|--------|--------|--------|
G|--------|--------|--------|--------|--------|--------|--------|--------|--------|
D|--------|--------|--------|--------|--------|--------|--------|--------|--------|
A|--------|--------|--------|--------|--------|--------|--------|--------|--------|
E|--------|--------|--------|--------|--------|--------|--------|--------|--------|


E|--------|--------|--------|--------|--------|--------|--------|--------|--------|
B|--------|--------|--------|--------|--------|--------|--------|--------|--------|
G|--------|--------|--------|--------|--------|--------|--------|--------|--------|
D|--------|--------|--------|--------|--------|--------|--------|--------|--------|
A|--------|--------|--------|--------|--------|--------|--------|--------|--------|
E|--------|--------|--------|--------|--------|--------|--------|--------|--------|


E|--------|--------|--------|--------|--------|--------|--------|--------|--------|
B|--------|--------|--------|--------|--------|--------|--------|--------|--------|
G|--------|--------|--------|--------|--------|--------|--------|--------|--------|
D|--------|--------|--------|--------|--------|--------|--------|--------|--------|
A|--------|--------|--------|--------|--------|--------|--------|--------|--------|
E|--------|--------|--------|--------|--------|--------|--------|--------|--------|


E|-----------------|-------------|---------------------------|---------------------------|
B|-----------------|-------------|---------------------------|---------------------------|
G|-----------------|-------------|---------------------------|---------------------------|
D|-----------------|-------------|---------------------------|---------------------------|
A|------------14---|-3-----3-----|-3-----3---3---3---3---3---|-3---3---3---3---3-----3---|
E|-----------------|-------------|---------------------------|---------------------------|


E|-----------------------7---|--------|--------|--------|--------|--------|--------|
B|---------------------------|--------|--------|--------|--------|--------|--------|
G|---------------------------|--------|--------|--------|--------|--------|--------|
D|---------------------------|--------|--------|--------|--------|--------|--------|
A|-3-----3---3---3-----------|--------|--------|--------|--------|--------|--------|
E|---------------------------|--------|--------|--------|--------|--------|--------|


E|--------|--------|--------|--------|--------|--------|--------|--------|--------|
B|--------|--------|--------|--------|--------|--------|--------|--------|--------|
G|--------|--------|--------|--------|--------|--------|--------|--------|--------|
D|--------|--------|--------|--------|--------|--------|--------|--------|--------|
A|--------|--------|--------|--------|--------|--------|--------|--------|--------|
E|--------|--------|--------|--------|--------|--------|--------|--------|--------|


E|--------|--------|--------|--------|--------|--------|--------|--------|--------|
B|--------|--------|--------|--------|--------|--------|--------|--------|--------|
G|--------|--------|--------|--------|--------|--------|--------|--------|--------|
D|--------|--------|--------|--------|--------|--------|--------|--------|--------|
A|--------|--------|--------|--------|--------|--------|--------|--------|--------|
E|--------|--------|--------|--------|--------|--------|--------|--------|--------|


E|--------|--------|--------|--------|--------|--------|--------|--------|--------|
B|--------|--------|--------|--------|--------|--------|--------|--------|--------|
G|--------|--------|--------|--------|--------|--------|--------|--------|--------|
D|--------|--------|--------|--------|--------|--------|--------|--------|--------|
A|--------|--------|--------|--------|--------|--------|--------|--------|--------|
E|--------|--------|--------|--------|--------|--------|--------|--------|--------|


E|--------|--------|--------|--------|--------|--------|--------|--------|--------|
B|--------|--------|--------|--------|--------|--------|--------|--------|--------|
G|--------|--------|--------|--------|--------|--------|--------|--------|--------|
D|--------|--------|--------|--------|--------|--------|--------|--------|--------|
A|--------|--------|--------|--------|--------|--------|--------|--------|--------|
E|--------|--------|--------|--------|--------|--------|--------|--------|--------|


E|--------|--------|--------|--------|--------|--------|--------|--------|--------|
B|--------|--------|--------|--------|--------|--------|--------|--------|--------|
G|--------|--------|--------|--------|--------|--------|--------|--------|--------|
D|--------|--------|--------|--------|--------|--------|--------|--------|--------|
A|--------|--------|--------|--------|--------|--------|--------|--------|--------|
E|--------|--------|--------|--------|--------|--------|--------|--------|--------|


E|--------|--------|--------|--------|--------|--------|--------|--------|--------|
B|--------|--------|--------|--------|--------|--------|--------|--------|--------|
G|--------|--------|--------|--------|--------|--------|--------|--------|--------|
D|--------|--------|--------|--------|--------|--------|--------|--------|--------|
A|--------|--------|--------|--------|--------|--------|--------|--------|--------|
E|--------|--------|--------|--------|--------|--------|--------|--------|--------|


E|--------|--------|--------|--------|--------|
B|--------|--------|--------|--------|--------|
G|--------|--------|--------|--------|--------|
D|--------|--------|--------|--------|--------|
A|--------|--------|--------|--------|--------|
E|--------|--------|--------|--------|--------|





Track 6: Clean Guitar

F|--------|--------|--------|--------|--------|--------|--------|--------|--------|
C|--------|--------|--------|--------|--------|--------|--------|--------|--------|
A|--------|--------|--------|--------|--------|--------|--------|--------|--------|
C|--------|--------|--------|--------|--------|--------|--------|--------|--------|
F|--------|--------|--------|--------|--------|--------|--------|--------|--------|
C|--------|--------|--------|--------|--------|--------|--------|--------|--------|


F|--------|--------|--------|--------|--------|--------|--------|--------|--------|
C|--------|--------|--------|--------|--------|--------|--------|--------|--------|
A|--------|--------|--------|--------|--------|--------|--------|--------|--------|
C|--------|--------|--------|--------|--------|--------|--------|--------|--------|
F|--------|--------|--------|--------|--------|--------|--------|--------|--------|
C|--------|--------|--------|--------|--------|--------|--------|--------|--------|


F|--------|--------|--------|--------|--------|--------|--------|--------|--------|
C|--------|--------|--------|--------|--------|--------|--------|--------|--------|
A|--------|--------|--------|--------|--------|--------|--------|--------|--------|
C|--------|--------|--------|--------|--------|--------|--------|--------|--------|
F|--------|--------|--------|--------|--------|--------|--------|--------|--------|
C|--------|--------|--------|--------|--------|--------|--------|--------|--------|


F|--------|--------|--------|--------|--------|--------|--------|--------|--------|
C|--------|--------|--------|--------|--------|--------|--------|--------|--------|
A|--------|--------|--------|--------|--------|--------|--------|--------|--------|
C|--------|--------|--------|--------|--------|--------|--------|--------|--------|
F|--------|--------|--------|--------|--------|--------|--------|--------|--------|
C|--------|--------|--------|--------|--------|--------|--------|--------|--------|


F|--------|--------|--------|--------|--------|--------|--------|--------|--------|
C|--------|--------|--------|--------|--------|--------|--------|--------|--------|
A|--------|--------|--------|--------|--------|--------|--------|--------|--------|
C|--------|--------|--------|--------|--------|--------|--------|--------|--------|
F|--------|--------|--------|--------|--------|--------|--------|--------|--------|
C|--------|--------|--------|--------|--------|--------|--------|--------|--------|


F|--------|--------|--------|--------|--------|--------|--------|--------|--------|
C|--------|--------|--------|--------|--------|--------|--------|--------|--------|
A|--------|--------|--------|--------|--------|--------|--------|--------|--------|
C|--------|--------|--------|--------|--------|--------|--------|--------|--------|
F|--------|--------|--------|--------|--------|--------|--------|--------|--------|
C|--------|--------|--------|--------|--------|--------|--------|--------|--------|


F|--------|--------|--------|--------|--------|--------|--------|--------|--------|
C|--------|--------|--------|--------|--------|--------|--------|--------|--------|
A|--------|--------|--------|--------|--------|--------|--------|--------|--------|
C|--------|--------|--------|--------|--------|--------|--------|--------|--------|
F|--------|--------|--------|--------|--------|--------|--------|--------|--------|
C|--------|--------|--------|--------|--------|--------|--------|--------|--------|


F|--------|--------|--------|--------|--------|--------|--------|--------|--------|
C|--------|--------|--------|--------|--------|--------|--------|--------|--------|
A|--------|--------|--------|--------|--------|--------|--------|--------|--------|
C|--------|--------|--------|--------|--------|--------|--------|--------|--------|
F|--------|--------|--------|--------|--------|--------|--------|--------|--------|
C|--------|--------|--------|--------|--------|--------|--------|--------|--------|


F|--------|--------|--------|--------|--------|--------|--------|--------|--------|
C|--------|--------|--------|--------|--------|--------|--------|--------|--------|
A|--------|--------|--------|--------|--------|--------|--------|--------|--------|
C|--------|--------|--------|--------|--------|--------|--------|--------|--------|
F|--------|--------|--------|--------|--------|--------|--------|--------|--------|
C|--------|--------|--------|--------|--------|--------|--------|--------|--------|


F|--------|--------|--------|--------|--------|--------|--------|--------|--------|
C|--------|--------|--------|--------|--------|--------|--------|--------|--------|
A|--------|--------|--------|--------|--------|--------|--------|--------|--------|
C|--------|--------|--------|--------|--------|--------|--------|--------|--------|
F|--------|--------|--------|--------|--------|--------|--------|--------|--------|
C|--------|--------|--------|--------|--------|--------|--------|--------|--------|


F|--------|--------|--------|--------|--------|--------|--------|--------|--------|
C|--------|--------|--------|--------|--------|--------|--------|--------|--------|
A|--------|--------|--------|--------|--------|--------|--------|--------|--------|
C|--------|--------|--------|--------|--------|--------|--------|--------|--------|
F|--------|--------|--------|--------|--------|--------|--------|--------|--------|
C|--------|--------|--------|--------|--------|--------|--------|--------|--------|


F|--------|--------|--------|--------|--------|--------|--------|--------|--------|
C|--------|--------|--------|--------|--------|--------|--------|--------|--------|
A|--------|--------|--------|--------|--------|--------|--------|--------|--------|
C|--------|--------|--------|--------|--------|--------|--------|--------|--------|
F|--------|--------|--------|--------|--------|--------|--------|--------|--------|
C|--------|--------|--------|--------|--------|--------|--------|--------|--------|


F|--------|--------|--------|--------|--------|--------|--------|--------|--------|
C|--------|--------|--------|--------|--------|--------|--------|--------|--------|
A|--------|--------|--------|--------|--------|--------|--------|--------|--------|
C|--------|--------|--------|--------|--------|--------|--------|--------|--------|
F|--------|--------|--------|--------|--------|--------|--------|--------|--------|
C|--------|--------|--------|--------|--------|--------|--------|--------|--------|


F|--------|--------|--------|--------|--------|-------------7---7---7----7---|-7------|
C|--------|--------|--------|--------|--------|-------------9---9---9----7---|-7------|
A|--------|--------|--------|--------|--------|-------------9---9---9----7---|-7------|
C|--------|--------|--------|--------|--------|---------7--------------------|--------|
F|--------|--------|--------|--------|--------|-----7------------------------|--------|
C|--------|--------|--------|--------|--------|-0----------------------------|--------|


F|-------------7---7---7----7---|-7------|-------------7---7---7----7---|-7------|
C|-------------9---9---9----7---|-7------|-------------9---9---9----7---|-7------|
A|-------------9---9---9----7---|-7------|-------------9---9---9----7---|-7------|
C|---------7--------------------|--------|---------7--------------------|--------|
F|-----7------------------------|--------|-----7------------------------|--------|
C|-0----------------------------|--------|-0----------------------------|--------|


F|-------------7---7---7----7---|-7------|-------------3---3---3----3---|-3------|
C|-------------9---9---9----7---|-7------|-------------5---5---5----3---|-3------|
A|-------------9---9---9----7---|-7------|---------5---5---5---5----3---|-3------|
C|---------7--------------------|--------|-----3------------------------|--------|
F|-----7------------------------|--------|-3----------------------------|--------|
C|-0----------------------------|--------|------------------------------|--------|


F|-------------3---3---3----3---|-3------|-------------7---7---7----7---|-7------|
C|-------------5---5---5----3---|-3------|-------------9---9---9----7---|-7------|
A|---------5---5---5---5----3---|-3------|-------------9---9---9----7---|-7------|
C|-----3------------------------|--------|---------7--------------------|--------|
F|-3----------------------------|--------|-----7------------------------|--------|
C|------------------------------|--------|-0----------------------------|--------|


F|-------------7---7---7----7---|-7------|-------------7---7---7----7---|-7------|
C|-------------9---9---9----7---|-7------|-------------9---9---9----7---|-7------|
A|-------------9---9---9----7---|-7------|-------------9---9---9----7---|-7------|
C|---------7--------------------|--------|---------7--------------------|--------|
F|-----7------------------------|--------|-----7------------------------|--------|
C|-0----------------------------|--------|-0----------------------------|--------|


F|-------------7---7---7----7---|-7------|-------------7---7---7----7---|-7------|
C|-------------9---9---9----7---|-7------|-------------9---9---9----7---|-7------|
A|-------------9---9---9----7---|-7------|-------------9---9---9----7---|-7------|
C|---------7--------------------|--------|---------7--------------------|--------|
F|-----7------------------------|--------|-----7------------------------|--------|
C|-0----------------------------|--------|-0----------------------------|--------|


F|-------------7---7---7----7---|-7------|-------------3---3---3----3---|-3------|
C|-------------9---9---9----7---|-7------|-------------5---5---5----3---|-3------|
A|-------------9---9---9----7---|-7------|---------5---5---5---5----3---|-3------|
C|---------7--------------------|--------|-----3------------------------|--------|
F|-----7------------------------|--------|-3----------------------------|--------|
C|-0----------------------------|--------|------------------------------|--------|


F|-------------0---0---0----0---|-0------|-------------7---7---7----7---|-7------|
C|-------------2---2---2----0---|-0------|-------------9---9---9----7---|-7------|
A|---------2---2---2---2----0---|-0------|-------------9---9---9----7---|-7------|
C|-----0------------------------|--------|---------7--------------------|--------|
F|-0----------------------------|--------|-----7------------------------|--------|
C|------------------------------|--------|-0----------------------------|--------|


F|-------------7---7---7----7---|-7------|-------------0---0-----|-0-------------------------|
C|-------------9---9---9----7---|-7------|-------------0---0-----|-0-------------------------|
A|-------------9---9---9----7---|-7------|---------5-------------|---------------------------|
C|---------7--------------------|--------|-----5-----------------|---------------------------|
F|-----7------------------------|--------|-2---------------------|---------------------------|
C|-0----------------------------|--------|-----------------------|-------0---2---0---2---0---|


F|-----0----0---0---0---0---0---|-0----0--------------------|-------------0---0-----|
C|-----10---10--10--10--10--10--|-10---10-------------------|-------------0---0-----|
A|-----9----9---9---9---9---9---|-9----9--------------------|---------5-------------|
C|-----7----7---7---7---7---7---|-7----7--------------------|-----5-----------------|
F|-----7----7---7---7---7---7---|-7----7--------0---1---2---|-2---------------------|
C|-0----------------------------|-----------4---------------|-----------------------|


F|-0-------------------------|-----0----0---0---0---0---0---|-0----0--------------------|
C|-0-------------------------|-----10---10--10--10--10--10--|-10---10-------------------|
A|---------------------------|-----9----9---9---9---9---9---|-9----9--------------------|
C|---------------------------|-----7----7---7---7---7---7---|-7----7--------------------|
F|---------------------------|-----7----7---7---7---7---7---|-7----7--------4---4---2---|
C|-------0---2---0---2---0---|-0----------------------------|---------------------------|


F|-------------0---0-----|-0-------------------------|-----0----0---0---0---0---0---|
C|-------------0---0-----|-0-------------------------|-----10---10--10--10--10--10--|
A|---------5-------------|---------------------------|-----9----9---9---9---9---9---|
C|-----5-----------------|---------------------------|-----7----7---7---7---7---7---|
F|-2---------------------|---------------------------|-----7----7---7---7---7---7---|
C|-----------------------|-------0---2---0---2---0---|-0----------------------------|


F|-0----0--------------------|-------------0---0-----|-0-------------------------|
C|-10---10-------------------|-------------0---0-----|-0-------------------------|
A|-9----9--------------------|---------5-------------|---------------------------|
C|-7----7--------------------|-----5-----------------|---------------------------|
F|-7----7--------0---1---2---|-2---------------------|---------------------------|
C|-----------4---------------|-----------------------|-------0---2---0---2---0---|


F|-----0----0---0---0---0---0---|-0----0------|-------------7---7---7----7---|-7------|
C|-----10---10--10--10--10--10--|-10---10-----|-------------9---9---9----7---|-7------|
A|-----9----9---9---9---9---9---|-9----9------|-------------9---9---9----7---|-7------|
C|-----7----7---7---7---7---7---|-7----7------|---------7--------------------|--------|
F|-----7----7---7---7---7---7---|-7----7------|-----7------------------------|--------|
C|-0----------------------------|-0-----------|-0----------------------------|--------|


F|-------------7---7---7----7---|-7------|-------------7---7---7----7---|-7------|
C|-------------9---9---9----7---|-7------|-------------9---9---9----7---|-7------|
A|-------------9---9---9----7---|-7------|-------------9---9---9----7---|-7------|
C|---------7--------------------|--------|---------7--------------------|--------|
F|-----7------------------------|--------|-----7------------------------|--------|
C|-0----------------------------|--------|-0----------------------------|--------|


F|-------------7---7---7----7---|-7------|-------------7---7---7----7---|-7------|
C|-------------9---9---9----7---|-7------|-------------9---9---9----7---|-7------|
A|-------------9---9---9----7---|-7------|-------------9---9---9----7---|-7------|
C|---------7--------------------|--------|---------7--------------------|--------|
F|-----7------------------------|--------|-----7------------------------|--------|
C|-0----------------------------|--------|-0----------------------------|--------|


F|-------------7---7---7----7---|-7------|-------------7---7---7----7---|-7------|
C|-------------9---9---9----7---|-7------|-------------9---9---9----7---|-7------|
A|-------------9---9---9----7---|-7------|-------------9---9---9----7---|-7------|
C|---------7--------------------|--------|---------7--------------------|--------|
F|-----7------------------------|--------|-----7------------------------|--------|
C|-0----------------------------|--------|-0----------------------------|--------|


F|-------------7---7---7----7---|-7------|-------------7---7---7----7---|
C|-------------9---9---9----7---|-7------|-------------9---9---9----7---|
A|-------------9---9---9----7---|-7------|-------------9---9---9----7---|
C|---------7--------------------|--------|---------7--------------------|
F|-----7------------------------|--------|-----7------------------------|
C|-0----------------------------|--------|-0----------------------------|





Track 7: Joe Satriani Fills

E|--------|--------|--------|--------|--------|--------|--------|--------|--------|
B|--------|--------|--------|--------|--------|--------|--------|--------|--------|
G|--------|--------|--------|--------|--------|--------|--------|--------|--------|
D|--------|--------|--------|--------|--------|--------|--------|--------|--------|
A|--------|--------|--------|--------|--------|--------|--------|--------|--------|
E|--------|--------|--------|--------|--------|--------|--------|--------|--------|


E|--------|--------|--------|--------|--------|--------|--------|--------|--------|
B|--------|--------|--------|--------|--------|--------|--------|--------|--------|
G|--------|--------|--------|--------|--------|--------|--------|--------|--------|
D|--------|--------|--------|--------|--------|--------|--------|--------|--------|
A|--------|--------|--------|--------|--------|--------|--------|--------|--------|
E|--------|--------|--------|--------|--------|--------|--------|--------|--------|


E|--------|--------|--------|--------|--------|--------|--------|--------|--------|
B|--------|--------|--------|--------|--------|--------|--------|--------|--------|
G|--------|--------|--------|--------|--------|--------|--------|--------|--------|
D|--------|--------|--------|--------|--------|--------|--------|--------|--------|
A|--------|--------|--------|--------|--------|--------|--------|--------|--------|
E|--------|--------|--------|--------|--------|--------|--------|--------|--------|


E|--------|--------|--------|--------|--------|--------|--------|--------|--------|
B|--------|--------|--------|--------|--------|--------|--------|--------|--------|
G|--------|--------|--------|--------|--------|--------|--------|--------|--------|
D|--------|--------|--------|--------|--------|--------|--------|--------|--------|
A|--------|--------|--------|--------|--------|--------|--------|--------|--------|
E|--------|--------|--------|--------|--------|--------|--------|--------|--------|


E|--------|--------|--------|--------|--------|--------|--------|--------|--------|
B|--------|--------|--------|--------|--------|--------|--------|--------|--------|
G|--------|--------|--------|--------|--------|--------|--------|--------|--------|
D|--------|--------|--------|--------|--------|--------|--------|--------|--------|
A|--------|--------|--------|--------|--------|--------|--------|--------|--------|
E|--------|--------|--------|--------|--------|--------|--------|--------|--------|


E|--------|--------|--------|--------|--------|--------|--------|--------|--------|
B|--------|--------|--------|--------|--------|--------|--------|--------|--------|
G|--------|--------|--------|--------|--------|--------|--------|--------|--------|
D|--------|--------|--------|--------|--------|--------|--------|--------|--------|
A|--------|--------|--------|--------|--------|--------|--------|--------|--------|
E|--------|--------|--------|--------|--------|--------|--------|--------|--------|


E|--------|--------|--------|--------|--------|--------|--------|--------|--------|
B|--------|--------|--------|--------|--------|--------|--------|--------|--------|
G|--------|--------|--------|--------|--------|--------|--------|--------|--------|
D|--------|--------|--------|--------|--------|--------|--------|--------|--------|
A|--------|--------|--------|--------|--------|--------|--------|--------|--------|
E|--------|--------|--------|--------|--------|--------|--------|--------|--------|


E|--------|--------|--------|--------|--------|--------|--------|--------|--------|
B|--------|--------|--------|--------|--------|--------|--------|--------|--------|
G|--------|--------|--------|--------|--------|--------|--------|--------|--------|
D|--------|--------|--------|--------|--------|--------|--------|--------|--------|
A|--------|--------|--------|--------|--------|--------|--------|--------|--------|
E|--------|--------|--------|--------|--------|--------|--------|--------|--------|


E|--------|--------|--------|--------|--------|--------|--------|--------|--------|
B|--------|--------|--------|--------|--------|--------|--------|--------|--------|
G|--------|--------|--------|--------|--------|--------|--------|--------|--------|
D|--------|--------|--------|--------|--------|--------|--------|--------|--------|
A|--------|--------|--------|--------|--------|--------|--------|--------|--------|
E|--------|--------|--------|--------|--------|--------|--------|--------|--------|


E|--------|--------|--------|--------|--------|--------|--------|--------|--------|
B|--------|--------|--------|--------|--------|--------|--------|--------|--------|
G|--------|--------|--------|--------|--------|--------|--------|--------|--------|
D|--------|--------|--------|--------|--------|--------|--------|--------|--------|
A|--------|--------|--------|--------|--------|--------|--------|--------|--------|
E|--------|--------|--------|--------|--------|--------|--------|--------|--------|


E|--------|--------|--------|--------|--------|--------|--------|--------|--------|
B|--------|--------|--------|--------|--------|--------|--------|--------|--------|
G|--------|--------|--------|--------|--------|--------|--------|--------|--------|
D|--------|--------|--------|--------|--------|--------|--------|--------|--------|
A|--------|--------|--------|--------|--------|--------|--------|--------|--------|
E|--------|--------|--------|--------|--------|--------|--------|--------|--------|


E|--------|--------|--------|--------|--------|--------|--------|--------|--------|
B|--------|--------|--------|--------|--------|--------|--------|--------|--------|
G|--------|--------|--------|--------|--------|--------|--------|--------|--------|
D|--------|--------|--------|--------|--------|--------|--------|--------|--------|
A|--------|--------|--------|--------|--------|--------|--------|--------|--------|
E|--------|--------|--------|--------|--------|--------|--------|--------|--------|


E|--------|--------|--------|--------|--------|--------|--------|--------|--------|
B|--------|--------|--------|--------|--------|--------|--------|--------|--------|
G|--------|--------|--------|--------|--------|--------|--------|--------|--------|
D|--------|--------|--------|--------|--------|--------|--------|--------|--------|
A|--------|--------|--------|--------|--------|--------|--------|--------|--------|
E|--------|--------|--------|--------|--------|--------|--------|--------|--------|


E|--------|--------|--------|--------|--------|--------|--------|--------|--------|
B|--------|--------|--------|--------|--------|--------|--------|--------|--------|
G|--------|--------|--------|--------|--------|--------|--------|--------|--------|
D|--------|--------|--------|--------|--------|--------|--------|--------|--------|
A|--------|--------|--------|--------|--------|--------|--------|--------|--------|
E|--------|--------|--------|--------|--------|--------|--------|--------|--------|


E|--------|--------|--------|--------|--------|--------|--------|--------|--------|
B|--------|--------|--------|--------|--------|--------|--------|--------|--------|
G|--------|--------|--------|--------|--------|--------|--------|--------|--------|
D|--------|--------|--------|--------|--------|--------|--------|--------|--------|
A|--------|--------|--------|--------|--------|--------|--------|--------|--------|
E|--------|--------|--------|--------|--------|--------|--------|--------|--------|


E|--------|--------|--------|--------|--------|--------|--------|--------|--------|
B|--------|--------|--------|--------|--------|--------|--------|--------|--------|
G|--------|--------|--------|--------|--------|--------|--------|--------|--------|
D|--------|--------|--------|--------|--------|--------|--------|--------|--------|
A|--------|--------|--------|--------|--------|--------|--------|--------|--------|
E|--------|--------|--------|--------|--------|--------|--------|--------|--------|


E|--------|--------|--------|--------|--------|--------|--------|--------|--------|
B|--------|--------|--------|--------|--------|--------|--------|--------|--------|
G|--------|--------|--------|--------|--------|--------|--------|--------|--------|
D|--------|--------|--------|--------|--------|--------|--------|--------|--------|
A|--------|--------|--------|--------|--------|--------|--------|--------|--------|
E|--------|--------|--------|--------|--------|--------|--------|--------|--------|


E|--------|--------|--------|--------|--------|--------|--------|--------|--------|
B|--------|--------|--------|--------|--------|--------|--------|--------|--------|
G|--------|--------|--------|--------|--------|--------|--------|--------|--------|
D|--------|--------|--------|--------|--------|--------|--------|--------|--------|
A|--------|--------|--------|--------|--------|--------|--------|--------|--------|
E|--------|--------|--------|--------|--------|--------|--------|--------|--------|


E|--------|--------|--------|--------|--------|--------|--------|--------|---------------------------------|
B|--------|--------|--------|--------|--------|--------|--------|--------|---------------------------------|
G|--------|--------|--------|--------|--------|--------|--------|--------|---------------------------------|
D|--------|--------|--------|--------|--------|--------|--------|--------|---------------------------------|
A|--------|--------|--------|--------|--------|--------|--------|--------|-3---3---3---3---3---3---3---3---|
E|--------|--------|--------|--------|--------|--------|--------|--------|---------------------------------|


E|---------------------------------|---------------------------------|---------------------------------|
B|---------------------------------|---------------------------------|---------------------------------|
G|---------------------------------|---------------------------------|---------------------------------|
D|---------------------------------|---------------------------------|-----5---5---5---5---5---5---5---|
A|-3---3---3---3---3---3---3---3---|-3---3---3---3---3---3---3---3---|-3---3---3---3---3---3---3---3---|
E|---------------------------------|---------------------------------|---------------------------------|


E|---------------------------------|------------------------------|---------------------------------|
B|-------------7---7---7-----------|-5----------------------------|-------------7---7---7-------5---|
G|-5-----------7---7---7-------5---|-5------------5-------5-------|-------------7---7---7-------5---|
D|-5-----------5---5---5-------5---|-5------------5-------5---4---|-4---5-------5---5---5-------5---|
A|-3---3---3-----------------------|------3---3---3---3---3---3---|-3---3---3---------------3-------|
E|---------------------------------|------------------------------|---------------------------------|


E|---------------------------------|---------------------------------|---------------------------------|
B|-5-------------------------------|-------------7---7---7-------5---|-5-------------------------------|
G|-5---5-----------5-------5-------|-------------7---7---7-------5---|-5---5-----------5-------5-------|
D|-5---5-----------5-------5---4---|-4---5-------5---5---5-------5---|-5---5-----------5-------5---4---|
A|-----3---3---3-------3-------3---|-3---3---3---------------3-------|-----3---3---3-------3-------3---|
E|---------------------------------|---------------------------------|---------------------------------|


E|---------------------------------|---------------------------------|---------------------------------|
B|-------------7---7---7-------5---|-5-------------------------------|-------------7---7---7-------5---|
G|-------------7---7---7-------5---|-5---5-----------5-------5-------|-------------7---7---7-------5---|
D|-4---5-------5---5---5-------5---|-5---5-----------5-------5---4---|-4---5-------5---5---5-------5---|
A|-3---3---3---------------3-------|-----3---3---3-------3-------3---|-3---3---3---------------3-------|
E|---------------------------------|---------------------------------|---------------------------------|


E|---------------------------------|---------------------------------|---------------------------------|
B|-5-------------------------------|-------------7---7---7-------5---|-5-------------------------------|
G|-5---5-----------5-------5-------|-------------7---7---7-------5---|-5---5-----------5-------5-------|
D|-5---5-----------5-------5---4---|-4---5-------5---5---5-------5---|-5---5-----------5-------5---4---|
A|-----3---3---3-------3-------3---|-3---3---3---------------3-------|-----3---3---3-------3-------3---|
E|---------------------------------|---------------------------------|---------------------------------|


E|---------------------------------|
B|-------------7---7---7-------5---|
G|-------------7---7---7-------5---|
D|-4---5-------5---5---5-------5---|
A|-3---3---3---------------3-------|
E|---------------------------------|





Track 8: Untitled

G|--------|--------|--------|--------|--------|--------|--------|--------|--------|
D|--------|--------|--------|--------|--------|--------|--------|--------|--------|
A|--------|--------|--------|--------|--------|--------|--------|--------|--------|
E|--------|--------|--------|--------|--------|--------|--------|--------|--------|


G|--------|--------|--------|--------|--------|--------|--------|--------|--------|
D|--------|--------|--------|--------|--------|--------|--------|--------|--------|
A|--------|--------|--------|--------|--------|--------|--------|--------|--------|
E|--------|--------|--------|--------|--------|--------|--------|--------|--------|


G|--------|--------|--------|--------|--------|--------|--------|--------|--------|
D|--------|--------|--------|--------|--------|--------|--------|--------|--------|
A|--------|--------|--------|--------|--------|--------|--------|--------|--------|
E|--------|--------|--------|--------|--------|--------|--------|--------|--------|


G|--------|--------|--------|--------|--------|--------|--------|--------|--------|
D|--------|--------|--------|--------|--------|--------|--------|--------|--------|
A|--------|--------|--------|--------|--------|--------|--------|--------|--------|
E|--------|--------|--------|--------|--------|--------|--------|--------|--------|


G|--------|--------|--------|--------|--------|--------|--------|--------|--------|
D|--------|--------|--------|--------|--------|--------|--------|--------|--------|
A|--------|--------|--------|--------|--------|--------|--------|--------|--------|
E|--------|--------|--------|--------|--------|--------|--------|--------|--------|


G|--------|--------|--------|--------|--------|--------|--------|--------|--------|
D|--------|--------|--------|--------|--------|--------|--------|--------|--------|
A|--------|--------|--------|--------|--------|--------|--------|--------|--------|
E|--------|--------|--------|--------|--------|--------|--------|--------|--------|


G|--------|--------|--------|--------|--------|--------|--------|--------|--------|
D|--------|--------|--------|--------|--------|--------|--------|--------|--------|
A|--------|--------|--------|--------|--------|--------|--------|--------|--------|
E|--------|--------|--------|--------|--------|--------|--------|--------|--------|


G|--------|--------|--------|--------|--------|--------|--------|--------|--------|
D|--------|--------|--------|--------|--------|--------|--------|--------|--------|
A|--------|--------|--------|--------|--------|--------|--------|--------|--------|
E|--------|--------|--------|--------|--------|--------|--------|--------|--------|


G|--------|--------|--------|--------|--------|--------|--------|--------|--------|
D|--------|--------|--------|--------|--------|--------|--------|--------|--------|
A|--------|--------|--------|--------|--------|--------|--------|--------|--------|
E|--------|--------|--------|--------|--------|--------|--------|--------|--------|


G|--------|--------|--------|--------|--------|--------|--------|--------|--------|
D|--------|--------|--------|--------|--------|--------|--------|--------|--------|
A|--------|--------|--------|--------|--------|--------|--------|--------|--------|
E|--------|--------|--------|--------|--------|--------|--------|--------|--------|


G|--------|--------|--------|--------|--------|--------|--------|--------|--------|
D|--------|--------|--------|--------|--------|--------|--------|--------|--------|
A|--------|--------|--------|--------|--------|--------|--------|--------|--------|
E|--------|--------|--------|--------|--------|--------|--------|--------|--------|


G|--------|--------|--------|--------|--------|--------|--------|--------|--------|
D|--------|--------|--------|--------|--------|--------|--------|--------|--------|
A|--------|--------|--------|--------|--------|--------|--------|--------|--------|
E|--------|--------|--------|--------|--------|--------|--------|--------|--------|


G|--------|--------|--------|--------|--------|--------|--------|--------|--------|
D|--------|--------|--------|--------|--------|--------|--------|--------|--------|
A|--------|--------|--------|--------|--------|--------|--------|--------|--------|
E|--------|--------|--------|--------|--------|--------|--------|--------|--------|


G|--------|--------|--------|--------|--------|--------|--------|--------|--------|
D|--------|--------|--------|--------|--------|--------|--------|--------|--------|
A|--------|--------|--------|--------|--------|--------|--------|--------|--------|
E|--------|--------|--------|--------|--------|--------|--------|--------|--------|


G|--------|--------|--------|--------|--------|--------|--------|--------|--------|
D|--------|--------|--------|--------|--------|--------|--------|--------|--------|
A|--------|--------|--------|--------|--------|--------|--------|--------|--------|
E|--------|--------|--------|--------|--------|--------|--------|--------|--------|


G|--------|--------|--------|--------|--------|--------|--------|--------|--------|
D|--------|--------|--------|--------|--------|--------|--------|--------|--------|
A|--------|--------|--------|--------|--------|--------|--------|--------|--------|
E|--------|--------|--------|--------|--------|--------|--------|--------|--------|


G|--------|--------|--------|--------|--------|--------|--------|--------|--------|
D|--------|--------|--------|--------|--------|--------|--------|--------|--------|
A|--------|--------|--------|--------|--------|--------|--------|--------|--------|
E|--------|--------|--------|--------|--------|--------|--------|--------|--------|


G|--------|--------|--------|--------|--------|--------|--------|--------|--------|
D|--------|--------|--------|--------|--------|--------|--------|--------|--------|
A|--------|--------|--------|--------|--------|--------|--------|--------|--------|
E|--------|--------|--------|--------|--------|--------|--------|--------|--------|


G|--------|--------|--------|--------|--------|--------|--------|--------|--------|
D|--------|--------|--------|--------|--------|--------|--------|--------|--------|
A|--------|--------|--------|--------|--------|--------|--------|--------|--------|
E|--------|--------|--------|--------|--------|--------|--------|--------|--------|


G|--------|--------|--------|--------|--------|--------|--------|--------|--------|
D|--------|--------|--------|--------|--------|--------|--------|--------|--------|
A|--------|--------|--------|--------|--------|--------|--------|--------|--------|
E|--------|--------|--------|--------|--------|--------|--------|--------|--------|


G|--------|--------|--------|--------|--------|--------|--------|
D|--------|--------|--------|--------|--------|--------|--------|
A|--------|--------|--------|--------|--------|--------|--------|
E|--------|--------|--------|--------|--------|--------|--------|