Menu:

 

Search:

 

joe satriani - flavour crystal 7:

 



Title: Flavour Crystal 7
Artist: 
Album: Engines Of Creations
Author: Joe Satriani


Track 1: Intro Guit

E|----------------------------------|-------------------------------|----------------------------------|
B|----------------------------------|-------------------------------|----------------------------------|
G|----------------------------------|-------------------------------|----------------------------------|
D|----------------------------------|-------------------------------|----------------------------------|
A|------7------7--7---------5---7---|------7------7--7-----5--------|-7------7--7---------5---7--------|
E|-0--------0--------5--7-----------|-0--------0--------7------0----|-----0--------5--7-----------0----|


E|------------------------------------|----------------------------------|------------------------------------|
B|------------------------------------|----------------------------------|------------------------------------|
G|------------------------------------|----------------------------------|------------------------------------|
D|------------------------------------|----------------------------------|------------------------------------|
A|-7------7--7-----5--------7------7--|-7---------5---7--------7------7--|-7-----5--------7------7--7---------|
E|-----0--------7------0--------0-----|----5--7-----------0--------0-----|----7------0--------0--------5--7---|


E|----------------------------------|----------------------------------|-------------------------------|
B|----------------------------------|----------------------------------|-------------------------------|
G|----------------------------------|----------------------------------|-------------------------------|
D|----------------------------------|----------------------------------|-------------------------------|
A|-5---7--------7------7--7-----5---|------7------7--7---------5---7---|------7------7--7-----5--------|
E|---------0--------0--------7------|-0--------0--------5--7-----------|-0--------0--------7------0----|


E|----------------------------------|------------------------------------|----------------------------------|
B|----------------------------------|------------------------------------|----------------------------------|
G|----------------------------------|------------------------------------|----------------------------------|
D|----------------------------------|------------------------------------|----------------------------------|
A|-7------7--7---------5---7--------|-7------7--7-----5--------7------7--|-7---------5---7--------7------7--|
E|-----0--------5--7-----------0----|-----0--------7------0--------0-----|----5--7-----------0--------0-----|


E|------------------------------------|----------------------------------|----------------------------------|
B|------------------------------------|----------------------------------|----------------------------------|
G|------------------------------------|----------------------------------|----------------------------------|
D|------------------------------------|----------------------------------|----------------------------------|
A|-7-----5--------7------7--7---------|-5---7--------7------7--7-----5---|------7------7--7---------5---7---|
E|----7------0--------0--------5--7---|---------0--------0--------7------|-0--------0--------5--7-----------|


E|-------------------------------|----------------------------------|------------------------------------|
B|-------------------------------|----------------------------------|------------------------------------|
G|-------------------------------|----------------------------------|------------------------------------|
D|-------------------------------|----------------------------------|------------------------------------|
A|------7------7--7-----5--------|-7------7--7---------5---7--------|-7------7--7-----5--------7------7--|
E|-0--------0--------7------0----|-----0--------5--7-----------0----|-----0--------7------0--------0-----|


E|----------------------------------|------------------------------------|----------------------------------|
B|----------------------------------|------------------------------------|----------------------------------|
G|----------------------------------|------------------------------------|----------------------------------|
D|----------------------------------|------------------------------------|----------------------------------|
A|-7---------5---7--------7------7--|-7-----5--------7------7--7---------|-5---7--------7------7--7-----5---|
E|----5--7-----------0--------0-----|----7------0--------0--------5--7---|---------0--------0--------7------|


E|----------------------------------|-------------------------------|----------------------------------|
B|----------------------------------|-------------------------------|----------------------------------|
G|----------------------------------|-------------------------------|----------------------------------|
D|----------------------------------|-------------------------------|----------------------------------|
A|------7------7--7---------5---7---|------7------7--7-----5--------|-7------7--7---------5---7--------|
E|-0--------0--------5--7-----------|-0--------0--------7------0----|-----0--------5--7-----------0----|


E|------------------------------------|----------------------------------|------------------------------------|
B|------------------------------------|----------------------------------|------------------------------------|
G|------------------------------------|----------------------------------|------------------------------------|
D|------------------------------------|----------------------------------|------------------------------------|
A|-7------7--7-----5--------7------7--|-7---------5---7--------7------7--|-7-----5--------7------7--7---------|
E|-----0--------7------0--------0-----|----5--7-----------0--------0-----|----7------0--------0--------5--7---|


E|----------------------------------|----------------------------------|-------------------------------|
B|----------------------------------|----------------------------------|-------------------------------|
G|----------------------------------|----------------------------------|-------------------------------|
D|----------------------------------|----------------------------------|-------------------------------|
A|-5---7--------7------7--7-----5---|------7------7--7---------5---7---|------7------7--7-----5--------|
E|---------0--------0--------7------|-0--------0--------5--7-----------|-0--------0--------7------0----|


E|----------------------------------|------------------------------------|----------------------------------|
B|----------------------------------|------------------------------------|----------------------------------|
G|----------------------------------|------------------------------------|----------------------------------|
D|----------------------------------|------------------------------------|----------------------------------|
A|-7------7--7---------5---7--------|-7------7--7-----5--------7------7--|-7---------5---7--------7------7--|
E|-----0--------5--7-----------0----|-----0--------7------0--------0-----|----5--7-----------0--------0-----|


E|------------------------------------|----------------------------------|----------------------------------|
B|------------------------------------|----------------------------------|----------------------------------|
G|------------------------------------|----------------------------------|----------------------------------|
D|------------------------------------|----------------------------------|----------------------------------|
A|-7-----5--------7------7--7---------|-5---7--------7------7--7-----5---|------7------7--7---------5---7---|
E|----7------0--------0--------5--7---|---------0--------0--------7------|-0--------0--------5--7-----------|


E|-------------------------------|----------------------------------|------------------------------------|
B|-------------------------------|----------------------------------|------------------------------------|
G|-------------------------------|----------------------------------|------------------------------------|
D|-------------------------------|----------------------------------|------------------------------------|
A|------7------7--7-----5--------|-7------7--7---------5---7--------|-7------7--7-----5--------7------7--|
E|-0--------0--------7------0----|-----0--------5--7-----------0----|-----0--------7------0--------0-----|


E|----------------------------------|------------------------------------|----------------------------------|
B|----------------------------------|------------------------------------|----------------------------------|
G|----------------------------------|------------------------------------|----------------------------------|
D|----------------------------------|------------------------------------|----------------------------------|
A|-7---------5---7--------7------7--|-7-----5--------7------7--7---------|-5---7--------7------7--7-----5---|
E|----5--7-----------0--------0-----|----7------0--------0--------5--7---|---------0--------0--------7------|


E|----------------------------------|-------------------------------|--------|--------|
B|----------------------------------|-------------------------------|--------|--------|
G|----------------------------------|-------------------------------|--------|--------|
D|----------------------------------|-------------------------------|--------|--------|
A|------7------7--7---------5---7---|------7------7--7-----5--------|--------|--------|
E|-0--------0--------5--7-----------|-0--------0--------7-----------|--------|--------|


E|--------|--------|--------|--------|--------|--------|--------|--------|--------|
B|--------|--------|--------|--------|--------|--------|--------|--------|--------|
G|--------|--------|--------|--------|--------|--------|--------|--------|--------|
D|--------|--------|--------|--------|--------|--------|--------|--------|--------|
A|--------|--------|--------|--------|--------|--------|--------|--------|--------|
E|--------|--------|--------|--------|--------|--------|--------|--------|--------|


E|--------|--------|--------|--------|--------|--------|--------|--------|--------|
B|--------|--------|--------|--------|--------|--------|--------|--------|--------|
G|--------|--------|--------|--------|--------|--------|--------|--------|--------|
D|--------|--------|--------|--------|--------|--------|--------|--------|--------|
A|--------|--------|--------|--------|--------|--------|--------|--------|--------|
E|--------|--------|--------|--------|--------|--------|--------|--------|--------|


E|--------|--------|--------|--------|--------|--------|--------|--------|--------|
B|--------|--------|--------|--------|--------|--------|--------|--------|--------|
G|--------|--------|--------|--------|--------|--------|--------|--------|--------|
D|--------|--------|--------|--------|--------|--------|--------|--------|--------|
A|--------|--------|--------|--------|--------|--------|--------|--------|--------|
E|--------|--------|--------|--------|--------|--------|--------|--------|--------|


E|--------|--------|-------------------------------|----------------------------------|
B|--------|--------|-------------------------------|----------------------------------|
G|--------|--------|-------------------------------|----------------------------------|
D|--------|--------|-------------------------------|----------------------------------|
A|--------|--------|-----------7------7--7---------|-5---7--------7------7--7-----5---|
E|--------|--------|------0--------0--------5--7---|---------0--------0--------7------|


E|----------------------------------|-------------------------------|----------------------------------|
B|----------------------------------|-------------------------------|----------------------------------|
G|----------------------------------|-------------------------------|----------------------------------|
D|----------------------------------|-------------------------------|----------------------------------|
A|------7------7--7---------5---7---|------7------7--7-----5--------|-7------7--7---------5---7--------|
E|-0--------0--------5--7-----------|-0--------0--------7------0----|-----0--------5--7-----------0----|


E|------------------------------------|----------------------------------|------------------------------------|
B|------------------------------------|----------------------------------|------------------------------------|
G|------------------------------------|----------------------------------|------------------------------------|
D|------------------------------------|----------------------------------|------------------------------------|
A|-7------7--7-----5--------7------7--|-7---------5---7--------7------7--|-7-----5--------7------7--7---------|
E|-----0--------7------0--------0-----|----5--7-----------0--------0-----|----7------0--------0--------5--7---|


E|----------------------------------|----------------------------------|-------------------------------|
B|----------------------------------|----------------------------------|-------------------------------|
G|----------------------------------|----------------------------------|-------------------------------|
D|----------------------------------|----------------------------------|-------------------------------|
A|-5---7--------7------7--7-----5---|------7------7--7---------5---7---|------7------7--7-----5--------|
E|---------0--------0--------7------|-0--------0--------5--7-----------|-0--------0--------7------0----|


E|----------------------------------|------------------------------------|----------------------------------|
B|----------------------------------|------------------------------------|----------------------------------|
G|----------------------------------|------------------------------------|----------------------------------|
D|----------------------------------|------------------------------------|----------------------------------|
A|-7------7--7---------5---7--------|-7------7--7-----5--------7------7--|-7---------5---7--------7------7--|
E|-----0--------5--7-----------0----|-----0--------7------0--------0-----|----5--7-----------0--------0-----|


E|------------------------------------|----------------------------------|----------------------------------|
B|------------------------------------|----------------------------------|----------------------------------|
G|------------------------------------|----------------------------------|----------------------------------|
D|------------------------------------|----------------------------------|----------------------------------|
A|-7-----5--------7------7--7---------|-5---7--------7------7--7-----5---|------7------7--7---------5---7---|
E|----7------0--------0--------5--7---|---------0--------0--------7------|-0--------0--------5--7-----------|


E|-------------------------------|----------------------------------|------------------------------------|
B|-------------------------------|----------------------------------|------------------------------------|
G|-------------------------------|----------------------------------|------------------------------------|
D|-------------------------------|----------------------------------|------------------------------------|
A|------7------7--7-----5--------|-7------7--7---------5---7--------|-7------7--7-----5--------7------7--|
E|-0--------0--------7------0----|-----0--------5--7-----------0----|-----0--------7------0--------0-----|


E|----------------------------------|------------------|--------|--------|--------|
B|----------------------------------|------------------|--------|--------|--------|
G|----------------------------------|------------------|--------|--------|--------|
D|----------------------------------|------------------|--------|--------|--------|
A|-7---------5---7--------7------7--|-7-----5----------|--------|--------|--------|
E|----5--7-----------0--------0-----|----7-------------|--------|--------|--------|


E|--------|--------|--------|--------|--------|--------|--------|--------|--------|
B|--------|--------|--------|--------|--------|--------|--------|--------|--------|
G|--------|--------|--------|--------|--------|--------|--------|--------|--------|
D|--------|--------|--------|--------|--------|--------|--------|--------|--------|
A|--------|--------|--------|--------|--------|--------|--------|--------|--------|
E|--------|--------|--------|--------|--------|--------|--------|--------|--------|


E|--------|--------|--------|--------|--------|--------|--------|--------|--------|
B|--------|--------|--------|--------|--------|--------|--------|--------|--------|
G|--------|--------|--------|--------|--------|--------|--------|--------|--------|
D|--------|--------|--------|--------|--------|--------|--------|--------|--------|
A|--------|--------|--------|--------|--------|--------|--------|--------|--------|
E|--------|--------|--------|--------|--------|--------|--------|--------|--------|


E|--------|--------|--------|--------|--------|--------|--------|--------|--------|
B|--------|--------|--------|--------|--------|--------|--------|--------|--------|
G|--------|--------|--------|--------|--------|--------|--------|--------|--------|
D|--------|--------|--------|--------|--------|--------|--------|--------|--------|
A|--------|--------|--------|--------|--------|--------|--------|--------|--------|
E|--------|--------|--------|--------|--------|--------|--------|--------|--------|


E|----------------------------|----------------------------------|----------------------------------|
B|----------------------------|----------------------------------|----------------------------------|
G|----------------------------|----------------------------------|----------------------------------|
D|----------------------------|----------------------------------|----------------------------------|
A|------------7------7--7-----|-----5---7--------7------7--7-----|-5--------7------7--7---------5---|
E|-------0--------0--------5--|-7-----------0--------0--------7--|-----0--------0--------5--7-------|


E|----------------------------------|-------------------------------------|----------------------------------|
B|----------------------------------|-------------------------------------|----------------------------------|
G|----------------------------------|-------------------------------------|----------------------------------|
D|----------------------------------|-------------------------------------|----------------------------------|
A|-7--------7------7--7-----5-------|-----7------7--7---------5---7-------|-----7------7--7-----5--------7---|
E|-----0--------0--------7------0---|---------0--------5--7-----------0---|---------0--------7------0--------|


E|----------------------------------|--------------------------------------|----------------------------------|
B|----------------------------------|--------------------------------------|----------------------------------|
G|----------------------------------|--------------------------------------|----------------------------------|
D|----------------------------------|--------------------------------------|----------------------------------|
A|----7--7---------5---7--------7---|----7--7-----5--------7------7--7-----|-----5---7--------7------7--7-----|
E|-0--------5--7-----------0--------|-0--------7------0--------0--------5--|-7-----------0--------0--------7--|


E|----------------------------------|----------------------------------|-------------------------------------|
B|----------------------------------|----------------------------------|-------------------------------------|
G|----------------------------------|----------------------------------|-------------------------------------|
D|----------------------------------|----------------------------------|-------------------------------------|
A|-5--------7------7--7---------5---|-7--------7------7--7-----5-------|-----7------7--7---------5---7-------|
E|-----0--------0--------5--7-------|-----0--------0--------7------0---|---------0--------5--7-----------0---|


E|----------------------------------|----------------------------------|--------------------------------------|
B|----------------------------------|----------------------------------|--------------------------------------|
G|----------------------------------|----------------------------------|--------------------------------------|
D|----------------------------------|----------------------------------|--------------------------------------|
A|-----7------7--7-----5--------7---|----7--7---------5---7--------7---|----7--7-----5--------7------7--7-----|
E|---------0--------7------0--------|-0--------5--7-----------0--------|-0--------7------0--------0--------5--|


E|----------------------------------|----------------------------------|----------------------------------|
B|----------------------------------|----------------------------------|----------------------------------|
G|----------------------------------|----------------------------------|----------------------------------|
D|----------------------------------|----------------------------------|----------------------------------|
A|-----5---7--------7------7--7-----|-5--------7------7--7---------5---|-7--------7------7--7-----5-------|
E|-7-----------0--------0--------7--|-----0--------0--------5--7-------|-----0--------0--------7------0---|


E|-------------------------------------|----------------------------------|----------------------------------|
B|-------------------------------------|----------------------------------|----------------------------------|
G|-------------------------------------|----------------------------------|----------------------------------|
D|-------------------------------------|----------------------------------|----------------------------------|
A|-----7------7--7---------5---7-------|-----7------7--7-----5--------7---|----7--7---------5---7--------7---|
E|---------0--------5--7-----------0---|---------0--------7------0--------|-0--------5--7-----------0--------|


E|--------------------------------------|----------------------------------|----------------------------------|
B|--------------------------------------|----------------------------------|----------------------------------|
G|--------------------------------------|----------------------------------|----------------------------------|
D|--------------------------------------|----------------------------------|----------------------------------|
A|----7--7-----5--------7------7--7-----|-----5---7--------7------7--7-----|-5--------7------7--7---------5---|
E|-0--------7------0--------0--------5--|-7-----------0--------0--------7--|-----0--------0--------5--7-------|


E|----------------------------------|-------------------------------------|----------------------------------|
B|----------------------------------|-------------------------------------|----------------------------------|
G|----------------------------------|-------------------------------------|----------------------------------|
D|----------------------------------|-------------------------------------|----------------------------------|
A|-7--------7------7--7-----5-------|-----7------7--7---------5---7-------|-----7------7--7-----5--------7---|
E|-----0--------0--------7------0---|---------0--------5--7-----------0---|---------0--------7------0--------|


E|----------------------------------|----------------------------------|--------------------------------------|
B|----------------------------------|----------------------------------|--------------------------------------|
G|----------------------------------|----------------------------------|--------------------------------------|
D|----------------------------------|----------------------------------|--------------------------------------|
A|----7--7---------5---7--------7---|----7--7---------5---7--------7---|----7--7-----5--------7------7--7-----|
E|-0--------5--7-----------0--------|-0--------5--7-----------0--------|-0--------7------0--------0--------5--|


E|----------------------------------|----------------------------------|----------------------------------|
B|----------------------------------|----------------------------------|----------------------------------|
G|----------------------------------|----------------------------------|----------------------------------|
D|----------------------------------|----------------------------------|----------------------------------|
A|-----5---7--------7------7--7-----|-5--------7------7--7---------5---|-7--------7------7--7-----5-------|
E|-7-----------0--------0--------7--|-----0--------0--------5--7-------|-----0--------0--------7------0---|


E|-------------------------------------|----------------------------------|----------------------------------|
B|-------------------------------------|----------------------------------|----------------------------------|
G|-------------------------------------|----------------------------------|----------------------------------|
D|-------------------------------------|----------------------------------|----------------------------------|
A|-----7------7--7---------5---7-------|-----7------7--7-----5--------7---|----7--7---------5---7--------7---|
E|---------0--------5--7-----------0---|---------0--------7------0--------|-0--------5--7-----------0--------|


E|---------------------------|--------|--------|--------|
B|---------------------------|--------|--------|--------|
G|---------------------------|--------|--------|--------|
D|---------------------------|--------|--------|--------|
A|----7--7-----5-------------|--------|--------|--------|
E|-0--------7----------------|--------|--------|--------|





Track 2: Heavy dist

E|--------|--------|--------|--------|--------|--------|--------|--------|--------|
B|--------|--------|--------|--------|--------|--------|--------|--------|--------|
G|--------|--------|--------|--------|--------|--------|--------|--------|--------|
D|--------|--------|--------|--------|--------|--------|--------|--------|--------|
A|--------|--------|--------|--------|--------|--------|--------|--------|--------|
E|--------|--------|--------|--------|--------|--------|--------|--------|--------|


E|--------|--------|--------|--------|--------|-0----0---0---0---0----0---|-0------0----|
B|--------|--------|--------|--------|--------|-9----9---9---9---9----10--|-10-----10---|
G|--------|--------|--------|--------|--------|-9----9---9---9---9----11--|-11-----11---|
D|--------|--------|--------|--------|--------|---------------------------|-------------|
A|--------|--------|--------|--------|--------|---------------------------|-------------|
E|--------|--------|--------|--------|--------|---------------------------|-------------|


E|--------0----|-------0----0---0---|-0---0----0---0-----|------0------|------0------|
B|--------10---|-------10---10--10--|-10--10---9---9-----|------9------|------9------|
G|--------11---|-------11---11--11--|-11--11---9---9-----|------9------|------9------|
D|-------------|--------------------|--------------------|-------------|-------------|
A|-------------|--------------------|--------------------|-------------|-------------|
E|-------------|--------------------|--------------------|-------------|-------------|


E|-0----0---0---0---0----0---|-0------0----|--------0----|-------0----0---0---|-0---0----0---0-----|
B|-9----9---9---9---9----10--|-10-----10---|--------10---|-------10---10--10--|-10--10---9---9-----|
G|-9----9---9---9---9----11--|-11-----11---|--------11---|-------11---11--11--|-11--11---9---9-----|
D|---------------------------|-------------|-------------|--------------------|--------------------|
A|---------------------------|-------------|-------------|--------------------|--------------------|
E|---------------------------|-------------|-------------|--------------------|--------------------|


E|------0------|------0------|---------------------------|-------------|-------------|
B|------9------|------9------|-12---12--12--12--12---14--|-14-----14---|--------14---|
G|------9------|------9------|-12---12--12--12--12---14--|-14-----14---|--------14---|
D|-------------|-------------|---------------------------|-------------|-------------|
A|-------------|-------------|---------------------------|-------------|-------------|
E|-------------|-------------|---------------------------|-------------|-------------|


E|--------------------|--------------------|-------------|-------------|-0----0---0---0---0----0---|
B|-------15---15--14--|-14--14---12--12----|------12-----|------12-----|-9----9---9---9---9----10--|
G|-------14---14--14--|-14--14---12--12----|------12-----|------12-----|-9----9---9---9---9----11--|
D|--------------------|--------------------|-------------|-------------|---------------------------|
A|--------------------|--------------------|-------------|-------------|---------------------------|
E|--------------------|--------------------|-------------|-------------|---------------------------|


E|-0------0----|--------0----|-------0-----|-------0-----|------0----0---0---0---0---|
B|-10-----10---|--------10---|-------10----|-------10----|------10---10--10--10--10--|
G|-11-----11---|--------11---|-------11----|-------11----|------11---11--11--11--11--|
D|-------------|-------------|-------------|-------------|---------------------------|
A|-------------|-------------|-------------|-------------|---------------------------|
E|-------------|-------------|-------------|-------------|---------------------------|


E|-----0---0------|-0------|-0-----------|--------|--------|--------|--------|--------|
B|-----9---9------|-9------|-9-----------|--------|--------|--------|--------|--------|
G|-----9---9------|-9------|-9-----------|--------|--------|--------|--------|--------|
D|----------------|--------|-------------|--------|--------|--------|--------|--------|
A|----------------|--------|-------------|--------|--------|--------|--------|--------|
E|----------------|--------|-------------|--------|--------|--------|--------|--------|


E|--------|--------|--------|--------|--------|--------|--------|--------|--------|
B|--------|--------|--------|--------|--------|--------|--------|--------|--------|
G|--------|--------|--------|--------|--------|--------|--------|--------|--------|
D|--------|--------|--------|--------|--------|--------|--------|--------|--------|
A|--------|--------|--------|--------|--------|--------|--------|--------|--------|
E|--------|--------|--------|--------|--------|--------|--------|--------|--------|


E|--------|--------|--------|--------|--------|--------|--------|--------|--------|
B|--------|--------|--------|--------|--------|--------|--------|--------|--------|
G|--------|--------|--------|--------|--------|--------|--------|--------|--------|
D|--------|--------|--------|--------|--------|--------|--------|--------|--------|
A|--------|--------|--------|--------|--------|--------|--------|--------|--------|
E|--------|--------|--------|--------|--------|--------|--------|--------|--------|


E|--------|--------|--------|--------|-------------|------------------------------|
B|--------|--------|--------|--------|-------------|------------------------------|
G|--------|--------|--------|--------|-------------|---------------------2--4--2--|
D|--------|--------|--------|--------|-------------|------------2--4--5-----------|
A|--------|--------|--------|--------|-------------|------------------------------|
E|--------|--------|--------|--------|-------------|------------------------------|


E|-------------------------------------------------------------|---------------------------------------------------------|
B|-------------------------------------------------------------|---------------------------------------------------------|
G|------------------------6--7--9--6---6--7--6--7--9--11-9--7--|-6--7--9--6---11--6--7--6--7--6--7--9--11-9--7--6--7--6--|
D|-5--4--5--7-5-4-5-7--9---------------------------------------|---------------------------------------------------------|
A|-------------------------------------------------------------|---------------------------------------------------------|
E|-------------------------------------------------------------|---------------------------------------------------------|


E|------------------|--------|--------|--------|--------|--------|--------|--------|
B|------------------|--------|--------|--------|--------|--------|--------|--------|
G|-------9----------|--------|--------|--------|--------|--------|--------|--------|
D|-9--11------------|--------|--------|--------|--------|--------|--------|--------|
A|------------------|--------|--------|--------|--------|--------|--------|--------|
E|------------------|--------|--------|--------|--------|--------|--------|--------|


E|--------|--------|--------|--------|--------|--------|--------|--------|--------|
B|--------|--------|--------|--------|--------|--------|--------|--------|--------|
G|--------|--------|--------|--------|--------|--------|--------|--------|--------|
D|--------|--------|--------|--------|--------|--------|--------|--------|--------|
A|--------|--------|--------|--------|--------|--------|--------|--------|--------|
E|--------|--------|--------|--------|--------|--------|--------|--------|--------|


E|--------|--------|--------|--------|--------|--------|--------|--------|--------|
B|--------|--------|--------|--------|--------|--------|--------|--------|--------|
G|--------|--------|--------|--------|--------|--------|--------|--------|--------|
D|--------|--------|--------|--------|--------|--------|--------|--------|--------|
A|--------|--------|--------|--------|--------|--------|--------|--------|--------|
E|--------|--------|--------|--------|--------|--------|--------|--------|--------|


E|--------|--------|--------|--------|--------|-------------|--------|-------------|
B|--------|--------|--------|--------|--------|-------------|--------|-------------|
G|--------|--------|--------|--------|--------|-------------|--------|-------------|
D|--------|--------|--------|--------|--------|-------------|--------|-------------|
A|--------|--------|--------|--------|--------|-------------|--------|-------------|
E|--------|--------|--------|--------|--------|-------------|--------|-------------|


E|-------------|-14--15---------|--------|--------|--------|--------|--------|--------|
B|-------------|-14--15---------|--------|--------|--------|--------|--------|--------|
G|-------------|----------------|--------|--------|--------|--------|--------|--------|
D|-------------|----------------|--------|--------|--------|--------|--------|--------|
A|-------------|----------------|--------|--------|--------|--------|--------|--------|
E|-------------|----------------|--------|--------|--------|--------|--------|--------|


E|--------|--------|--------|--------|--------|--------|--------|--------|--------|
B|--------|--------|--------|--------|--------|--------|--------|--------|--------|
G|--------|--------|--------|--------|--------|--------|--------|--------|--------|
D|--------|--------|--------|--------|--------|--------|--------|--------|--------|
A|--------|--------|--------|--------|--------|--------|--------|--------|--------|
E|--------|--------|--------|--------|--------|--------|--------|--------|--------|


E|--------|-------0----0---0---0---|-0----0---0------|-----0------|-----0------0---|
B|--------|-------9----9---9---9---|-9----10--10-----|-----10-----|-----10-----10--|
G|--------|-------9----9---9---9---|-9----11--11-----|-----11-----|-----11-----11--|
D|--------|------------------------|-----------------|------------|----------------|
A|--------|------------------------|-----------------|------------|----------------|
E|--------|------------------------|-----------------|------------|----------------|


E|-----0---0---0---0----0---0---|-----------0-----|-----------0-----|-------0----0---0---0---|
B|-----10--10--10--10---9---9---|-----------9-----|-----------9-----|-------9----9---9---9---|
G|-----11--11--11--11---9---9---|-----------9-----|-----------9-----|-------9----9---9---9---|
D|------------------------------|-----------------|-----------------|------------------------|
A|------------------------------|-----------------|-----------------|------------------------|
E|------------------------------|-----------------|-----------------|------------------------|


E|-0----0---0------|-----0------|-----0------0---|-----0---0---0---0----0---0---|-----------0-----|
B|-9----10--10-----|-----10-----|-----10-----10--|-----10--10--10--10---9---9---|-----------9-----|
G|-9----11--11-----|-----11-----|-----11-----11--|-----11--11--11--11---9---9---|-----------9-----|
D|-----------------|------------|----------------|------------------------------|-----------------|
A|-----------------|------------|----------------|------------------------------|-----------------|
E|-----------------|------------|----------------|------------------------------|-----------------|


E|-----------0-----|------------------------|-----------------|------------|----------------|
B|-----------9-----|-------12---12--12--12--|-12---14--14-----|-----14-----|-----14-----15--|
G|-----------9-----|-------12---12--12--12--|-12---14--14-----|-----14-----|-----14-----14--|
D|-----------------|------------------------|-----------------|------------|----------------|
A|-----------------|------------------------|-----------------|------------|----------------|
E|-----------------|------------------------|-----------------|------------|----------------|


E|------------------------------|-----------------|-----------------|-------0----0---0---0---|
B|-----15--14--14--14---12--12--|-----------12----|-----------12----|-------9----9---9---9---|
G|-----14--14--14--14---12--12--|-----------12----|-----------12----|-------9----9---9---9---|
D|------------------------------|-----------------|-----------------|------------------------|
A|------------------------------|-----------------|-----------------|------------------------|
E|------------------------------|-----------------|-----------------|------------------------|


E|-0----0---0------|-----0------|-----0------0---|------------0---|-----------0----0---|
B|-9----10--10-----|-----10-----|-----10-----10--|------------10--|-----------10---10--|
G|-9----11--11-----|-----11-----|-----11-----11--|------------11--|-----------11---11--|
D|-----------------|------------|----------------|----------------|--------------------|
A|-----------------|------------|----------------|----------------|--------------------|
E|-----------------|------------|----------------|----------------|--------------------|


E|-0---0---0----0---0-----|-0---0-----0-----|-------0------|-------0------|-----0-----------|
B|-10--10--10---9---9-----|-9---9-----9-----|-------9------|-------9------|-----9-----------|
G|-11--11--11---9---9-----|-9---9-----9-----|-------9------|-------9------|-----9-----------|
D|------------------------|-----------------|--------------|--------------|-----------------|
A|------------------------|-----------------|--------------|--------------|-----------------|
E|------------------------|-----------------|--------------|--------------|-----------------|


E|------------0---|-----0---0---0---0----0---0---|-----------0-----|-----------0-----|
B|------------10--|-----10--9---9---9----10--10--|-----------10----|-----------10----|
G|------------11--|-----11--9---9---9----11--11--|-----------11----|-----------11----|
D|----------------|------------------------------|-----------------|-----------------|
A|----------------|------------------------------|-----------------|-----------------|
E|----------------|------------------------------|-----------------|-----------------|


E|-------0----0---0---0---|-0----0---0------|-----0------|-----0----------|
B|-------10---10--10--10--|-10---9---9------|-----9------|-----9----------|
G|-------11---11--11--11--|-11---9---9------|-----9------|-----9----------|
D|------------------------|-----------------|------------|----------------|
A|------------------------|-----------------|------------|----------------|
E|------------------------|-----------------|------------|----------------|





Track 3: Guit Lead

E|--------|--------|--------|--------|--------|--------|--------|--------|--------|
B|--------|--------|--------|--------|--------|--------|--------|--------|--------|
G|--------|--------|--------|--------|--------|--------|--------|--------|--------|
D|--------|--------|--------|--------|--------|--------|--------|--------|--------|
A|--------|--------|--------|--------|--------|--------|--------|--------|--------|
E|--------|--------|--------|--------|--------|--------|--------|--------|--------|


E|--------|--------|--------|--------|--------|--------|--------|--------|--------|
B|--------|--------|--------|--------|--------|--------|--------|--------|--------|
G|--------|--------|--------|--------|--------|--------|--------|--------|--------|
D|--------|--------|--------|--------|--------|--------|--------|--------|--------|
A|--------|--------|--------|--------|--------|--------|--------|--------|--------|
E|--------|--------|--------|--------|--------|--------|--------|--------|--------|


E|--------|--------|--------|--------|--------|--------|--------|--------|--------|
B|--------|--------|--------|--------|--------|--------|--------|--------|--------|
G|--------|--------|--------|--------|--------|--------|--------|--------|--------|
D|--------|--------|--------|--------|--------|--------|--------|--------|--------|
A|--------|--------|--------|--------|--------|--------|--------|--------|--------|
E|--------|--------|--------|--------|--------|--------|--------|--------|--------|


E|--------|--------|--------|--------|--------|--------|--------|--------|--------|
B|--------|--------|--------|--------|--------|--------|--------|--------|--------|
G|--------|--------|--------|--------|--------|--------|--------|--------|--------|
D|--------|--------|--------|--------|--------|--------|--------|--------|--------|
A|--------|--------|--------|--------|--------|--------|--------|--------|--------|
E|--------|--------|--------|--------|--------|--------|--------|--------|--------|


E|--------|--------|--------|--------|--------|--------|--------|-------------|------------------------------|
B|--------|--------|--------|--------|--------|--------|--------|-------------|------------------------------|
G|--------|--------|--------|--------|--------|--------|--------|--------14---|-12--14--14--12------14--14---|
D|--------|--------|--------|--------|--------|--------|--------|-------------|------------------------------|
A|--------|--------|--------|--------|--------|--------|--------|-------------|------------------------------|
E|--------|--------|--------|--------|--------|--------|--------|-------------|------------------------------|


E|--------------------|-----------------------|------------------------------|----------------|
B|--------------------|-----------------------|------------------------------|----------------|
G|-------14---12--14--|-14--16------14--14----|-14--12--14---12--14--14--12--|-----14--14-----|
D|--------------------|-----------------------|------------------------------|----------------|
A|--------------------|-----------------------|------------------------------|----------------|
E|--------------------|-----------------------|------------------------------|----------------|


E|------------------------------|----------------|--------------------|--------------------|
B|------------------------------|--------15--17--|-----17--17----17---|------15--14--------|
G|-14---12--14--14--16------14--|-14-------------|--------------------|--------------16----|
D|------------------------------|----------------|--------------------|--------------------|
A|------------------------------|----------------|--------------------|--------------------|
E|------------------------------|----------------|--------------------|--------------------|


E|-----------------|---------------------------|---------------------------|--------|
B|-----------------|-14--15--17-------17--17---|------17---17------15--14--|--------|
G|-------16--------|---------------------------|---------------------------|-16-----|
D|-----------------|---------------------------|---------------------------|--------|
A|-----------------|---------------------------|---------------------------|--------|
E|-----------------|---------------------------|---------------------------|--------|


E|-----------14--15--15--17--|-----17--17----17---|------15--14--14--12---12--|-----12----12-------|
B|-----------14--15--15--17--|-----17--17----17---|------15--14--14--12---12--|-----12----12-------|
G|-16------------------------|--------------------|---------------------------|--------------------|
D|---------------------------|--------------------|---------------------------|--------------------|
A|---------------------------|--------------------|---------------------------|--------------------|
E|---------------------------|--------------------|---------------------------|--------------------|


E|-14--15--15--17---17--17---|------17---19------15--14--|-14--12---12--12----|-12---12----------15--17---|
B|-14--15--15--17---17--17---|------17---19------15--14--|-14--12---12--12----|-12---12----------14-------|
G|---------------------------|---------------------------|--------------------|------------------12--14---|
D|---------------------------|---------------------------|--------------------|---------------------------|
A|---------------------------|---------------------------|--------------------|---------------------------|
E|---------------------------|---------------------------|--------------------|---------------------------|


E|-15--17--17--15---17--17---|-------17---15--17--|-17--19---17--17----|-17--15--17---15--17--17--15--|
B|-15----------15------------|------------17--17--|-17-------17--17----|-17--17-------15----------15--|
G|-12--14--14--12---14--14---|-------14---12--14--|-14--16---14--14----|-14--12--14---12--14--14--12--|
D|---------------------------|--------------------|--------------------|------------------------------|
A|---------------------------|--------------------|--------------------|------------------------------|
E|---------------------------|--------------------|--------------------|------------------------------|


E|-----17--17-----|-17---15--17--17--19---17--|-17-----------------|------------------------------|
B|----------------|------17--17--17-------17--|-17-----------------|------------------------------|
G|-----14--14-----|-14---12--14--14--16---14--|-14----14--12--14---|-12--14--14--12------14--14---|
D|----------------|---------------------------|--------------------|------------------------------|
A|----------------|---------------------------|--------------------|------------------------------|
E|----------------|---------------------------|--------------------|------------------------------|


E|-------------|--------------------|-------------|--------|--------|--------|--------|
B|-------------|--------------------|-------------|--------|--------|--------|--------|
G|-------14----|-------14---14------|-------------|--------|--------|--------|--------|
D|-------------|--------------------|-------------|--------|--------|--------|--------|
A|-------------|--------------------|-------------|--------|--------|--------|--------|
E|-------------|--------------------|-------------|--------|--------|--------|--------|


E|--------|--------|-----------14-10-12--12---|-12-10----10--------------------------|
B|--------|--------|--------------------------|-------12----12-10-8------------7--8--|
G|--------|--------|--------------------------|--------------------------------------|
D|--------|--------|--------------------------|--------------------------------------|
A|--------|--------|--------------------------|--------------------------------------|
E|--------|--------|--------------------------|--------------------------------------|


E|-------------------------------------------------|----------------------------------------|
B|-7-----7--8--7-----7-----------5-----------------|----------------------------------------|
G|----9-----------9-----9--7--6-----7--6--4--6--7--|-6--4--6--4-----------------------------|
D|-------------------------------------------------|-------------7--5--4--------------4--5--|
A|-------------------------------------------------|----------------------7-----------------|
E|-------------------------------------------------|----------------------------------------|


E|---------------------------------------------|-------------------------3--------|
B|---------------------------------------------|----------0--5--7----7------------|
G|-------------------4--6--7--6----4--6--4-----|-4--------------------------------|
D|-4-----4--5--7----------------------------7--|----7--5--------------------------|
A|----7----------------------------------------|----------------------------------|
E|---------------------------------------------|----------------------------------|


E|-----7--3--5--3--7--3--5--3-----3--------------|---------------------------7--10----10-7--9--|
B|-----------------------------7-----5--7--5--3--|-5----0--0-----5--7--8--10-------------------|
G|-----------------------------------------------|---------------------------------------------|
D|-----------------------------------------------|---------------------------------------------|
A|-----------------------------------------------|---------------------------------------------|
E|-----------------------------------------------|---------------------------------------------|


E|-7-----7--------------------------12-10-7--|----12---12-10-7-----12-12--12-10-7-----12---|
B|----10----8--10-8--7-----------------------|-10---------------10-----------------10------|
G|-------------------------------------------|---------------------------------------------|
D|-------------------------------------------|---------------------------------------------|
A|-------------------------------------------|---------------------------------------------|
E|-------------------------------------------|---------------------------------------------|


E|-12-10-7-----12-12-1012107------------14-10-|-14-14-10----14-12-10----10------------------|
B|----------10--------------------------------|----------14----------14----14-12-10-12------|
G|--------------------------------------------|---------------------------------------------|
D|--------------------------------------------|---------------------------------------------|
A|--------------------------------------------|---------------------------------------------|
E|--------------------------------------------|---------------------------------------------|


E|-------------14-17-14-15-------14----------------|-----------------------------------------------|
B|-12-14-15-17----------------17----17-15-14-17-15-|-14----14-15-14----14--------------------------|
G|-------------------------------------------------|----16----------16----16-14-12-14--------------|
D|-------------------------------------------------|----------------------------------12-12--14----|
A|-------------------------------------------------|--------------------------------------------12-|
E|-------------------------------------------------|-----------------------------------------------|


E|---------------------------|-------------------------------------|------------------------------|
B|---------------------------|-------------------------------------|------------------------------|
G|---------------------------|-------------------------------------|------------------------------|
D|---------------------------|-------------------------------------|------------------12------14--|
A|-10---12---10--12--12--14--|-----12--12--10-12-12-10-9---10--9---|----------14--14--------------|
E|---------------------------|-------------------------------------|-12--15-----------------------|


E|---------------------------------|---------12------12--12--14---|-12------12------15--15---15--|
B|---------------------------------|-----12------15---------------|-----15-----------------------|
G|-----11----------------------12--|-14---------------------------|------------------------------|
D|-14----------11--11--12--14------|------------------------------|------------------------------|
A|---------------------------------|------------------------------|------------------------------|
E|---------------------------------|------------------------------|------------------------------|


E|-12-----------------------------------|----------------------------------|------------------------------|
B|-----15--12----------15--15---12------|----------------------------------|------------------------------|
G|-------------14--12-------------------|-14-14--12------------------------|------------------------------|
D|--------------------------------------|-----------14-12-14---12--12--14--|-------------------------12---|
A|--------------------------------------|----------------------------------|-10--12--12--10--12--14-------|
E|--------------------------------------|----------------------------------|------------------------------|


E|-----------------12------15--1---|-17------15------------------15-|-15-----------0----------18----------|
B|-------------12------17----------|--------------17-15-17--17------|--------------0----------18--18---18-|
G|---------14----------------------|--------------------------------|--------0--0--------0----------------|
D|-14------------------------------|--------------------------------|-------------------------------------|
A|---------------------------------|--------------------------------|-------------------------------------|
E|---------------------------------|--------------------------------|-------------------------------------|


E|-----------18---6--------15--|-15--12--------------------------------------|------15--17---17--17---|
B|-18--18-18-18---6----12------|---------15--12------------------------------|------15--17---17--17---|
G|-----------------------------|-----------------14--12----------------------|------------------------|
D|-----------------------------|-------------------------14--12--------------|------------------------|
A|-----------------------------|---------------------------------14--12--10--|------------------------|
E|-----------------------------|---------------------------------------------|-12---------------------|


E|------17--------15--14--|-14--12---12---12----|-----12-------14--15--15--17--|-----17--17----17---|
B|------17--------15--14--|-14--12---12---12----|-----12-------14--15--15--17--|-----17--17----17---|
G|------------------------|---------------------|------------------------------|--------------------|
D|------------------------|---------------------|------------------------------|--------------------|
A|------------------------|---------------------|------------------------------|--------------------|
E|------------------------|---------------------|------------------------------|--------------------|


E|-19------15--14--14--12---12--|-12----12---12------|-----15--17---15--17--17--15--|
B|-19------15--14--14--12---12--|-12----12---12------|-----14-------15----------15--|
G|------------------------------|--------------------|-----12--14---12--14--14--12--|
D|------------------------------|--------------------|------------------------------|
A|------------------------------|--------------------|------------------------------|
E|------------------------------|--------------------|------------------------------|


E|-----17--17-----|-17---15--17--17--19---17--|-17----17--15--17---|-15--17--17--15---17--17---|
B|----------------|------17--17--17-------17--|-17----17--17-------|-15----------15------------|
G|-----14--14-----|-14---12--14--14--16---14--|-14----14--12--14---|-12--14--14--12---14--14---|
D|----------------|---------------------------|--------------------|---------------------------|
A|----------------|---------------------------|--------------------|---------------------------|
E|----------------|---------------------------|--------------------|---------------------------|


E|-------17---15--17--|-17--19---17--17----|------------------------------|----------------|
B|------------17--17--|-17-------17--17----|------------------------------|----------------|
G|-------14---12--14--|-14--16---14--14----|-14--12--14---12--14--14--12--|-----14--14-----|
D|--------------------|--------------------|------------------------------|----------------|
A|--------------------|--------------------|------------------------------|----------------|
E|--------------------|--------------------|------------------------------|----------------|


E|--------|--------------------|--------|--------|--------|--------|--------|--------|
B|--------|--------------------|--------|--------|--------|--------|--------|--------|
G|-14-----|-14---14------------|--------|--------|--------|--------|--------|--------|
D|--------|--------------------|--------|--------|--------|--------|--------|--------|
A|--------|--------------------|--------|--------|--------|--------|--------|--------|
E|--------|--------------------|--------|--------|--------|--------|--------|--------|


E|--------|--------|--------|--------|--------|--------|--------|--------|--------|
B|--------|--------|--------|--------|--------|--------|--------|--------|--------|
G|--------|--------|--------|--------|--------|--------|--------|--------|--------|
D|--------|--------|--------|--------|--------|--------|--------|--------|--------|
A|--------|--------|--------|--------|--------|--------|--------|--------|--------|
E|--------|--------|--------|--------|--------|--------|--------|--------|--------|


E|--------|--------|--------|--------|--------|--------|--------|--------|--------|
B|--------|--------|--------|--------|--------|--------|--------|--------|--------|
G|--------|--------|--------|--------|--------|--------|--------|--------|--------|
D|--------|--------|--------|--------|--------|--------|--------|--------|--------|
A|--------|--------|--------|--------|--------|--------|--------|--------|--------|
E|--------|--------|--------|--------|--------|--------|--------|--------|--------|


E|--------|--------|--------|--------|--------|--------|--------|--------|--------|
B|--------|--------|--------|--------|--------|--------|--------|--------|--------|
G|--------|--------|--------|--------|--------|--------|--------|--------|--------|
D|--------|--------|--------|--------|--------|--------|--------|--------|--------|
A|--------|--------|--------|--------|--------|--------|--------|--------|--------|
E|--------|--------|--------|--------|--------|--------|--------|--------|--------|


E|--------|--------|--------|--------|--------|--------|
B|--------|--------|--------|--------|--------|--------|
G|--------|--------|--------|--------|--------|--------|
D|--------|--------|--------|--------|--------|--------|
A|--------|--------|--------|--------|--------|--------|
E|--------|--------|--------|--------|--------|--------|





Track 4: Slight Dist Arpeg.

E|--------|--------|--------|--------|--------|--------|--------|--------|--------|
B|--------|--------|--------|--------|--------|--------|--------|--------|--------|
G|--------|--------|--------|--------|--------|--------|--------|--------|--------|
D|--------|--------|--------|--------|--------|--------|--------|--------|--------|
A|--------|--------|--------|--------|--------|--------|--------|--------|--------|
E|--------|--------|--------|--------|--------|--------|--------|--------|--------|


E|--------|--------|--------|--------|--------|--------|--------|--------|--------|
B|--------|--------|--------|--------|--------|--------|--------|--------|--------|
G|--------|--------|--------|--------|--------|--------|--------|--------|--------|
D|--------|--------|--------|--------|--------|--------|--------|--------|--------|
A|--------|--------|--------|--------|--------|--------|--------|--------|--------|
E|--------|--------|--------|--------|--------|--------|--------|--------|--------|


E|--------|--------|--------|--------|--------|--------|--------|--------|--------|
B|--------|--------|--------|--------|--------|--------|--------|--------|--------|
G|--------|--------|--------|--------|--------|--------|--------|--------|--------|
D|--------|--------|--------|--------|--------|--------|--------|--------|--------|
A|--------|--------|--------|--------|--------|--------|--------|--------|--------|
E|--------|--------|--------|--------|--------|--------|--------|--------|--------|


E|--------|--------|--------|--------|--------|--------|--------|--------|--------|
B|--------|--------|--------|--------|--------|--------|--------|--------|--------|
G|--------|--------|--------|--------|--------|--------|--------|--------|--------|
D|--------|--------|--------|--------|--------|--------|--------|--------|--------|
A|--------|--------|--------|--------|--------|--------|--------|--------|--------|
E|--------|--------|--------|--------|--------|--------|--------|--------|--------|


E|--------|--------|--------|--------|--------|--------|--------|----------------|
B|--------|--------|--------|--------|--------|--------|--------|----------------|
G|--------|--------|--------|--------|--------|--------|--------|----------------|
D|--------|--------|--------|--------|--------|--------|--------|------------12--|
A|--------|--------|--------|--------|--------|--------|--------|--------10------|
E|--------|--------|--------|--------|--------|--------|--------|----------------|


E|---------------------------------|---------------------------------|---------------------------------|
B|-----10--10----------------------|-----10----------------------10--|-10--------------------------10--|
G|-12----------12------------------|-12------12--------------12------|-----12------------------12------|
D|-----------------12----------11--|-------------11------12----------|---------12----------11----------|
A|---------------------------------|-----------------10--------------|---------------------------------|
E|---------------------12--12------|---------------------------------|-------------12--12--------------|


E|---------------------------------|---------------------------------|---------------------------------|
B|---------------------12--12------|---------------------14----------|-------------12--12--------------|
G|-12--------------12----------12--|-----------------14------14------|---------12----------12----------|
D|-----11------12------------------|-12----------14--------------14--|-----12------------------12------|
A|---------------------------------|---------------------------------|---------------------------------|
E|---------10----------------------|-----9---9-----------------------|-10--------------------------12--|


E|---------------------------------|---------------------------------|---------------------------------|
B|-------------14------------------|-----10--10----------------------|-----10----------------------10--|
G|---------14------14--------------|-12----------12------------------|-12------12--------------12------|
D|-----14--------------14------12--|-----------------12----------11--|-------------11------12----------|
A|-------------------------10------|---------------------------------|-----------------10--------------|
E|-12------------------------------|---------------------12--12------|---------------------------------|


E|---------------------------------|---------------------------------|---------------------------------|
B|-10--------------------------10--|---------------------12--12------|---------------------14----------|
G|-----12------------------12------|-12--------------12----------12--|-----------------14------14------|
D|---------12----------11----------|-----11------12------------------|-12----------14--------------14--|
A|---------------------------------|---------------------------------|---------------------------------|
E|-------------12--12--------------|---------10----------------------|-----9---9-----------------------|


E|---------------------------------|---------------------------------|---------------------------------|
B|-------------12--12--------------|-------------14------------------|-----10--10----------------------|
G|---------12----------12----------|---------14------14--------------|-12----------12------------------|
D|-----12------------------12------|-----14--------------14------12--|-----------------12----------11--|
A|---------------------------------|-------------------------10------|---------------------------------|
E|-10--------------------------12--|-12------------------------------|---------------------12--12------|


E|---------------------------------|---------------------------------|---------------------------------|
B|-----10----------------------10--|-10--------------------------10--|---------------------12--12------|
G|-12------12--------------12------|-----12------------------12------|-12--------------12----------12--|
D|-------------11------12----------|---------12----------11----------|-----11------12------------------|
A|-----------------10--------------|---------------------------------|---------------------------------|
E|---------------------------------|-------------12--12--------------|---------10----------------------|


E|---------------------------------|---------------------------------|---------------------------------|
B|---------------------14----------|-------------12--12--------------|-------------14------------------|
G|-----------------14------14------|---------12----------12----------|---------14------14--------------|
D|-12----------14--------------14--|-----12------------------12------|-----14--------------14------12--|
A|---------------------------------|---------------------------------|-------------------------10------|
E|-----9---9-----------------------|-10--------------------------12--|-12------------------------------|


E|---------------------------------|---------------------------------|---------------------------------|
B|-----10--10----------------------|-----10----------------------10--|-10--------------------------10--|
G|-12----------12------------------|-12------12--------------12------|-----12------------------12------|
D|-----------------12----------11--|-------------11------12----------|---------12----------11----------|
A|---------------------------------|-----------------10--------------|---------------------------------|
E|---------------------12--12------|---------------------------------|-------------12--12--------------|


E|---------------------------------|---------------------------------|---------------------------------|
B|---------------------12--12------|---------------------14----------|-------------12--12--------------|
G|-12--------------12----------12--|-----------------14------14------|---------12----------12----------|
D|-----11------12------------------|-12----------14--------------14--|-----12------------------12------|
A|---------------------------------|---------------------------------|---------------------------------|
E|---------10----------------------|-----9---9-----------------------|-10--------------------------12--|


E|---------------------------------|---------------------------|--------|--------|
B|-------------14------------------|-----10--10----------------|--------|--------|
G|---------14------14--------------|-12----------12------------|--------|--------|
D|-----14--------------14------12--|-----------------12--------|--------|--------|
A|-------------------------10------|---------------------------|--------|--------|
E|-12------------------------------|---------------------------|--------|--------|


E|--------|--------|--------|--------|--------|--------|--------|--------|--------|
B|--------|--------|--------|--------|--------|--------|--------|--------|--------|
G|--------|--------|--------|--------|--------|--------|--------|--------|--------|
D|--------|--------|--------|--------|--------|--------|--------|--------|--------|
A|--------|--------|--------|--------|--------|--------|--------|--------|--------|
E|--------|--------|--------|--------|--------|--------|--------|--------|--------|


E|--------|--------|--------|--------|--------|--------|--------|--------|--------|
B|--------|--------|--------|--------|--------|--------|--------|--------|--------|
G|--------|--------|--------|--------|--------|--------|--------|--------|--------|
D|--------|--------|--------|--------|--------|--------|--------|--------|--------|
A|--------|--------|--------|--------|--------|--------|--------|--------|--------|
E|--------|--------|--------|--------|--------|--------|--------|--------|--------|


E|--------|--------|--------|------------------------------|---------------------------------|
B|--------|--------|--------|------------------10--10------|---------------------10----------|
G|--------|--------|--------|--------------12----------12--|-----------------12------12------|
D|--------|--------|--------|----------12------------------|-12----------11--------------11--|
A|--------|--------|--------|------10----------------------|---------------------------------|
E|--------|--------|--------|------------------------------|-----12--12----------------------|


E|---------------------------------|---------------------------------|---------------------------------|
B|-------------10--10--------------|-------------10------------------|-----12--12----------------------|
G|---------12----------12----------|---------12------12--------------|-12----------12------------------|
D|-----12------------------12------|-----11--------------11------12--|-----------------12----------14--|
A|-10------------------------------|---------------------------------|---------------------------------|
E|-----------------------------12--|-12----------------------10------|---------------------9---9-------|


E|---------------------------------|---------------------------------|---------------------------------|
B|-----14----------------------12--|-12--------------------------14--|---------------------10--10------|
G|-14------14--------------12------|-----12------------------14------|-14--------------12----------12--|
D|-------------14------12----------|---------12----------14----------|-----14------12------------------|
A|---------------------------------|---------------------------------|---------10----------------------|
E|-----------------10--------------|-------------12--12--------------|---------------------------------|


E|---------------------------------|---------------------------------|---------------------------------|
B|---------------------10----------|-------------10--10--------------|-------------10------------------|
G|-----------------12------12------|---------12----------12----------|---------12------12--------------|
D|-12----------11--------------11--|-----12------------------12------|-----11--------------11------12--|
A|---------------------------------|-10------------------------------|---------------------------------|
E|-----12--12----------------------|-----------------------------12--|-12----------------------10------|


E|---------------------------------|---------------------------------|---------------------------------|
B|-----12--12----------------------|-----14----------------------12--|-12--------------------------14--|
G|-12----------12------------------|-14------14--------------12------|-----12------------------14------|
D|-----------------12----------14--|-------------14------12----------|---------12----------14----------|
A|---------------------------------|---------------------------------|---------------------------------|
E|---------------------9---9-------|-----------------10--------------|-------------12--12--------------|


E|---------------------------------|---------------------------------|---------------------------------|
B|---------------------10--10------|---------------------10----------|-------------10--10--------------|
G|-14--------------12----------12--|-----------------12------12------|---------12----------12----------|
D|-----14------12------------------|-12----------11--------------11--|-----12------------------12------|
A|---------10----------------------|---------------------------------|-10------------------------------|
E|---------------------------------|-----12--12----------------------|-----------------------------12--|


E|---------------------------------|---------------------------------|---------------------------------|
B|-------------10------------------|-----12--12----------------------|-----14----------------------12--|
G|---------12------12--------------|-12----------12------------------|-14------14--------------12------|
D|-----11--------------11------12--|-----------------12----------14--|-------------14------12----------|
A|---------------------------------|---------------------------------|---------------------------------|
E|-12----------------------10------|---------------------9---9-------|-----------------10--------------|


E|---------------------------------|---------------------------------|---------------------------------|
B|-12--------------------------14--|---------------------10--10------|---------------------10----------|
G|-----12------------------14------|-14--------------12----------12--|-----------------12------12------|
D|---------12----------14----------|-----14------12------------------|-12----------11--------------11--|
A|---------------------------------|---------10----------------------|---------------------------------|
E|-------------12--12--------------|---------------------------------|-----12--12----------------------|


E|---------------------------------|---------------------------------|---------------------------------|
B|-------------10--10--------------|-------------10------------------|-----12--12----------------------|
G|---------12----------12----------|---------12------12--------------|-12----------12------------------|
D|-----12------------------12------|-----11--------------11------12--|-----------------12----------14--|
A|-10------------------------------|---------------------------------|---------------------------------|
E|-----------------------------12--|-12----------------------10------|---------------------9---9-------|


E|---------------------------------|---------------------------------|---------------------------------|
B|-----14----------------------12--|-12--------------------------14--|---------------------10--10------|
G|-14------14--------------12------|-----12------------------14------|-14--------------12----------12--|
D|-------------14------12----------|---------12----------14----------|-----14------12------------------|
A|---------------------------------|---------------------------------|---------10----------------------|
E|-----------------10--------------|-------------12--12--------------|---------------------------------|


E|---------------------------------|---------------------------------|-----------------------|
B|---------------------10----------|-------------10--10--------------|-----------------------|
G|-----------------12------12------|---------12----------12----------|---------12------------|
D|-12----------11--------------11--|-----12------------------12------|-----11----------------|
A|---------------------------------|-10------------------------------|-----------------------|
E|-----12--12----------------------|-----------------------------12--|-12--------------------|


E|--------|--------|--------|--------|--------|--------|--------|--------|--------|
B|--------|--------|--------|--------|--------|--------|--------|--------|--------|
G|--------|--------|--------|--------|--------|--------|--------|--------|--------|
D|--------|--------|--------|--------|--------|--------|--------|--------|--------|
A|--------|--------|--------|--------|--------|--------|--------|--------|--------|
E|--------|--------|--------|--------|--------|--------|--------|--------|--------|


E|--------|--------|--------|--------|--------|--------|--------|--------|--------|
B|--------|--------|--------|--------|--------|--------|--------|--------|--------|
G|--------|--------|--------|--------|--------|--------|--------|--------|--------|
D|--------|--------|--------|--------|--------|--------|--------|--------|--------|
A|--------|--------|--------|--------|--------|--------|--------|--------|--------|
E|--------|--------|--------|--------|--------|--------|--------|--------|--------|


E|--------|--------|--------|--------|--------|--------|--------|--------|--------|
B|--------|--------|--------|--------|--------|--------|--------|--------|--------|
G|--------|--------|--------|--------|--------|--------|--------|--------|--------|
D|--------|--------|--------|--------|--------|--------|--------|--------|--------|
A|--------|--------|--------|--------|--------|--------|--------|--------|--------|
E|--------|--------|--------|--------|--------|--------|--------|--------|--------|


E|--------|--------|--------|--------|--------|--------|--------|--------|--------|
B|--------|--------|--------|--------|--------|--------|--------|--------|--------|
G|--------|--------|--------|--------|--------|--------|--------|--------|--------|
D|--------|--------|--------|--------|--------|--------|--------|--------|--------|
A|--------|--------|--------|--------|--------|--------|--------|--------|--------|
E|--------|--------|--------|--------|--------|--------|--------|--------|--------|


E|--------|--------|--------|
B|--------|--------|--------|
G|--------|--------|--------|
D|--------|--------|--------|
A|--------|--------|--------|
E|--------|--------|--------|





Track 5: Untitled

G|--------|--------|--------|--------|--------|--------|--------|--------|--------|
D|--------|--------|--------|--------|--------|--------|--------|--------|--------|
A|--------|--------|--------|--------|--------|--------|--------|--------|--------|
E|--------|--------|--------|--------|--------|--------|--------|--------|--------|


G|--------|--------|--------|--------|--------|--------|--------|--------|--------|
D|--------|--------|--------|--------|--------|--------|--------|--------|--------|
A|--------|--------|--------|--------|--------|--------|--------|--------|--------|
E|--------|--------|--------|--------|--------|--------|--------|--------|--------|


G|--------|--------|--------|--------|--------|--------|--------|--------|--------|
D|--------|--------|--------|--------|--------|--------|--------|--------|--------|
A|--------|--------|--------|--------|--------|--------|--------|--------|--------|
E|--------|--------|--------|--------|--------|--------|--------|--------|--------|


G|--------|--------|--------|--------|--------|--------|--------|--------|--------|
D|--------|--------|--------|--------|--------|--------|--------|--------|--------|
A|--------|--------|--------|--------|--------|--------|--------|--------|--------|
E|--------|--------|--------|--------|--------|--------|--------|--------|--------|


G|--------|--------|--------|--------|--------|--------|--------|--------|--------|
D|--------|--------|--------|--------|--------|--------|--------|--------|--------|
A|--------|--------|--------|--------|--------|--------|--------|--------|--------|
E|--------|--------|--------|--------|--------|--------|--------|--------|--------|


G|--------|--------|--------|--------|--------|--------|--------|--------|--------|
D|--------|--------|--------|--------|--------|--------|--------|--------|--------|
A|--------|--------|--------|--------|--------|--------|--------|--------|--------|
E|--------|--------|--------|--------|--------|--------|--------|--------|--------|


G|--------|--------|--------|--------|--------|--------|--------|--------|--------|
D|--------|--------|--------|--------|--------|--------|--------|--------|--------|
A|--------|--------|--------|--------|--------|--------|--------|--------|--------|
E|--------|--------|--------|--------|--------|--------|--------|--------|--------|


G|--------|--------|--------|--------|--------|--------|--------|--------|--------|
D|--------|--------|--------|--------|--------|--------|--------|--------|--------|
A|--------|--------|--------|--------|--------|--------|--------|--------|--------|
E|--------|--------|--------|--------|--------|--------|--------|--------|--------|


G|--------|--------|--------|--------|--------|--------|--------|--------|--------|
D|--------|--------|--------|--------|--------|--------|--------|--------|--------|
A|--------|--------|--------|--------|--------|--------|--------|--------|--------|
E|--------|--------|--------|--------|--------|--------|--------|--------|--------|


G|--------|--------|--------|--------|--------|--------|--------|--------|--------|
D|--------|--------|--------|--------|--------|--------|--------|--------|--------|
A|--------|--------|--------|--------|--------|--------|--------|--------|--------|
E|--------|--------|--------|--------|--------|--------|--------|--------|--------|


G|--------|--------|--------|--------|--------|--------|--------|--------|--------|
D|--------|--------|--------|--------|--------|--------|--------|--------|--------|
A|--------|--------|--------|--------|--------|--------|--------|--------|--------|
E|--------|--------|--------|--------|--------|--------|--------|--------|--------|


G|--------|--------|--------|--------|--------|--------|--------|--------|--------|
D|--------|--------|--------|--------|--------|--------|--------|--------|--------|
A|--------|--------|--------|--------|--------|--------|--------|--------|--------|
E|--------|--------|--------|--------|--------|--------|--------|--------|--------|


G|--------|--------|--------|--------|--------|--------|--------|--------|--------|
D|--------|--------|--------|--------|--------|--------|--------|--------|--------|
A|--------|--------|--------|--------|--------|--------|--------|--------|--------|
E|--------|--------|--------|--------|--------|--------|--------|--------|--------|


G|--------|--------|--------|--------|--------|--------|--------|--------|--------|
D|--------|--------|--------|--------|--------|--------|--------|--------|--------|
A|--------|--------|--------|--------|--------|--------|--------|--------|--------|
E|--------|--------|--------|--------|--------|--------|--------|--------|--------|


G|--------|--------|--------|--------|--------|--------|--------|--------|--------|
D|--------|--------|--------|--------|--------|--------|--------|--------|--------|
A|--------|--------|--------|--------|--------|--------|--------|--------|--------|
E|--------|--------|--------|--------|--------|--------|--------|--------|--------|


G|--------|--------|--------|--------|--------|--------|--------|--------|--------|
D|--------|--------|--------|--------|--------|--------|--------|--------|--------|
A|--------|--------|--------|--------|--------|--------|--------|--------|--------|
E|--------|--------|--------|--------|--------|--------|--------|--------|--------|


G|--------|--------|--------|--------|--------|--------|--------|--------|--------|
D|--------|--------|--------|--------|--------|--------|--------|--------|--------|
A|--------|--------|--------|--------|--------|--------|--------|--------|--------|
E|--------|--------|--------|--------|--------|--------|--------|--------|--------|


G|--------|--------|--------|--------|--------|--------|--------|--------|--------|
D|--------|--------|--------|--------|--------|--------|--------|--------|--------|
A|--------|--------|--------|--------|--------|--------|--------|--------|--------|
E|--------|--------|--------|--------|--------|--------|--------|--------|--------|


G|--------|--------|--------|--------|--------|
D|--------|--------|--------|--------|--------|
A|--------|--------|--------|--------|--------|
E|--------|--------|--------|--------|--------|