Menu:

 

Search:

 

joe satriani - driving at night:

 



Title: Driving At Night
Artist: 
Album: Not Of This Earth
Author: Joe Satriani


Track 1: Lead Guitar

E|--------|--------|--------|--------|--------|--------|--------|--------|--------|
B|--------|--------|--------|--------|--------|--------|--------|--------|--------|
G|--------|--------|--------|--------|--------|--------|--------|--------|--------|
D|--------|--------|--------|--------|--------|--------|--------|--------|--------|
A|--------|--------|--------|-2------|--------|--------|--------|--------|--------|
E|--------|--------|--------|-0------|--------|--------|--------|--------|--------|


E|--------|--------|--------|-----2--------3---3--------|-5--------5---5---5---5----|
B|--------|--------|--------|-----3--------3---3--------|-3--------5---5---5---5----|
G|--------|--------|--------|---------------------------|---------------------------|
D|--------|--------|--------|---------------------------|---------------------------|
A|--------|--------|--------|---------------------------|---------------------------|
E|--------|--------|--------|---------------------------|---------------------------|


E|--------|--------|-----2--------3---3--------|-5--------5---5---5---5----|--------|
B|--------|--------|-----3--------3---3--------|-3--------5---5---5---5----|--------|
G|--------|--------|---------------------------|---------------------------|--------|
D|--------|--------|---------------------------|---------------------------|--------|
A|--------|--------|---------------------------|---------------------------|--------|
E|--------|--------|---------------------------|---------------------------|--------|


E|-----------------|--------------------|-------------|-----------------|---------------------------------|
B|-----------------|--------------------|-------------|-----------------|---------------------------------|
G|------------12---|-14---12--14--14----|-14-----14---|-14--------------|---------12--14--15--14--12------|
D|-------14--------|--------------------|-------------|-----------------|-----14----------------------14--|
A|-----------------|--------------------|-------------|-----------------|---------------------------------|
E|-----------------|--------------------|-------------|-----------------|---------------------------------|


E|--------------------|-------------|-------------|-----------------|---------------------------|
B|--------------------|-------------|-------------|-----------------|---------------------------|
G|-12---14------------|-------------|-------------|------------12---|-14--14--12--14--14---14---|
D|----------14--14----|-14-----14---|-14----------|-------14--------|---------------------------|
A|--------------------|-------------|-------------|-----------------|---------------------------|
E|--------------------|-------------|-------------|-----------------|---------------------------|


E|---------------------------|-----------------|---------------------------------|
B|---------------------------|-----------------|---------------------------------|
G|-14----14--12--------------|-----------------|---------12--14--15--14--12------|
D|--------------14-12--------|-----------------|-----14----------------------14--|
A|--------------------14-12--|-12--------------|---------------------------------|
E|---------------------------|-----------------|---------------------------------|


E|--------------------|-----------------|-----------------|-----------------|--------------------|
B|-15---15------------|-----------------|-----------------|------------15---|-17-------17--17----|
G|------------12------|-----------------|-----------------|-------16--------|--------------------|
D|----------------14--|-14---14----12---|-12----12--------|-----------------|--------------------|
A|--------------------|-----------------|-----------------|-----------------|--------------------|
E|--------------------|-----------------|-----------------|-----------------|--------------------|


E|----------------|--------|-------------14--15--14----------|------14------------|
B|-17-----17------|--------|-----15--17--------------17--15--|-17-------15--15----|
G|----------------|--------|---------------------------------|--------------------|
D|----------------|--------|---------------------------------|--------------------|
A|----------------|--------|---------------------------------|--------------------|
E|----------------|--------|---------------------------------|--------------------|


E|-----------------|-----------------|-----------------|-------------------------|
B|-15---15---------|-----------------|-----------------|-------------------------|
G|------------14---|-14--------------|------------12---|-14--15-14-12-14---14----|
D|-----------------|------14---------|-------14--------|-------------------------|
A|-----------------|------------12---|-12--------------|-------------------------|
E|-----------------|-----------------|-----------------|-------------------------|


E|-------------|--------|---------------------------------|------------------------|
B|-------------|--------|---------------------------------|-14---------------------|
G|-14----14----|--------|---------12--14--15--14--12------|-14---12----------------|
D|-------------|--------|-----14----------------------14--|----------14--14---14---|
A|-------------|--------|---------------------------------|------------------------|
E|-------------|--------|---------------------------------|------------------------|


E|-----------------|-------------|-------------|-5-----7---7----8----|-8----12---12---17---|
B|-----------------|-------------|-------------|---------------------|---------------------|
G|-----------------|-------------|-------------|---------------------|---------------------|
D|-14----16---12---|-12----12----|-12-----10---|---------------------|---------------------|
A|-----------------|-------------|--------12---|---------------------|---------------------|
E|-----------------|-------------|-------------|---------------------|---------------------|


E|-5-----7---7----8----|-8----10---10--10-20-15---|-5-----7---7----8----|-8----13---13---12---|
B|---------------------|--------------------------|---------------------|---------------------|
G|---------------------|--------------------------|---------------------|---------------------|
D|---------------------|--------------------------|---------------------|---------------------|
A|---------------------|--------------------------|---------------------|---------------------|
E|---------------------|--------------------------|---------------------|---------------------|


E|-10----12--12--------|-----------------|-13----15--15---17---|-17---22----22------|
B|----------------13---|-13---13----18---|-15----17--17---18---|-18---22----22------|
G|---------------------|-----------------|---------------------|--------------------|
D|---------------------|-----------------|---------------------|--------------------|
A|---------------------|-----------------|---------------------|--------------------|
E|---------------------|-----------------|---------------------|--------------------|


E|-13----15--15---17---|-17---20---20--------|-17----17----17--|-17--15-17-15-14--15--14--------------|
B|-15----17--17---18---|-18---20---20--------|-----------------|--------------------------17--16------|
G|---------------------|---------------------|-----------------|----------------------------------17--|
D|---------------------|---------------------|-----------------|--------------------------------------|
A|---------------------|---------------------|-----------------|--------------------------------------|
E|---------------------|---------------------|-----------------|--------------------------------------|


E|-------------|--------|--------|--------|--------|--------|--------|--------|--------|
B|-------------|--------|--------|--------|--------|--------|--------|--------|--------|
G|-16----16----|-16-----|--------|--------|--------|--------|--------|--------|--------|
D|-------------|--------|--------|--------|--------|--------|--------|--------|--------|
A|-------------|--------|--------|--------|--------|--------|--------|--------|--------|
E|-------------|--------|--------|--------|--------|--------|--------|--------|--------|


E|--------|--------|--------|--------|--------|--------|--------|--------|------------------------|
B|--------|--------|--------|--------|--------|--------|--------|--------|----------7---7---------|
G|--------|--------|--------|--------|--------|--------|--------|--------|-------------------7----|
D|--------|--------|--------|--------|--------|--------|--------|--------|------------------------|
A|--------|--------|--------|--------|--------|--------|--------|--------|------------------------|
E|--------|--------|--------|--------|--------|--------|--------|--------|------------------------|


E|-----------------|--------|--------|-12----------|--------|--------|-----------------|
B|-----------------|--------|--------|--------12---|-12-----|-12-----|-----------------|
G|-7---------------|--------|--------|-------------|--------|--------|-7---------------|
D|-------7---7-----|-7------|-7------|-------------|--------|--------|-------7---7-----|
A|-----------------|--------|--------|-------------|--------|--------|-----------------|
E|-----------------|--------|--------|-------------|--------|--------|-----------------|


E|--------|--------|-------------|--------|-----------------|-7-------------------------|
B|--------|-7------|-7-----7-----|-7------|-7-----7---------|-7----7----7---7---7---7---|
G|--------|-5------|-5-----5-----|-5------|-5-----5---------|-7-------------------------|
D|-7------|--------|-------------|--------|-----------------|-7-------------------------|
A|--------|--------|-------------|--------|-----------------|---------------------------|
E|--------|--------|-------------|--------|-----------------|---------------------------|


E|-----------------|--------|--------|-19-17-14-14-17-15-14-12-15-14-12-10-14-12-10-9--|
B|-----------------|--------|--------|-------------------------------------------------|
G|-7---------------|--------|--------|-------------------------------------------------|
D|-------7---7-----|-7------|-7------|-------------------------------------------------|
A|-----------------|--------|--------|-------------------------------------------------|
E|-----------------|--------|--------|-------------------------------------------------|


E|-12-10-9--7--10-9--7--5--9--7--5--3--7--5--------|---------5---7-------------------|
B|-------------------------------------------8--7--|-7---8-----------5---7-----------|
G|-------------------------------------------------|-------------------------6---4---|
D|-------------------------------------------------|---------------------------------|
A|-------------------------------------------------|---------------------------------|
E|-------------------------------------------------|---------------------------------|


E|-----------------------|-14-17-14-10----10-14-10-14-------14-17-14-------17-|-21-17-14--------14-17-14-10-----10-14-10-14-|
B|-----------------------|-------------------------------15-------------19----|--------------15-----------------------------|
G|-----------------------|----------------------------------------------------|---------------------------------------------|
D|-----------------------|----------------------------------------------------|---------------------------------------------|
A|---------7-------------|----------------------------------------------------|---------------------------------------------|
E|-7---5-------7---7-----|----------------------------------------------------|---------------------------------------------|


E|-14-17-14-10-10-14-10-9--10-9------9---5---|-9---5---9---5---5---5---5---12------|
B|-------------------------------10----------|-------------------------------------|
G|-------------------------------------------|-------------------------------------|
D|-------------------------------------------|-------------------------------------|
A|-------------------------------------------|-------------------------------------|
E|-------------------------------------------|-------------------------------------|


E|-----19------17------------------|---------------------------------|------------------------------------22-22-22-|
B|-17------15----------17------15--|---------------------------------|-----------17-17-17-17-----------22-22-22-22-|
G|-----------------16------14------|-----16------14------------------|-----16-16-16-16-16-16-----19-19-------------|
D|---------------------------------|-14------12----------14----------|-14--------------------17--------------------|
A|---------------------------------|-----------------12------12--10--|---------------------------------------------|
E|---------------------------------|---------------------------------|---------------------------------------------|


E|-----------------17-17-17---10--17--|-19-17-15-14-17-15-14-12-15-14-12-10-14-12-10-9--|
B|--------------17-17-17-17-----------|-------------------------------------------------|
G|-----14-14-14-14-14-----------------|-------------------------------------------------|
D|-12---------------------------------|-------------------------------------------------|
A|------------------------------------|-------------------------------------------------|
E|------------------------------------|-------------------------------------------------|


E|-12-10-9--7--12-7--10-7-----7--12-7--10-7-----7--|-12-7--10-7--9--7--10-7--12-7--10-7--9--7--10-7--|
B|-------------------------10----------------10----|-------------------------------------------------|
G|-------------------------------------------------|-------------------------------------------------|
D|-------------------------------------------------|-------------------------------------------------|
A|-------------------------------------------------|-------------------------------------------------|
E|-------------------------------------------------|-------------------------------------------------|


E|-12-7--10-7--9--7--10-7--12-7--10-7--7-------|-12-12---------12-14-14--------12-12-----|
B|---------------------------------------------|-12-14--12-----12-14-14-12-----12-14--12-|
G|---------------------------------------------|-----------------------------------------|
D|---------------------------------------------|-----------14--------------14------------|
A|---------------------------------------------|-----------------------------------------|
E|---------------------------------------------|-----------------------------------------|


E|-----12-12-12--------12-14---------12--|-12--------12-12---------12--12--------|
B|-----12-14-14-12-----12-14--12-----12--|-14-12-----12-14--12-----12--14-12-----|
G|---------------------------------------|---------------------------------------|
D|-14--------------14------------14------|-------14------------14------------14--|
A|---------------------------------------|---------------------------------------|
E|---------------------------------------|---------------------------------------|


E|-12------------12--12--------12------|-----------------------|-----------------------|
B|-12--14-12-----12--14-12-----12------|---------17--15--15----|-----------------------|
G|-------------------------------------|-14------16--14--14----|---------14--12--12----|
D|-----------14------------------------|-14--------------------|-12------14--12--12----|
A|-------------------------------------|-----------------------|-----------------------|
E|-------------------------------------|-----------------------|-----------------------|


E|-----------------|-----------------|---------------------------|-----------------|
B|------12----12---|-12---------7----|-7----------7----7---------|------12---------|
G|-14--------------|------16---------|----7----7--7----7---------|------------12---|
D|-14--------------|-----------------|----------------------7----|-7---------------|
A|-----------------|-----------------|---------------------------|-----------------|
E|-----------------|-----------------|---------------------------|-----------------|


E|--------|-------------|-------------|-------------|--------|--------------------|
B|--------|--------7----|-7-----------|-------------|--------|--------------------|
G|-12-----|-12----------|------7------|--------0----|-0------|-0-------------12---|
D|--------|-------------|-------------|-7-----------|--------|-----------14-------|
A|--------|-------------|-------------|-------------|--------|--------------------|
E|--------|-------------|-------------|-------------|--------|--------------------|


E|--------------------|--------------------------|-------------|---------------------------------|
B|--------------------|--------------------------|-------------|---------------------------------|
G|-14---12--14--14----|-14-----14-12-------------|-------------|---------12--14--15--14--12------|
D|--------------------|--------------14-12-------|-------------|-----14----------------------14--|
A|--------------------|--------------------14-12-|-12----------|---------------------------------|
E|--------------------|--------------------------|-------------|---------------------------------|


E|------------------------|-------------|---------------------|-----------------|-------------------------|
B|------------------------|-------------|---------------------|------------8----|-10--10-10-8---10--10----|
G|-12---14----------------|-------------|---------------------|-------9---------|-------------------------|
D|----------14--14---14---|-14-----12---|-12---11---11----9---|-9---------------|-------------------------|
A|------------------------|-------------|---------------------|-----------------|-------------------------|
E|------------------------|-------------|---------------------|-----------------|-------------------------|


E|-------------------------|--------|------------------------------|------------12------|
B|-10----10---8------------|--------|------------------------------|-15---15--------15--|
G|---------------9--7------|--------|---------12--14--15--14--12---|--------------------|
D|---------------------9---|--------|-----14-----------------------|--------------------|
A|-------------------------|--------|------------------------------|--------------------|
E|-------------------------|--------|------------------------------|--------------------|


E|-----------------|---------------------|-----------------|--------|--------|--------|
B|-15----15---15---|-15--15----15----15--|-15---15---------|--------|--------|--------|
G|-----------------|---------------------|-----------------|--------|--------|--------|
D|-----------------|---------------------|------------10---|--------|--------|--------|
A|-----------------|---------------------|------------12---|--------|--------|--------|
E|-----------------|---------------------|-----------------|--------|--------|--------|


E|--------|--------|--------|--------|--------|--------|--------|--------|--------|
B|--------|--------|--------|--------|--------|--------|--------|--------|--------|
G|--------|--------|--------|--------|--------|--------|--------|--------|--------|
D|--------|--------|--------|--------|--------|--------|--------|--------|--------|
A|--------|--------|--------|--------|--------|--------|--------|--------|--------|
E|--------|--------|--------|--------|--------|--------|--------|--------|--------|


E|--------|--------|--------|--------|
B|--------|--------|--------|--------|
G|--------|--------|--------|--------|
D|--------|--------|--------|--------|
A|--------|--------|--------|--------|
E|--------|--------|--------|--------|





Track 2: Rhythm Guitar II

E|--------|--------|--------|--------|-----2--------3---3--------|-5--------5---5---5---5----|
B|--------|--------|--------|--------|-----3--------3---3--------|-3--------5---5---5---5----|
G|--------|--------|--------|--------|---------------------------|---------------------------|
D|--------|--------|--------|--------|---------------------------|---------------------------|
A|--------|--------|--------|--------|---------------------------|---------------------------|
E|--------|--------|--------|--------|---------------------------|---------------------------|


E|-----7--------7---7--------|-7--------7---7---7---7----|-----2--------3---3--------|
B|-----7--------7---7--------|-7--------7---7---7---7----|-----3--------3---3--------|
G|---------------------------|---------------------------|---------------------------|
D|---------------------------|---------------------------|---------------------------|
A|---------------------------|---------------------------|---------------------------|
E|---------------------------|---------------------------|---------------------------|


E|-5--------5---5---5---5----|-----7--------7---7--------|-7--------7---7---7---7----|
B|-3--------5---5---5---5----|-----7--------7---7--------|-7--------7---7---7---7----|
G|---------------------------|---------------------------|---------------------------|
D|---------------------------|---------------------------|---------------------------|
A|---------------------------|---------------------------|---------------------------|
E|---------------------------|---------------------------|---------------------------|


E|--------|--------|-----7--------7---7--------|-7--------7---7---7---7----|--------|
B|--------|--------|-----7--------7---7--------|-7--------7---7---7---7----|--------|
G|--------|--------|---------------------------|---------------------------|--------|
D|--------|--------|---------------------------|---------------------------|--------|
A|--------|--------|---------------------------|---------------------------|--------|
E|--------|--------|---------------------------|---------------------------|--------|


E|--------|-----7--------7---7--------|-7--------7---7---7---7----|-----2--------3---3--------|
B|--------|-----7--------7---7--------|-7--------7---7---7---7----|-----3--------3---3--------|
G|--------|---------------------------|---------------------------|---------------------------|
D|--------|---------------------------|---------------------------|---------------------------|
A|--------|---------------------------|---------------------------|---------------------------|
E|--------|---------------------------|---------------------------|---------------------------|


E|-5--------5---5---5---5----|-----7--------7---7--------|-7--------7---7---7---7----|
B|-3--------5---5---5---5----|-----7--------7---7--------|-7--------7---7---7---7----|
G|---------------------------|---------------------------|---------------------------|
D|---------------------------|---------------------------|---------------------------|
A|---------------------------|---------------------------|---------------------------|
E|---------------------------|---------------------------|---------------------------|


E|-----2--------3---3--------|-5--------5---5---5---5----|-----7--------7---7--------|
B|-----3--------3---3--------|-3--------5---5---5---5----|-----7--------7---7--------|
G|---------------------------|---------------------------|---------------------------|
D|---------------------------|---------------------------|---------------------------|
A|---------------------------|---------------------------|---------------------------|
E|---------------------------|---------------------------|---------------------------|


E|-7--------7---7---7---7----|-----2--------3---3--------|-5--------5---5---5---5----|
B|-7--------7---7---7---7----|-----3--------3---3--------|-3--------5---5---5---5----|
G|---------------------------|---------------------------|---------------------------|
D|---------------------------|---------------------------|---------------------------|
A|---------------------------|---------------------------|---------------------------|
E|---------------------------|---------------------------|---------------------------|


E|-----7--------7---7--------|-7--------7---7---7---7----|-----2--------3---3--------|
B|-----7--------7---7--------|-7--------7---7---7---7----|-----3--------3---3--------|
G|---------------------------|---------------------------|---------------------------|
D|---------------------------|---------------------------|---------------------------|
A|---------------------------|---------------------------|---------------------------|
E|---------------------------|---------------------------|---------------------------|


E|-5--------5---5---5---5----|-----7--------7---7--------|-7--------7---7---7---7----|
B|-3--------5---5---5---5----|-----7--------7---7--------|-7--------7---7---7---7----|
G|---------------------------|---------------------------|---------------------------|
D|---------------------------|---------------------------|---------------------------|
A|---------------------------|---------------------------|---------------------------|
E|---------------------------|---------------------------|---------------------------|


E|-----2--------3---3--------|-5--------5---5---5---5----|-----7--------7---7--------|
B|-----3--------3---3--------|-3--------5---5---5---5----|-----7--------7---7--------|
G|---------------------------|---------------------------|---------------------------|
D|---------------------------|---------------------------|---------------------------|
A|---------------------------|---------------------------|---------------------------|
E|---------------------------|---------------------------|---------------------------|


E|-7--------7---7---7---7----|-----2--------3---3--------|-5--------5---5---5---5----|
B|-7--------7---7---7---7----|-----3--------3---3--------|-3--------5---5---5---5----|
G|---------------------------|---------------------------|---------------------------|
D|---------------------------|---------------------------|---------------------------|
A|---------------------------|---------------------------|---------------------------|
E|---------------------------|---------------------------|---------------------------|


E|-----7--------7---7--------|-7--------7---7---7---7----|-----2--------3---3--------|
B|-----7--------7---7--------|-7--------7---7---7---7----|-----3--------3---3--------|
G|---------------------------|---------------------------|---------------------------|
D|---------------------------|---------------------------|---------------------------|
A|---------------------------|---------------------------|---------------------------|
E|---------------------------|---------------------------|---------------------------|


E|-5--------5---5---5---5----|-----7--------7---7--------|-7--------7---7---7---7----|
B|-3--------5---5---5---5----|-----7--------7---7--------|-7--------7---7---7---7----|
G|---------------------------|---------------------------|---------------------------|
D|---------------------------|---------------------------|---------------------------|
A|---------------------------|---------------------------|---------------------------|
E|---------------------------|---------------------------|---------------------------|


E|-----2--------3---3--------|-5--------5---5---5---5----|-----7--------7---7--------|
B|-----3--------3---3--------|-3--------5---5---5---5----|-----7--------7---7--------|
G|---------------------------|---------------------------|---------------------------|
D|---------------------------|---------------------------|---------------------------|
A|---------------------------|---------------------------|---------------------------|
E|---------------------------|---------------------------|---------------------------|


E|-7--------7---7---7---7----|--------|--------|--------|--------|--------|--------|
B|-7--------7---7---7---7----|--------|--------|--------|--------|--------|--------|
G|---------------------------|--------|--------|--------|--------|--------|--------|
D|---------------------------|--------|--------|--------|--------|--------|--------|
A|---------------------------|--------|--------|--------|--------|--------|--------|
E|---------------------------|--------|--------|--------|--------|--------|--------|


E|--------|--------|--------|--------|--------|--------|--------|--------|--------|
B|--------|--------|--------|--------|--------|--------|--------|--------|--------|
G|--------|--------|--------|--------|--------|--------|--------|--------|--------|
D|--------|--------|--------|--------|--------|--------|--------|--------|--------|
A|--------|--------|--------|--------|--------|--------|--------|--------|--------|
E|--------|--------|--------|--------|--------|--------|--------|--------|--------|


E|--------|-----5--------5---5--------|-5-----------5---5---5---5---5---|-----5--------5---5--------|
B|--------|-----5--------5---5--------|-5-----------5---5---5---5---5---|-----5--------5---5--------|
G|--------|---------------------------|---------------------------------|---------------------------|
D|--------|---------------------------|---------------------------------|---------------------------|
A|--------|---------------------------|---------------------------------|---------------------------|
E|--------|---------------------------|---------------------------------|---------------------------|


E|-5-----------5---5---5---5---5---|-----5--------5---5--------|-5-----------5---5---5---5---5---|
B|-5-----------5---5---5---5---5---|-----5--------5---5--------|-5-----------5---5---5---5---5---|
G|---------------------------------|---------------------------|---------------------------------|
D|---------------------------------|---------------------------|---------------------------------|
A|---------------------------------|---------------------------|---------------------------------|
E|---------------------------------|---------------------------|---------------------------------|


E|-----5--------5---5--------|-5-----------5---5---5---5---5---|-----5--------5---5--------|
B|-----5--------5---5--------|-5-----------5---5---5---5---5---|-----5--------5---5--------|
G|---------------------------|---------------------------------|---------------------------|
D|---------------------------|---------------------------------|---------------------------|
A|---------------------------|---------------------------------|---------------------------|
E|---------------------------|---------------------------------|---------------------------|


E|-5-----------5---5---5---5---5---|-----5--------5---5--------|-5-----------5---5---5---5---5---|
B|-5-----------5---5---5---5---5---|-----5--------5---5--------|-5-----------5---5---5---5---5---|
G|---------------------------------|---------------------------|---------------------------------|
D|---------------------------------|---------------------------|---------------------------------|
A|---------------------------------|---------------------------|---------------------------------|
E|---------------------------------|---------------------------|---------------------------------|


E|-----5--------5---5--------|-5-----------5---5---5---5---5---|-----5--------5---5--------|
B|-----5--------5---5--------|-5-----------5---5---5---5---5---|-----5--------5---5--------|
G|---------------------------|---------------------------------|---------------------------|
D|---------------------------|---------------------------------|---------------------------|
A|---------------------------|---------------------------------|---------------------------|
E|---------------------------|---------------------------------|---------------------------|


E|-5-----------5---5---5---5---5---|-----5--------5---5--------|-5-----------5---5---5---5---5---|
B|-5-----------5---5---5---5---5---|-----5--------5---5--------|-5-----------5---5---5---5---5---|
G|---------------------------------|---------------------------|---------------------------------|
D|---------------------------------|---------------------------|---------------------------------|
A|---------------------------------|---------------------------|---------------------------------|
E|---------------------------------|---------------------------|---------------------------------|


E|-----5--------5---5--------|-5-----------5---5---5---5---5---|-----5--------5---5--------|
B|-----5--------5---5--------|-5-----------5---5---5---5---5---|-----5--------5---5--------|
G|---------------------------|---------------------------------|---------------------------|
D|---------------------------|---------------------------------|---------------------------|
A|---------------------------|---------------------------------|---------------------------|
E|---------------------------|---------------------------------|---------------------------|


E|-5-----------5---5---5---5---5---|-----5--------5---5--------|-5-----------5---5---5---5---5---|
B|-5-----------5---5---5---5---5---|-----5--------5---5--------|-5-----------5---5---5---5---5---|
G|---------------------------------|---------------------------|---------------------------------|
D|---------------------------------|---------------------------|---------------------------------|
A|---------------------------------|---------------------------|---------------------------------|
E|---------------------------------|---------------------------|---------------------------------|


E|-----5--------5---5--------|-5-----------5---5---5---5---5---|-----5--------5---5--------|
B|-----5--------5---5--------|-5-----------5---5---5---5---5---|-----5--------5---5--------|
G|---------------------------|---------------------------------|---------------------------|
D|---------------------------|---------------------------------|---------------------------|
A|---------------------------|---------------------------------|---------------------------|
E|---------------------------|---------------------------------|---------------------------|


E|-5-----------5---5---5---5---5---|-----5--------5---5--------|-5-----------5---5---5---5---5---|
B|-5-----------5---5---5---5---5---|-----5--------5---5--------|-5-----------5---5---5---5---5---|
G|---------------------------------|---------------------------|---------------------------------|
D|---------------------------------|---------------------------|---------------------------------|
A|---------------------------------|---------------------------|---------------------------------|
E|---------------------------------|---------------------------|---------------------------------|


E|-----5--------5---5--------|-5-----------5---5---5---5---5---|-----5--------5---5--------|
B|-----5--------5---5--------|-5-----------5---5---5---5---5---|-----5--------5---5--------|
G|---------------------------|---------------------------------|---------------------------|
D|---------------------------|---------------------------------|---------------------------|
A|---------------------------|---------------------------------|---------------------------|
E|---------------------------|---------------------------------|---------------------------|


E|-5-----------5---5---5---5---5---|-----5--------5---5--------|-5-----------5---5---5---5---5---|
B|-5-----------5---5---5---5---5---|-----5--------5---5--------|-5-----------5---5---5---5---5---|
G|---------------------------------|---------------------------|---------------------------------|
D|---------------------------------|---------------------------|---------------------------------|
A|---------------------------------|---------------------------|---------------------------------|
E|---------------------------------|---------------------------|---------------------------------|


E|-5-----------5---5---5---5---5---|-----5--------5---5--------|-----5--------5---5--------|
B|-5-----------5---5---5---5---5---|-----5--------5---5--------|-----5--------5---5--------|
G|---------------------------------|---------------------------|---------------------------|
D|---------------------------------|---------------------------|---------------------------|
A|---------------------------------|---------------------------|---------------------------|
E|---------------------------------|---------------------------|---------------------------|


E|-5-----------5---5---5---5---5---|-----5--------5---5--------|-5-----------5---5---5---5---5---|
B|-5-----------5---5---5---5---5---|-----5--------5---5--------|-5-----------5---5---5---5---5---|
G|---------------------------------|---------------------------|---------------------------------|
D|---------------------------------|---------------------------|---------------------------------|
A|---------------------------------|---------------------------|---------------------------------|
E|---------------------------------|---------------------------|---------------------------------|


E|-----5--------5---5--------|-5-----------5---5---5---5---5---|-----5--------5---5--------|
B|-----5--------5---5--------|-5-----------5---5---5---5---5---|-----5--------5---5--------|
G|---------------------------|---------------------------------|---------------------------|
D|---------------------------|---------------------------------|---------------------------|
A|---------------------------|---------------------------------|---------------------------|
E|---------------------------|---------------------------------|---------------------------|


E|-5-----------5---5---5---5---5---|-----5--------5---5--------|-5-----------5---5---5---5---5---|
B|-5-----------5---5---5---5---5---|-----5--------5---5--------|-5-----------5---5---5---5---5---|
G|---------------------------------|---------------------------|---------------------------------|
D|---------------------------------|---------------------------|---------------------------------|
A|---------------------------------|---------------------------|---------------------------------|
E|---------------------------------|---------------------------|---------------------------------|


E|-----5--------5---5--------|-5-----------5---5---5---5---5---|-----5--------5---5--------|
B|-----5--------5---5--------|-5-----------5---5---5---5---5---|-----5--------5---5--------|
G|---------------------------|---------------------------------|---------------------------|
D|---------------------------|---------------------------------|---------------------------|
A|---------------------------|---------------------------------|---------------------------|
E|---------------------------|---------------------------------|---------------------------|


E|-5-----------5---5---5---5---5---|-----5--------5---5--------|-5-----------5---5---5---5---5---|
B|-5-----------5---5---5---5---5---|-----5--------5---5--------|-5-----------5---5---5---5---5---|
G|---------------------------------|---------------------------|---------------------------------|
D|---------------------------------|---------------------------|---------------------------------|
A|---------------------------------|---------------------------|---------------------------------|
E|---------------------------------|---------------------------|---------------------------------|


E|-----5--------5---5--------|-5-----------5---5---5---5---5---|-----5--------5---5--------|
B|-----5--------5---5--------|-5-----------5---5---5---5---5---|-----5--------5---5--------|
G|---------------------------|---------------------------------|---------------------------|
D|---------------------------|---------------------------------|---------------------------|
A|---------------------------|---------------------------------|---------------------------|
E|---------------------------|---------------------------------|---------------------------|


E|-5-----------5---5---5---5---5---|-----5--------5---5--------|-5-----------5---5---5---5---5---|
B|-5-----------5---5---5---5---5---|-----5--------5---5--------|-5-----------5---5---5---5---5---|
G|---------------------------------|---------------------------|---------------------------------|
D|---------------------------------|---------------------------|---------------------------------|
A|---------------------------------|---------------------------|---------------------------------|
E|---------------------------------|---------------------------|---------------------------------|


E|-----5--------5---5--------|-5-----------5---5---5---5---5---|-----5--------5---5--------|
B|-----5--------5---5--------|-5-----------5---5---5---5---5---|-----5--------5---5--------|
G|---------------------------|---------------------------------|---------------------------|
D|---------------------------|---------------------------------|---------------------------|
A|---------------------------|---------------------------------|---------------------------|
E|---------------------------|---------------------------------|---------------------------|


E|-5-----------5---5---5---5---5---|-----2--------3---3--------|-5--------5---5---5---5----|
B|-5-----------5---5---5---5---5---|-----3--------3---3--------|-3--------5---5---5---5----|
G|---------------------------------|---------------------------|---------------------------|
D|---------------------------------|---------------------------|---------------------------|
A|---------------------------------|---------------------------|---------------------------|
E|---------------------------------|---------------------------|---------------------------|


E|-----7--------7---7--------|-7--------7---7---7---7----|-----2--------3---3--------|
B|-----7--------7---7--------|-7--------7---7---7---7----|-----3--------3---3--------|
G|---------------------------|---------------------------|---------------------------|
D|---------------------------|---------------------------|---------------------------|
A|---------------------------|---------------------------|---------------------------|
E|---------------------------|---------------------------|---------------------------|


E|-5--------5---5---5---5----|-----7--------7---7--------|-7--------7---7---7---7----|
B|-3--------5---5---5---5----|-----7--------7---7--------|-7--------7---7---7---7----|
G|---------------------------|---------------------------|---------------------------|
D|---------------------------|---------------------------|---------------------------|
A|---------------------------|---------------------------|---------------------------|
E|---------------------------|---------------------------|---------------------------|


E|-----2--------3---3--------|-5--------5---5---5---5----|-----7--------7---7--------|
B|-----3--------3---3--------|-3--------5---5---5---5----|-----7--------7---7--------|
G|---------------------------|---------------------------|---------------------------|
D|---------------------------|---------------------------|---------------------------|
A|---------------------------|---------------------------|---------------------------|
E|---------------------------|---------------------------|---------------------------|


E|-7--------7---7---7---7----|-----2--------3---3--------|-5--------5---5---5---5----|
B|-7--------7---7---7---7----|-----3--------3---3--------|-3--------5---5---5---5----|
G|---------------------------|---------------------------|---------------------------|
D|---------------------------|---------------------------|---------------------------|
A|---------------------------|---------------------------|---------------------------|
E|---------------------------|---------------------------|---------------------------|


E|-----7--------7---7--------|-7--------7---7---7---7----|-----5--------5---5--------|
B|-----7--------7---7--------|-7--------7---7---7---7----|-----5--------5---5--------|
G|---------------------------|---------------------------|-----7--------7---7--------|
D|---------------------------|---------------------------|-----7--------7---7--------|
A|---------------------------|---------------------------|---------------------------|
E|---------------------------|---------------------------|---------------------------|


E|-5--------5---5---5---5---5---|-----5--------5---5--------|-5----5---5-------5-------5---|
B|-5--------5---5---5---5---5---|-----5--------5---5--------|-5----5---5-------5-------5---|
G|-7--------7---7---7---7---7---|-----7--------7---7--------|-7----7---7-------7-------7---|
D|-7--------7---7---7---7---7---|-----7--------7---7--------|-7----7---7-------7-------7---|
A|------------------------------|---------------------------|------------------------------|
E|------------------------------|---------------------------|------------------------------|


E|-----5--------5---5--------|-5--------5---5---5---5---5---|-----5--------5---5--------|
B|-----5--------5---5--------|-5--------5---5---5---5---5---|-----5--------5---5--------|
G|-----7--------7---7--------|-7--------7---7---7---7---7---|-----7--------7---7--------|
D|-----7--------7---7--------|-7--------7---7---7---7---7---|-----7--------7---7--------|
A|---------------------------|------------------------------|---------------------------|
E|---------------------------|------------------------------|---------------------------|


E|-5----5---5-------5-------5---|-----5--------5---5--------|-5--------5---5---5---5---5---|
B|-5----5---5-------5-------5---|-----5--------5---5--------|-5--------5---5---5---5---5---|
G|-7----7---7-------7-------7---|-----7--------7---7--------|-7--------7---7---7---7---7---|
D|-7----7---7-------7-------7---|-----7--------7---7--------|-7--------7---7---7---7---7---|
A|------------------------------|---------------------------|------------------------------|
E|------------------------------|---------------------------|------------------------------|


E|-----5--------5---5--------|-5----5---5-------5-------5---|-----5--------5---5--------|
B|-----5--------5---5--------|-5----5---5-------5-------5---|-----5--------5---5--------|
G|-----7--------7---7--------|-7----7---7-------7-------7---|-----7--------7---7--------|
D|-----7--------7---7--------|-7----7---7-------7-------7---|-----7--------7---7--------|
A|---------------------------|------------------------------|---------------------------|
E|---------------------------|------------------------------|---------------------------|


E|-5--------5---5---5---5---5---|-----5--------5---5--------|-5----5---5-------5-------5---|
B|-5--------5---5---5---5---5---|-----5--------5---5--------|-5----5---5-------5-------5---|
G|-7--------7---7---7---7---7---|-----7--------7---7--------|-7----7---7-------7-------7---|
D|-7--------7---7---7---7---7---|-----7--------7---7--------|-7----7---7-------7-------7---|
A|------------------------------|---------------------------|------------------------------|
E|------------------------------|---------------------------|------------------------------|





Track 3: Rhythm Guitar I

E|--------|--------|--------|--------|--------|--------|--------|--------|--------|
B|--------|--------|--------|--------|--------|--------|--------|--------|--------|
G|--------|--------|--------|--------|--------|--------|--------|--------|--------|
D|--------|--------|--------|--------|--------|--------|--------|--------|--------|
A|--------|--------|--------|--------|--------|--------|--------|--------|--------|
E|--------|--------|--------|--------|--------|--------|--------|--------|--------|


E|--------|--------|--------|--------|--------|--------|--------|--------|--------|
B|--------|--------|--------|--------|--------|--------|--------|--------|--------|
G|--------|--------|--------|--------|--------|--------|--------|--------|--------|
D|--------|--------|--------|--------|--------|--------|--------|--------|--------|
A|--------|--------|--------|--------|--------|--------|--------|--------|--------|
E|--------|--------|--------|--------|--------|--------|--------|--------|--------|


E|--------|--------|--------|--------|--------|--------|--------|--------|--------|
B|--------|--------|--------|--------|--------|--------|--------|--------|--------|
G|--------|--------|--------|--------|--------|--------|--------|--------|--------|
D|--------|--------|--------|--------|--------|--------|--------|--------|--------|
A|--------|--------|--------|--------|--------|--------|--------|--------|--------|
E|--------|--------|--------|--------|--------|--------|--------|--------|--------|


E|--------|--------|--------|--------|--------|--------|--------|--------|--------|
B|--------|--------|--------|--------|--------|--------|--------|--------|--------|
G|--------|--------|--------|--------|--------|--------|--------|--------|--------|
D|--------|--------|--------|--------|--------|--------|--------|--------|--------|
A|--------|--------|--------|--------|--------|--------|--------|--------|--------|
E|--------|--------|--------|--------|--------|--------|--------|--------|--------|


E|--------|--------|--------|--------|--------|--------|--------|--------|--------|
B|--------|--------|--------|--------|--------|--------|--------|--------|--------|
G|--------|--------|--------|--------|--------|--------|--------|--------|--------|
D|--------|--------|--------|--------|--------|--------|--------|--------|--------|
A|--------|--------|--------|--------|--------|--------|--------|--------|--------|
E|--------|--------|--------|--------|--------|--------|--------|--------|--------|


E|--------|--------|--------|--------|--------|--------|--------|--------|--------|
B|--------|--------|--------|--------|--------|--------|--------|--------|--------|
G|--------|--------|--------|--------|--------|--------|--------|--------|--------|
D|--------|--------|--------|--------|--------|--------|--------|--------|--------|
A|--------|--------|--------|--------|--------|--------|--------|--------|--------|
E|--------|--------|--------|--------|--------|--------|--------|--------|--------|


E|--------|--------|--------|--------|--------|--------|--------|--------|--------|
B|--------|--------|--------|--------|--------|--------|--------|--------|--------|
G|--------|--------|--------|--------|--------|--------|--------|--------|--------|
D|--------|--------|--------|--------|--------|--------|--------|--------|--------|
A|--------|--------|--------|--------|--------|--------|--------|--------|--------|
E|--------|--------|--------|--------|--------|--------|--------|--------|--------|


E|--------|--------|--------|--------|--------|--------|--------|--------|--------|
B|--------|--------|--------|--------|--------|--------|--------|--------|--------|
G|--------|--------|--------|--------|--------|--------|--------|--------|--------|
D|--------|--------|--------|--------|--------|--------|--------|--------|--------|
A|--------|--------|--------|--------|--------|--------|--------|--------|--------|
E|--------|--------|--------|--------|--------|--------|--------|--------|--------|


E|--------|--------|--------|--------|--------|--------|--------|--------|--------|
B|--------|--------|--------|--------|--------|--------|--------|--------|--------|
G|--------|--------|--------|--------|--------|--------|--------|--------|--------|
D|--------|--------|--------|--------|--------|--------|--------|--------|--------|
A|--------|--------|--------|--------|--------|--------|--------|--------|--------|
E|--------|--------|--------|--------|--------|--------|--------|--------|--------|


E|--------|--------|--------|--------|--------|--------|--------|--------|--------|
B|--------|--------|--------|--------|--------|--------|--------|--------|--------|
G|--------|--------|--------|--------|--------|--------|--------|--------|--------|
D|--------|--------|--------|--------|--------|--------|--------|--------|--------|
A|--------|--------|--------|--------|--------|--------|--------|--------|--------|
E|--------|--------|--------|--------|--------|--------|--------|--------|--------|


E|--------|--------|--------|--------|--------|--------|--------|--------|--------|
B|--------|--------|--------|--------|--------|--------|--------|--------|--------|
G|--------|--------|--------|--------|--------|--------|--------|--------|--------|
D|--------|--------|--------|--------|--------|--------|--------|--------|--------|
A|--------|--------|--------|--------|--------|--------|--------|--------|--------|
E|--------|--------|--------|--------|--------|--------|--------|--------|--------|


E|--------|--------|--------|--------|--------|--------|--------|--------|--------|
B|--------|--------|--------|--------|--------|--------|--------|--------|--------|
G|--------|--------|--------|--------|--------|--------|--------|--------|--------|
D|--------|--------|--------|--------|--------|--------|--------|--------|--------|
A|--------|--------|--------|--------|--------|--------|--------|--------|--------|
E|--------|--------|--------|--------|--------|--------|--------|--------|--------|


E|--------|--------|--------|--------|--------|--------|--------|--------|--------|
B|--------|--------|--------|--------|--------|--------|--------|--------|--------|
G|--------|--------|--------|--------|--------|--------|--------|--------|--------|
D|--------|--------|--------|--------|--------|--------|--------|--------|--------|
A|--------|--------|--------|--------|--------|--------|--------|--------|--------|
E|--------|--------|--------|--------|--------|--------|--------|--------|--------|


E|--------|--------|--------|--------|--------|--------|--------|--------|--------|
B|--------|--------|--------|--------|--------|--------|--------|--------|--------|
G|--------|--------|--------|--------|--------|--------|--------|--------|--------|
D|--------|--------|--------|--------|--------|--------|--------|--------|--------|
A|--------|--------|--------|--------|--------|--------|--------|--------|--------|
E|--------|--------|--------|--------|--------|--------|--------|--------|--------|


E|--------|--------|--------|--------|----------------|-------------|--------|--------|
B|--------|--------|--------|--------|----------------|-------------|--------|--------|
G|--------|--------|--------|--------|-7------7---7---|-7-----------|--------|--------|
D|--------|--------|--------|--------|----------------|-------------|--------|--------|
A|--------|--------|--------|--------|----------------|-------------|--------|--------|
E|--------|--------|--------|--------|----------------|-------------|--------|--------|


E|--------|--------|--------|--------|--------|--------|--------|--------|--------|
B|--------|--------|--------|--------|--------|--------|--------|--------|--------|
G|--------|--------|--------|--------|--------|--------|--------|--------|--------|
D|--------|--------|--------|--------|--------|--------|--------|--------|--------|
A|--------|--------|--------|--------|--------|--------|--------|--------|--------|
E|--------|--------|--------|--------|--------|--------|--------|--------|--------|


E|--------|--------|--------|--------|--------|--------|--------|--------|--------|
B|--------|--------|--------|--------|--------|--------|--------|--------|--------|
G|--------|--------|--------|--------|--------|--------|--------|--------|--------|
D|--------|--------|--------|--------|--------|--------|--------|--------|--------|
A|--------|--------|--------|--------|--------|--------|--------|--------|--------|
E|--------|--------|--------|--------|--------|--------|--------|--------|--------|


E|--------|--------|--------|--------|--------|--------|--------|--------|--------|
B|--------|--------|--------|--------|--------|--------|--------|--------|--------|
G|--------|--------|--------|--------|--------|--------|--------|--------|--------|
D|--------|--------|--------|--------|--------|--------|--------|--------|--------|
A|--------|--------|--------|--------|--------|--------|--------|--------|--------|
E|--------|--------|--------|--------|--------|--------|--------|--------|--------|


E|--------|--------|--------|
B|--------|--------|--------|
G|--------|--------|--------|
D|--------|--------|--------|
A|--------|--------|--------|
E|--------|--------|--------|





Track 4: Synth Bass

G|--------|--------|--------|--------|--------|--------|--------|--------|--------|
D|--------|--------|--------|--------|--------|--------|--------|--------|--------|
A|--------|--------|--------|--------|--------|--------|--------|--------|--------|
E|--------|--------|--------|--------|-0------|-3------|--------|--------|-0------|
B|--------|--------|--------|--------|--------|--------|-0------|-0------|--------|


G|--------|--------|--------|--------|--------|--------|--------|--------|--------|
D|--------|--------|--------|--------|--------|--------|--------|--------|--------|
A|--------|--------|--------|--------|--------|--------|--------|--------|--------|
E|-3------|--------|--------|-0------|-3------|--------|--------|-0------|-3------|
B|--------|-0------|-0------|--------|--------|-0------|-0------|--------|--------|


G|--------|--------|--------|--------|--------|--------|--------|--------|--------|
D|--------|--------|--------|--------|--------|--------|--------|--------|--------|
A|--------|--------|--------|--------|--------|--------|--------|--------|--------|
E|--------|--------|-0------|-3------|--------|--------|-0------|-3------|--------|
B|-0------|-0------|--------|--------|-0------|-0------|--------|--------|-0------|


G|--------|--------|--------|--------|--------|--------|--------|--------|--------|
D|--------|--------|--------|--------|--------|--------|--------|--------|--------|
A|--------|--------|--------|--------|--------|--------|--------|--------|--------|
E|--------|-0------|-3------|--------|--------|-0------|-3------|--------|--------|
B|-0------|--------|--------|-0------|-0------|--------|--------|-0------|-0------|


G|--------|--------|--------|--------|--------|--------|--------|--------|--------|
D|--------|--------|--------|--------|--------|--------|--------|--------|--------|
A|--------|--------|--------|--------|--------|--------|--------|--------|--------|
E|-0------|-3------|--------|--------|-0------|-3------|--------|--------|-0------|
B|--------|--------|-0------|-0------|--------|--------|-0------|-0------|--------|


G|--------|--------|--------|--------|--------|--------|--------|--------|--------|
D|--------|--------|--------|--------|--------|--------|--------|--------|--------|
A|--------|--------|--------|--------|--------|--------|--------|--------|--------|
E|-3------|--------|--------|-0------|-3------|--------|--------|-5------|-5------|
B|--------|-0------|-0------|--------|--------|-0------|-0------|--------|--------|


G|--------|--------|--------|--------|--------|--------|--------|--------|--------|
D|--------|--------|--------|--------|-3------|-3------|--------|--------|--------|
A|--------|--------|--------|--------|--------|--------|-5------|-5------|-3------|
E|-3------|-3------|-1------|-1------|--------|--------|--------|--------|--------|
B|--------|--------|--------|--------|--------|--------|--------|--------|--------|


G|--------|--------|--------|--------|--------|--------|--------|--------|--------|
D|--------|--------|--------|--------|--------|--------|--------|--------|--------|
A|-3------|-2------|-2------|--------|--------|--------|--------|--------|--------|
E|--------|--------|--------|--------|--------|-0------|-3------|--------|--------|
B|--------|--------|--------|-0------|-0------|--------|--------|-0------|-0------|


G|--------|--------|--------|--------|--------|--------|--------|--------|--------|
D|--------|--------|--------|--------|--------|--------|--------|--------|--------|
A|--------|--------|--------|--------|--------|--------|--------|--------|--------|
E|--------|--------|--------|--------|-0------|-3------|--------|--------|--------|
B|--------|--------|--------|--------|--------|--------|-0------|-0------|--------|


G|--------|--------|--------|--------|--------|--------|--------|--------|--------|
D|--------|--------|--------|--------|--------|--------|--------|--------|--------|
A|--------|--------|--------|--------|--------|--------|--------|--------|--------|
E|--------|--------|--------|-0------|-3------|--------|--------|-0------|-3------|
B|--------|--------|--------|--------|--------|-0------|-0------|--------|--------|


G|--------|--------|--------|--------|--------|--------|--------|--------|--------|
D|--------|--------|--------|--------|--------|--------|--------|--------|--------|
A|--------|--------|--------|--------|--------|--------|--------|--------|--------|
E|--------|--------|-0------|-3------|--------|--------|-0------|-3------|--------|
B|-0------|-0------|--------|--------|-0------|-0------|--------|--------|-0------|


G|--------|--------|--------|--------|--------|--------|--------|--------|--------|
D|--------|--------|--------|--------|--------|--------|--------|--------|--------|
A|--------|--------|--------|--------|--------|--------|--------|--------|--------|
E|--------|-0------|-3------|--------|--------|-0------|-3------|--------|--------|
B|-0------|--------|--------|-0------|-0------|--------|--------|-0------|-0------|


G|--------|--------|--------|--------|--------|--------|--------|--------|--------|
D|--------|--------|--------|--------|--------|--------|--------|--------|--------|
A|--------|--------|--------|--------|--------|--------|--------|--------|--------|
E|-0------|-3------|--------|--------|-0------|-3------|--------|--------|-0------|
B|--------|--------|-0------|-0------|--------|--------|-0------|-0------|--------|


G|--------|--------|--------|--------|--------|--------|--------|--------|--------|
D|--------|--------|--------|--------|--------|--------|--------|--------|--------|
A|--------|--------|--------|--------|--------|--------|--------|--------|--------|
E|-3------|--------|--------|-0------|-3------|--------|--------|-0------|-3------|
B|--------|-0------|-0------|--------|--------|-0------|-0------|--------|--------|


G|--------|--------|--------|--------|--------|--------|--------|--------|--------|
D|--------|--------|--------|--------|--------|--------|--------|--------|--------|
A|--------|--------|--------|--------|--------|--------|--------|--------|--------|
E|--------|--------|-0------|-3------|--------|--------|-0------|-3------|--------|
B|-0------|-0------|--------|--------|-0------|-0------|--------|--------|-0------|


G|--------|--------|--------|--------|--------|--------|--------|--------|--------|
D|--------|--------|--------|--------|--------|--------|--------|--------|--------|
A|--------|--------|--------|--------|--------|--------|--------|--------|--------|
E|--------|-0------|-3------|--------|--------|-0------|-3------|--------|--------|
B|-0------|--------|--------|-0------|-0------|--------|--------|-0------|-0------|


G|--------|--------|--------|--------|--------|--------|--------|--------|--------|
D|--------|--------|--------|--------|--------|--------|--------|--------|--------|
A|--------|--------|--------|--------|--------|--------|--------|--------|--------|
E|-0------|-3------|--------|--------|-0------|-3------|--------|--------|-0------|
B|--------|--------|-0------|-0------|--------|--------|-0------|-0------|--------|


G|--------|--------|--------|--------|--------|--------|--------|--------|--------|
D|--------|--------|--------|--------|--------|--------|--------|--------|--------|
A|--------|--------|--------|--------|--------|--------|--------|--------|--------|
E|-3------|--------|--------|-0------|-3------|--------|--------|-0------|-3------|
B|--------|-0------|-0------|--------|--------|-0------|-0------|--------|--------|


G|--------|--------|
D|--------|--------|
A|--------|--------|
E|--------|--------|
B|-0------|-0------|