Menu:

 

Search:

 

joe satriani - devils slide:

 



Title: Devil's Slide
Artist: 
Album: Engines Of Creation
Author: Joe Satriani


Track 1: Joe Satriani

E|--------|--------|--------|---------------------------|--------|--------|--------|
B|--------|--------|--------|---------------------------|--------|--------|--------|
G|--------|--------|--------|---------------------------|--------|--------|--------|
D|--------|--------|--------|---------------------------|--------|--------|--------|
A|--------|--------|--------|---------------------------|--------|--------|--------|
E|--------|--------|--------|-----------12-12--12-------|--------|--------|--------|


E|--------|--------|--------|--------|--------------------|-----------------------|
B|--------|--------|--------|--------|--------------------|-------------10--------|
G|--------|--------|--------|--------|--------------------|------10-10------12----|
D|--------|--------|--------|--------|--------------------|-12--------------------|
A|--------|--------|--------|--------|----------------12--|-----------------------|
E|--------|--------|--------|--------|--------------------|-----------------------|


E|--------------------|------------------------|----------------|-----------------------|
B|--------------------|------------------------|----------------|-------------10--------|
G|-12--------10---8---|-7----8-7-5---7---7-----|-7--------------|------10-10------12----|
D|--------------------|------------------------|----------------|-12--------------------|
A|--------------------|------------------------|------------12--|-----------------------|
E|--------------------|------------------------|----------------|-----------------------|


E|-------------------------|------------------|-------------|---------------------|
B|------------10-11-10-----|------------------|-------------|-10----11--11----11--|
G|-12------------------12--|-14----14---14----|-14----------|---------------------|
D|-------------------------|------------------|-------------|---------------------|
A|-------------------------|------------------|-------------|---------------------|
E|-------------------------|------------------|-------------|---------------------|


E|---------------------------|------------------------------|-----------------------|
B|-15----11--11--10--10-8----|-10---11-11--15--15---15--11--|-10----10--10----------|
G|---------------------------|------------------------------|-------------------2---|
D|---------------------------|------------------------------|-----------------------|
A|---------------------------|------------------------------|-----------------------|
E|---------------------------|------------------------------|-----------------------|


E|-----------------------|--------------------|------------------------|--------|---------------------------------------------|
B|-------------10--------|--------------------|------------------------|--------|---------------------------------------------|
G|-7----10-10------12----|-12--------10---8---|-7----8-7-5---7---7-----|-7------|---------------------------------------------|
D|-----------------------|--------------------|------------------------|--------|---------------------------------------------|
A|-----------------------|--------------------|------------------------|--------|-3--5--5--5--5--5--3--3--5--5--5--5--3-------|
E|-----------------------|--------------------|------------------------|--------|---------------------------------------------|


E|---------------------------------------------|---------------------------------------------|
B|---------------------------------------------|---------------------------------------------|
G|---------------------------------------------|---------------------------------------------|
D|-2--3--3--3--3--3--2--2--3--3--3--3--2-------|-5--7--7--7--7--7--5--5--7--7--7--7--5-------|
A|---------------------------------------------|---------------------------------------------|
E|---------------------------------------------|---------------------------------------------|


E|---------------------------------------------|---------------------------------------------|
B|---------------------------------------------|---------------------------------------------|
G|-4--5--5--5--5--5--4--4--5--5--5--5--4-------|-7--9--9--9--9--9--7--7--9--9--9--9--7-------|
D|-5--7--7--7--7--7--5--5--7--7--7--7--5-------|-5--7--7--7--7--7--5--5--7--7--7--7--5-------|
A|---------------------------------------------|---------------------------------------------|
E|---------------------------------------------|---------------------------------------------|


E|---------------------------------------------|---------------------------------------------|
B|---------------------------------------------|-10-12-12-12-12-12-10-10-12-12-12-12-10------|
G|-10-12-12-12-12-12-10-10-12-12-12-12-10------|-10-12-12-12-12-12-10-10-12-12-12-12-10------|
D|---------------------------------------------|---------------------------------------------|
A|---------------------------------------------|---------------------------------------------|
E|---------------------------------------------|---------------------------------------------|


E|---------------------------------------------|--------|--------------------|--------|
B|-13-15-15-15-15-15-13-13-15-15-15-15-13------|-13-----|-13-----13----------|--------|
G|-10-12-12-12-12-12-10-10-12-12-12-12-10------|--------|------------14--12--|-14-----|
D|---------------------------------------------|--------|--------------------|--------|
A|---------------------------------------------|--------|--------------------|--------|
E|---------------------------------------------|--------|--------------------|--------|


E|--------------------|-------------|--------------------|---------------------|-----------------------|
B|------------13--15--|-13----------|--------------------|---------------------|-----------------------|
G|-14-----14----------|--------14---|-14----14--12---12--|-7-----7---7----7----|-7-----7---7-------2---|
D|--------------------|-------------|--------------------|---------------------|-----------------------|
A|--------------------|-------------|--------------------|---------------------|-----------------------|
E|--------------------|-------------|--------------------|---------------------|-----------------------|


E|-5-----6---6---------|--------------------|------------------------|----------------|
B|-5-----6---6---------|--------------------|------------------------|----------------|
G|-7-----8---8---------|-12--------10---8---|-7----8-7-5---7---7-----|-7--------------|
D|-----------------0---|--------------------|------------------------|----------------|
A|---------------------|--------------------|------------------------|------------12--|
E|---------------------|--------------------|------------------------|----------------|


E|-----------------------|-------------------------|------------------|-------------|
B|-------------10--------|------------10-11-10-----|------------------|-------------|
G|------10-10------12----|-12------------------12--|-14----14---14----|-14----------|
D|-12--------------------|-------------------------|------------------|-------------|
A|-----------------------|-------------------------|------------------|-------------|
E|-----------------------|-------------------------|------------------|-------------|


E|---------------------|---------------------------|------------------------------|
B|-10----11--11----11--|-15----11--11--10--10-8----|-10---11-11--15--15---15--11--|
G|---------------------|---------------------------|------------------------------|
D|---------------------|---------------------------|------------------------------|
A|---------------------|---------------------------|------------------------------|
E|---------------------|---------------------------|------------------------------|


E|-----------------------|-----------------------|--------------------|------------------------|
B|-10----10--10----------|-------------10--------|--------------------|------------------------|
G|-------------------2---|-7----10-10------12----|-12--------10---8---|-7----8-7-5---7---7-----|
D|-----------------------|-----------------------|--------------------|------------------------|
A|-----------------------|-----------------------|--------------------|------------------------|
E|-----------------------|-----------------------|--------------------|------------------------|


E|--------|---------------------------------------------|---------------------------------------------|
B|--------|---------------------------------------------|---------------------------------------------|
G|-7------|---------------------------------------------|---------------------------------------------|
D|--------|---------------------------------------------|-2--3--3--3--3--3--2--2--3--3--3--3--2-------|
A|--------|-3--5--5--5--5--5--3--3--5--5--5--5--3-------|---------------------------------------------|
E|--------|---------------------------------------------|---------------------------------------------|


E|---------------------------------------------|---------------------------------------------|
B|---------------------------------------------|---------------------------------------------|
G|---------------------------------------------|-4--5--5--5--5--5--4--4--5--5--5--5--4-------|
D|-5--7--7--7--7--7--5--5--7--7--7--7--5-------|-5--7--7--7--7--7--5--5--7--7--7--7--5-------|
A|---------------------------------------------|---------------------------------------------|
E|---------------------------------------------|---------------------------------------------|


E|---------------------------------------------|---------------------------------------------|
B|---------------------------------------------|---------------------------------------------|
G|-7--9--9--9--9--9--7--7--9--9--9--9--7-------|-10-12-12-12-12-12-10-10-12-12-12-12-10------|
D|-5--7--7--7--7--7--5--5--7--7--7--7--5-------|---------------------------------------------|
A|---------------------------------------------|---------------------------------------------|
E|---------------------------------------------|---------------------------------------------|


E|---------------------------------------------|---------------------------------------------|
B|-10-12-12-12-12-12-10-10-12-12-12-12-10------|-13-15-15-15-15-15-13-13-15-15-15-15-13------|
G|-10-12-12-12-12-12-10-10-12-12-12-12-10------|-10-12-12-12-12-12-10-10-12-12-12-12-10------|
D|---------------------------------------------|---------------------------------------------|
A|---------------------------------------------|---------------------------------------------|
E|---------------------------------------------|---------------------------------------------|


E|--------|--------|--------|--------|-----------12-------------12----------12----------------12-|
B|--------|--------|--------|--------|--------12----15-12----12-------12-------12----12----12----|
G|--------|--------|--------|--------|-----14-------------14-------15----14-------15----14-------|
D|--------|--------|--------|--------|-----------------------------------------------------------|
A|--------|--------|--------|--------|-----------------------------------------------------------|
E|--------|--------|--------|--------|-0---------------------------------------------------------|


E|----------12-12-12-------12------12-------------12----------12-|-12-----------12------------15----|
B|-12----12-------------12-------12---15-12----12----15-12-------|----15-12---12--1215-12-12--------|
G|----15-------------15------1414-----------14-------------14----|----------14----------------------|
D|---------------------------------------------------------------|----------------------------------|
A|---------------------------------------------------------------|----------------------------------|
E|---------------------------------------------------------------|----------------------------------|


E|-12---------------------------------------|--------|--------|--------|--------|-------------------------------------------------------------------------|
B|-----15--12-------------------------------|--------|--------|--------|--------|-------------------------------------------------------------------------|
G|-------------14--12-----------------------|--------|--------|--------|--------|-8--10-11-12-11-10-8--10-11-12-11-10-8--10-11-12-11-10-8--10-11-12-11-10-|
D|---------------------14--12---------------|--------|--------|--------|--------|-------------------------------------------------------------------------|
A|-----------------------------14--12--10---|--------|--------|--------|--------|-------------------------------------------------------------------------|
E|------------------------------------------|--------|--------|--------|--------|-------------------------------------------------------------------------|


E|-----------------------------------------------------------------|-------------8-----------------------------|
B|-8---------------------------------------------------------------|-11---8--11-----8--11-8-----8--11-8--------|
G|----10-11-12-11-10----10-11-12-11-10----10-11-12-11-10-10-12-10--|-------------------------10----------10-10-|
D|-----------------------------------------------------------------|-------------------------------------------|
A|-----------------------------------------------------------------|-------------------------------------------|
E|-----------------------------------------------------------------|-------------------------------------------|


E|------------------------------------------------|---------------7-8-108-7--8--10-12--12-10-8---10-12-|
B|---------------------------------------10-8--6--|-5----7--8--10--------------------------------------|
G|-8----------------------------------------------|----------------------------------------------------|
D|----10-8----------------------------------------|----------------------------------------------------|
A|----------10-8--10-6-----8-----6----------------|----------------------------------------------------|
E|----------------------8-----8------8------------|----------------------------------------------------|


E|-13--12-10----------------------151213-15-13-12----------------|------------------------------------------------------------|
B|-----------13-10-12-13-10-12-13-----------------15-12-13-14-13-|-12---------------------------------------------------------|
G|---------------------------------------------------------------|----14-12-10-12-9---10-12-10-9------------------------------|
D|---------------------------------------------------------------|--------------------------------12-10-9--------12-14--12-10-|
A|---------------------------------------------------------------|------------------------------------------------------------|
E|---------------------------------------------------------------|------------------------------------------------------------|


E|------------------------------------------|------------4-----------|---------4-----------4-------7---4-------4-------|
B|------------------------------------------|----------------4---7---|-----4-------4---7-------4-----------7-----4-7-4-|
G|------------------------------------------|-6-----6----------------|-6-----------------------------------------------|
D|------------------------------------------|------------------------|-------------------------------------------------|
A|-14-12-10-8--10-12-10-8-------------------|------------------------|-------------------------------------------------|
E|-------------------------12--12---12-20---|------------------------|-------------------------------------------------|


E|-------4-7-4---------------------------------|---------------------------|-8--9--8--6--8--6--8--6--9--6--8--6-----6--8--9--|
B|----4--------4-------------------------------|---------------------------|-------------------------------------9-----------|
G|-6-------------6-----4---6--6----4-----------|---------------------------|-------------------------------------------------|
D|------------------6----6------------6--4--6--|-6----6---4---4----4--16---|-------------------------------------------------|
A|---------------------------------------------|---------------------------|-------------------------------------------------|
E|---------------------------------------------|---------------------------|-------------------------------------------------|


E|-8--6-----6--------------------------------------|-------------------------------------------------|
B|-------9-----9--8--6-----8--6-----6--------------|-------------------------------------------------|
G|----------------------8--------8-----8--6--5--8--|-6--5-----5--6--5--8--5--6--5-----5--------------|
D|-------------------------------------------------|-------8-----------------------8-----8--6--5--6--|
A|-------------------------------------------------|-------------------------------------------------|
E|-------------------------------------------------|-------------------------------------------------|


E|----------------------------------------|-------------------------------|-------------------------------|
B|----------------------------------------|-------------------------------|-------------------------------|
G|-------6--8--10--8--6--5--6--5----------|-7-----7-----------------------|-------------------------------|
D|-8--10--------------------------8--6----|-0-----0--0--3--0--5--0--3--0--|-0-----0--0--3--0--5--0--3--0--|
A|----------------------------------------|-------------------------------|-------------------------------|
E|----------------------------------------|-------------------------------|-------------------------------|


E|-------------------------------|-------------------------------|-------------------------------------------------|
B|-------------------------------|-------------------------------|-------------------------------------------------|
G|-------------------------------|-------------------------------|-------------------------------------------------|
D|-0-----0--0--3--0--5--0--3--0--|-0-----0--0--3--0--5--0--3--0--|-6--0--7--0--6--0--7--0--6--0--7--0--10-0--7--0--|
A|-------------------------------|-------------------------------|-------------------------------------------------|
E|-------------------------------|-------------------------------|-------------------------------------------------|


E|-------------------------------------------------|-------------------------------------------------|
B|-------------------------------------------------|-------------------------------------------------|
G|-------------------------------------------------|-------------------------------------------------|
D|-6--0--7--0--10-0--7--0--6--0--7--0--10-0--7--0--|-6--0--7--0--10-0--7--0--10-0--7--0--10-0--7--0--|
A|-------------------------------------------------|-------------------------------------------------|
E|-------------------------------------------------|-------------------------------------------------|


E|----------------|-5-----6---6---------|--------------------|------------------------|
B|----------------|-5-----6---6---------|--------------------|------------------------|
G|----------------|-7-----8---8---------|-12--------10---8---|-7----8-7-5---7---7-----|
D|-10-----10--0---|-----------------0---|--------------------|------------------------|
A|----------------|---------------------|--------------------|------------------------|
E|----------------|---------------------|--------------------|------------------------|


E|----------------|-----------------------|-------------------------|------------------|
B|----------------|-------------10--------|------------10-11-10-----|------------------|
G|-7--------------|------10-10------12----|-12------------------12--|-14----14---14----|
D|----------------|-12--------------------|-------------------------|------------------|
A|------------12--|-----------------------|-------------------------|------------------|
E|----------------|-----------------------|-------------------------|------------------|


E|-------------|---------------------|---------------------------|------------------------------|
B|-------------|-10----11--11----11--|-15----11--11--10--10-8----|-10---11-11--15--15---15--11--|
G|-14----------|---------------------|---------------------------|------------------------------|
D|-------------|---------------------|---------------------------|------------------------------|
A|-------------|---------------------|---------------------------|------------------------------|
E|-------------|---------------------|---------------------------|------------------------------|


E|-----------------------|-----------------------|--------------------|------------------------|
B|-10----10--10----------|-------------10--------|--------------------|------------------------|
G|-------------------2---|-7----10-10------12----|-12--------10---8---|-7----8-7-5---7---7-----|
D|-----------------------|-----------------------|--------------------|------------------------|
A|-----------------------|-----------------------|--------------------|------------------------|
E|-----------------------|-----------------------|--------------------|------------------------|


E|--------|---------------------------------------------|---------------------------------------------|
B|--------|---------------------------------------------|---------------------------------------------|
G|-7------|---------------------------------------------|---------------------------------------------|
D|--------|---------------------------------------------|-2--3--3--3--3--3--2--2--3--3--3--3--2-------|
A|--------|-3--5--5--5--5--5--3--3--5--5--5--5--3-------|---------------------------------------------|
E|--------|---------------------------------------------|---------------------------------------------|


E|---------------------------------------------|---------------------------------------------|
B|---------------------------------------------|---------------------------------------------|
G|---------------------------------------------|-4--5--5--5--5--5--4--4--5--5--5--5--4-------|
D|-5--7--7--7--7--7--5--5--7--7--7--7--5-------|-5--7--7--7--7--7--5--5--7--7--7--7--5-------|
A|---------------------------------------------|---------------------------------------------|
E|---------------------------------------------|---------------------------------------------|


E|---------------------------------------------|---------------------------------------------|
B|---------------------------------------------|---------------------------------------------|
G|-7--9--9--9--9--9--7--7--9--9--9--9--7-------|-10-12-12-12-12-12-10-10-12-12-12-12-10------|
D|-5--7--7--7--7--7--5--5--7--7--7--7--5-------|---------------------------------------------|
A|---------------------------------------------|---------------------------------------------|
E|---------------------------------------------|---------------------------------------------|


E|---------------------------------------------|---------------------------------------------|
B|-10-12-12-12-12-12-10-10-12-12-12-12-10------|-13-15-15-15-15-15-13-13-15-15-15-15-13------|
G|-10-12-12-12-12-12-10-10-12-12-12-12-10------|-10-12-12-12-12-12-10-10-12-12-12-12-10------|
D|---------------------------------------------|---------------------------------------------|
A|---------------------------------------------|---------------------------------------------|
E|---------------------------------------------|---------------------------------------------|


E|--------|-------------|--------|-----------------|--------|-------------|--------|
B|-6------|-6-----8-----|-8------|-8-----8---6-----|-6------|-6------8----|-8------|
G|--------|-------------|--------|-----------------|--------|-------------|--------|
D|--------|-------------|--------|-----------------|--------|-------------|--------|
A|--------|-------------|--------|-----------------|--------|-------------|--------|
E|--------|-------------|--------|-----------------|--------|-------------|--------|


E|--------------------|-------------|-------------|-----------------|--------|-------------|
B|-8-----8---6--------|-------------|-------------|-----------------|--------|-------------|
G|--------------------|-------5-----|-5------6----|-6----5----3-----|-3------|------5------|
D|--------------------|-------------|-------------|-----------------|--------|-------------|
A|--------------------|-------------|-------------|-----------------|--------|-------------|
E|--------------------|-------------|-------------|-----------------|--------|-------------|


E|--------|-------------|--------|-------------|----------------|--------|--------|
B|--------|-------------|--------|-------------|----------------|--------|--------|
G|-5------|-5-----------|--------|-------3-----|-3------3---5---|-3------|-3------|
D|--------|-------5-----|-5------|-5-----------|----------------|--------|--------|
A|--------|-------------|--------|-------------|----------------|--------|--------|
E|--------|-------------|--------|-------------|----------------|--------|--------|


E|--------|--------|--------|--------|--------|--------|--------|--------|--------|
B|--------|--------|--------|--------|--------|--------|--------|--------|--------|
G|-3------|-5------|-5------|-5------|--------|--------|--------|--------|--------|
D|--------|--------|--------|--------|-7------|-7------|-7------|-7------|-7------|
A|--------|--------|--------|--------|--------|--------|--------|--------|--------|
E|--------|--------|--------|--------|--------|--------|--------|--------|--------|


E|--------|--------|--------|--------|-22-----|-22---8------|-8------|--------|-15-----|
B|--------|-8------|-8------|--------|--------|-------------|--------|--------|--------|
G|--------|--------|--------|-7------|--------|-------------|--------|-7------|--------|
D|-7------|--------|--------|--------|--------|-------------|--------|--------|--------|
A|--------|--------|--------|--------|--------|-------------|--------|--------|--------|
E|--------|--------|--------|--------|--------|-------------|--------|--------|--------|


E|--------|--------|--------|--------|--------|--------|--------|--------|--------|
B|-13-----|--------|-13-----|-13-----|-13-----|-13-----|-13-----|-13-----|-13-----|
G|--------|-14-----|--------|--------|--------|--------|--------|--------|--------|
D|--------|--------|--------|--------|--------|--------|--------|--------|--------|
A|--------|--------|--------|--------|--------|--------|--------|--------|--------|
E|--------|--------|--------|--------|--------|--------|--------|--------|--------|


E|--------|--------|--------|--------|--------|-------------|--------|--------|--------|
B|-13-----|-13-----|-13-----|-13-----|-13-----|-13----13----|-13-----|-3------|-3------|
G|--------|--------|--------|--------|--------|-------------|--------|-2------|-2------|
D|--------|--------|--------|--------|--------|-------------|--------|-0------|-0------|
A|--------|--------|--------|--------|--------|-------------|--------|--------|--------|
E|--------|--------|--------|--------|--------|-------------|--------|--------|--------|


E|---------------------------------------------|---------------------------------------------|
B|---------------------------------------------|---------------------------------------------|
G|---------------------------------------------|---------------------------------------------|
D|---------------------------------------------|---------------------------------------------|
A|-3--5--5--5--5--5--3--3--5--5--5--5--3-------|-3--5--5--5--5--5--3--3--5--5--5--5--3-------|
E|---------------------------------------------|---------------------------------------------|


E|---------------------------------------------|---------------------------------------------|
B|---------------------------------------------|---------------------------------------------|
G|---------------------------------------------|---------------------------------------------|
D|-2--3--3--3--3--3--2--2--3--3--3--3--2-------|-2--3--3--3--3--3--2--2--3--3--3--3--2-------|
A|---------------------------------------------|---------------------------------------------|
E|---------------------------------------------|---------------------------------------------|


E|---------------------------------------------|---------------------------------------------|
B|---------------------------------------------|---------------------------------------------|
G|---------------------------------------------|---------------------------------------------|
D|-5--7--7--7--7--7--5--5--7--7--7--7--5-------|-5--7--7--7--7--7--5--5--7--7--7--7--5-------|
A|---------------------------------------------|---------------------------------------------|
E|---------------------------------------------|---------------------------------------------|


E|---------------------------------------------|---------------------------------------------|
B|---------------------------------------------|---------------------------------------------|
G|-4--5--5--5--5--5--4--4--5--5--5--5--4-------|-4--5--5--5--5--5--4--4--5--5--5--5--4-------|
D|-5--7--7--7--7--7--5--5--7--7--7--7--5-------|-5--7--7--7--7--7--5--5--7--7--7--7--5-------|
A|---------------------------------------------|---------------------------------------------|
E|---------------------------------------------|---------------------------------------------|


E|---------------------------------------------|---------------------------------------------|
B|---------------------------------------------|---------------------------------------------|
G|-7--9--9--9--9--9--7--7--9--9--9--9--7-------|-7--9--9--9--9--9--7--7--9--9--9--9--7-------|
D|-5--7--7--7--7--7--5--5--7--7--7--7--5-------|-5--7--7--7--7--7--5--5--7--7--7--7--5-------|
A|---------------------------------------------|---------------------------------------------|
E|---------------------------------------------|---------------------------------------------|


E|---------------------------------------------|---------------------------------------------|
B|---------------------------------------------|---------------------------------------------|
G|-10-12-12-12-12-12-10-10-12-12-12-12-10------|-10-12-12-12-12-12-10-10-12-12-12-12-10------|
D|---------------------------------------------|---------------------------------------------|
A|---------------------------------------------|---------------------------------------------|
E|---------------------------------------------|---------------------------------------------|


E|---------------------------------------------|---------------------------------------------|
B|-10-12-12-12-12-12-10-10-12-12-12-12-10------|-10-12-12-12-12-12-10-10-12-12-12-12-10------|
G|-10-12-12-12-12-12-10-10-12-12-12-12-10------|-10-12-12-12-12-12-10-10-12-12-12-12-10------|
D|---------------------------------------------|---------------------------------------------|
A|---------------------------------------------|---------------------------------------------|
E|---------------------------------------------|---------------------------------------------|


E|---------------------------------------------|---------------------------------------------|
B|-13-15-15-15-15-15-13-13-15-15-15-15-13------|-13-15-15-15-15-15-13-13-15-15-15-15-13------|
G|-10-12-12-12-12-12-10-10-12-12-12-12-10------|-10-12-12-12-12-12-10-10-12-12-12-12-10------|
D|---------------------------------------------|---------------------------------------------|
A|---------------------------------------------|---------------------------------------------|
E|---------------------------------------------|---------------------------------------------|





Track 2: Satch clean

E|--------|--------|--------|--------|-5-----6---6---------|-5-----3---3---------|
B|--------|--------|--------|--------|-5-----6---6---------|-5-----3---3---------|
G|--------|--------|--------|--------|-7-----8---8---------|-7-----5---5---------|
D|--------|--------|--------|--------|-----------------0---|-----------------0---|
A|--------|--------|--------|--------|---------------------|---------------------|
E|--------|--------|--------|--------|---------------------|---------------------|


E|-5-----6---6---------|-5-----3---3---------|-5-----6---6---------|-5-----3---3---------|
B|-5-----6---6---------|-5-----3---3---------|-5-----6---6---------|-5-----3---3---------|
G|-7-----8---8---------|-7-----5---5---------|-7-----8---8---------|-7-----5---5---------|
D|-----------------0---|-----------------0---|-----------------0---|-----------------0---|
A|---------------------|---------------------|---------------------|---------------------|
E|---------------------|---------------------|---------------------|---------------------|


E|-5-----6---6---------|-5-----3---3---------|-5-----6---6---------|--------|--------|
B|-5-----6---6---------|-5-----3---3---------|-5-----6---6---------|--------|--------|
G|-7-----8---8---------|-7-----5---5---------|-7-----8---8---------|--------|--------|
D|-----------------0---|-----------------0---|-----------------0---|--------|--------|
A|---------------------|---------------------|---------------------|--------|--------|
E|---------------------|---------------------|---------------------|--------|--------|


E|--------|--------|--------|--------|--------|--------|--------|--------|--------|
B|--------|--------|--------|--------|--------|--------|--------|--------|--------|
G|--------|--------|--------|--------|--------|--------|--------|--------|--------|
D|--------|--------|--------|--------|--------|--------|--------|--------|--------|
A|--------|--------|--------|--------|--------|--------|--------|--------|--------|
E|--------|--------|--------|--------|--------|--------|--------|--------|--------|


E|--------|--------|--------|--------|--------|--------|--------|--------|--------|
B|--------|--------|--------|--------|--------|--------|--------|--------|--------|
G|--------|--------|--------|--------|--------|--------|--------|--------|--------|
D|--------|--------|--------|--------|--------|--------|--------|--------|--------|
A|--------|--------|--------|--------|--------|--------|--------|--------|--------|
E|--------|--------|--------|--------|--------|--------|--------|--------|--------|


E|--------|--------|--------|--------|--------|--------|--------|--------|--------|
B|--------|--------|--------|--------|--------|--------|--------|--------|--------|
G|--------|--------|--------|--------|--------|--------|--------|--------|--------|
D|--------|--------|--------|--------|--------|--------|--------|--------|--------|
A|--------|--------|--------|--------|--------|--------|--------|--------|--------|
E|--------|--------|--------|--------|--------|--------|--------|--------|--------|


E|--------|--------|--------|--------|--------|--------|--------|--------|--------|
B|--------|--------|--------|--------|--------|--------|--------|--------|--------|
G|--------|--------|--------|--------|--------|--------|--------|--------|--------|
D|--------|--------|--------|--------|--------|--------|--------|--------|--------|
A|--------|--------|--------|--------|--------|--------|--------|--------|--------|
E|--------|--------|--------|--------|--------|--------|--------|--------|--------|


E|--------|--------|--------|--------|--------|--------|--------|--------|--------|
B|--------|--------|--------|--------|--------|--------|--------|--------|--------|
G|--------|--------|--------|--------|--------|--------|--------|--------|--------|
D|--------|--------|--------|--------|--------|--------|--------|--------|--------|
A|--------|--------|--------|--------|--------|--------|--------|--------|--------|
E|--------|--------|--------|--------|--------|--------|--------|--------|--------|


E|--------|--------|--------|--------|--------|--------|--------|--------|--------|
B|--------|--------|--------|--------|--------|--------|--------|--------|--------|
G|--------|--------|--------|--------|--------|--------|--------|--------|--------|
D|--------|--------|--------|--------|--------|--------|--------|--------|--------|
A|--------|--------|--------|--------|--------|--------|--------|--------|--------|
E|--------|--------|--------|--------|--------|--------|--------|--------|--------|


E|--------|--------|--------|--------|--------|--------|--------|--------|--------|
B|--------|--------|--------|--------|--------|--------|--------|--------|--------|
G|--------|--------|--------|--------|--------|--------|--------|--------|--------|
D|--------|--------|--------|--------|--------|--------|--------|--------|--------|
A|--------|--------|--------|--------|--------|--------|--------|--------|--------|
E|--------|--------|--------|--------|--------|--------|--------|--------|--------|


E|--------|--------|--------|--------|--------|--------|--------|--------|--------|
B|--------|--------|--------|--------|--------|--------|--------|--------|--------|
G|--------|--------|--------|--------|--------|--------|--------|--------|--------|
D|--------|--------|--------|--------|--------|--------|--------|--------|--------|
A|--------|--------|--------|--------|--------|--------|--------|--------|--------|
E|--------|--------|--------|--------|--------|--------|--------|--------|--------|


E|--------|--------|--------|--------|--------|--------|--------|--------|--------|
B|--------|--------|--------|--------|--------|--------|--------|--------|--------|
G|--------|--------|--------|--------|--------|--------|--------|--------|--------|
D|--------|--------|--------|--------|--------|--------|--------|--------|--------|
A|--------|--------|--------|--------|--------|--------|--------|--------|--------|
E|--------|--------|--------|--------|--------|--------|--------|--------|--------|


E|--------|--------|--------|--------|--------|--------|--------|--------|--------|
B|--------|--------|--------|--------|--------|--------|--------|--------|--------|
G|--------|--------|--------|--------|--------|--------|--------|--------|--------|
D|--------|--------|--------|--------|--------|--------|--------|--------|--------|
A|--------|--------|--------|--------|--------|--------|--------|--------|--------|
E|--------|--------|--------|--------|--------|--------|--------|--------|--------|


E|--------|--------|--------|--------|--------|--------|--------|--------|--------|
B|--------|--------|--------|--------|--------|--------|--------|--------|--------|
G|--------|--------|--------|--------|--------|--------|--------|--------|--------|
D|--------|--------|--------|--------|--------|--------|--------|--------|--------|
A|--------|--------|--------|--------|--------|--------|--------|--------|--------|
E|--------|--------|--------|--------|--------|--------|--------|--------|--------|


E|--------|--------|--------|--------|--------|--------|--------|--------|--------|
B|--------|--------|--------|--------|--------|--------|--------|--------|--------|
G|--------|--------|--------|--------|--------|--------|--------|--------|--------|
D|--------|--------|--------|--------|--------|--------|--------|--------|--------|
A|--------|--------|--------|--------|--------|--------|--------|--------|--------|
E|--------|--------|--------|--------|--------|--------|--------|--------|--------|


E|--------|--------|--------|--------|--------|--------|--------|--------|--------|
B|--------|--------|--------|--------|--------|--------|--------|--------|--------|
G|--------|--------|--------|--------|--------|--------|--------|--------|--------|
D|--------|--------|--------|--------|--------|--------|--------|--------|--------|
A|--------|--------|--------|--------|--------|--------|--------|--------|--------|
E|--------|--------|--------|--------|--------|--------|--------|--------|--------|


E|--------|--------|--------|--------|--------|--------|--------|--------|--------|
B|--------|--------|--------|--------|--------|--------|--------|--------|--------|
G|--------|--------|--------|--------|--------|--------|--------|--------|--------|
D|--------|--------|--------|--------|--------|--------|--------|--------|--------|
A|--------|--------|--------|--------|--------|--------|--------|--------|--------|
E|--------|--------|--------|--------|--------|--------|--------|--------|--------|


E|--------|--------|--------|--------|--------|--------|--------|--------|--------|
B|--------|--------|--------|--------|--------|--------|--------|--------|--------|
G|--------|--------|--------|--------|--------|--------|--------|--------|--------|
D|--------|--------|--------|--------|--------|--------|--------|--------|--------|
A|--------|--------|--------|--------|--------|--------|--------|--------|--------|
E|--------|--------|--------|--------|--------|--------|--------|--------|--------|


E|--------|--------|----------------|--------|--------|---------------------|--------------------|
B|--------|--------|-3--------------|--------|--------|-----------------3---|-3-------------3----|
G|--------|--------|-0---2---2------|-2------|-2------|-2---------------0---|-0---2---2-----0----|
D|--------|--------|-0-------0------|-0------|-0------|-0-----0---0-----0---|-0-------------1----|
A|--------|--------|----------------|--------|--------|---------------------|--------------------|
E|--------|--------|----------------|--------|--------|---------------------|--------------------|


E|--------|--------------------|---------------------|-------------|---------------------------|
B|-3------|-3-------------3----|-3-------------------|-3-----------|------3--------------------|
G|-0------|-0---2---2-----0----|-0----------0--------|-2------0----|----------0---0------------|
D|-1------|-0-------------1----|-1-----1---------0---|-0-----------|-1----------------1----0---|
A|--------|--------------------|---------------------|-------------|---------------------------|
E|--------|--------------------|---------------------|-------------|---------------------------|


E|-------------|-------------|--------|--------|--------|--------|--------|--------|
B|-3-----------|-3-----------|-3------|-3------|-3------|-3------|-3------|-3------|
G|-2------0----|-0----0------|-2------|-0------|-2------|-0------|-2------|-0------|
D|-0-----------|-1-----------|-0------|-1------|-0------|-1------|-0------|-1------|
A|-------------|-------------|--------|--------|--------|--------|--------|--------|
E|-------------|-------------|--------|--------|--------|--------|--------|--------|


E|--------|--------|--------|--------|--------|--------|--------|--------|--------|
B|-3------|-3------|-3------|-3------|-3------|-3------|-3------|-3------|-3------|
G|-2------|-0------|-2------|-0------|-2------|-0------|-2------|-0------|-2------|
D|-0------|-1------|-0------|-1------|-0------|-1------|-0------|-1------|-0------|
A|--------|--------|--------|--------|--------|--------|--------|--------|--------|
E|--------|--------|--------|--------|--------|--------|--------|--------|--------|


E|--------|--------|--------|--------|--------|--------|--------|--------|--------|
B|-3------|-3------|-3------|-3------|-3------|--------|--------|--------|--------|
G|-0------|-2------|-0------|-2------|-2------|--------|--------|--------|--------|
D|-1------|-0------|-1------|-0------|-0------|--------|--------|--------|--------|
A|--------|--------|--------|--------|--------|--------|--------|--------|--------|
E|--------|--------|--------|--------|--------|--------|--------|--------|--------|


E|--------|--------|--------|--------|--------|--------|--------|--------|--------|
B|--------|--------|--------|--------|--------|--------|--------|--------|--------|
G|--------|--------|--------|--------|--------|--------|--------|--------|--------|
D|--------|--------|--------|--------|--------|--------|--------|--------|--------|
A|--------|--------|--------|--------|--------|--------|--------|--------|--------|
E|--------|--------|--------|--------|--------|--------|--------|--------|--------|


E|--------|--------|--------|
B|--------|--------|--------|
G|--------|--------|--------|
D|--------|--------|--------|
A|--------|--------|--------|
E|--------|--------|--------|





Track 3: Joe Satriani

E|--------|--------|--------|--------|--------|--------|--------|--------|--------|
B|--------|--------|--------|--------|--------|--------|--------|--------|--------|
G|--------|--------|--------|--------|--------|--------|--------|--------|--------|
D|--------|--------|--------|--------|--------|--------|--------|--------|--------|
A|--------|--------|--------|--------|--------|--------|--------|--------|--------|
E|--------|--------|--------|--------|--------|--------|--------|--------|--------|


E|--------|--------|--------|--------|--------|--------|--------|--------|--------|
B|--------|--------|--------|--------|--------|--------|--------|--------|--------|
G|--------|--------|--------|--------|--------|--------|--------|--------|--------|
D|--------|--------|--------|--------|--------|--------|--------|--------|--------|
A|--------|--------|--------|--------|--------|--------|--------|--------|--------|
E|--------|--------|--------|--------|--------|--------|--------|--------|--------|


E|--------|--------|--------|--------|--------|--------|--------|--------|--------|
B|--------|--------|--------|--------|--------|--------|--------|--------|--------|
G|--------|--------|--------|--------|--------|--------|--------|--------|--------|
D|--------|--------|--------|--------|--------|--------|--------|--------|--------|
A|--------|--------|--------|--------|--------|--------|--------|--------|--------|
E|--------|--------|--------|--------|--------|--------|--------|--------|--------|


E|--------|---------------------------------------------|---------------------------------------------|
B|--------|---------------------------------------------|---------------------------------------------|
G|--------|---------------------------------------------|---------------------------------------------|
D|--------|---------------------------------------------|---------------------------------------------|
A|--------|-3--5--5--5--5--5--3--3--5--5--5--5--3-------|-3--5--5--5--5--5--3--3--5--5--5--5--3-------|
E|--------|---------------------------------------------|---------------------------------------------|


E|---------------------------------------------|---------------------------------------------|
B|---------------------------------------------|---------------------------------------------|
G|---------------------------------------------|---------------------------------------------|
D|-2--3--3--3--3--3--2--2--3--3--3--3--2-------|-2--3--3--3--3--3--2--2--3--3--3--3--2-------|
A|-3--5--5--5--5--5--3--3--5--5--5--5--3-------|-3--5--5--5--5--5--3--3--5--5--5--5--3-------|
E|---------------------------------------------|---------------------------------------------|


E|---------------------------------------------|---------------------------------------------|
B|---------------------------------------------|---------------------------------------------|
G|-4--5--5--5--5--5--4--4--5--5--5--5--4-------|---------------------------------------------|
D|-5--7--7--7--7--7--5--5--7--7--7--7--5-------|-2--3--3--3--3--3--2--2--3--3--3--3--2-------|
A|---------------------------------------------|-3--5--5--5--5--5--3--3--5--5--5--5--3-------|
E|---------------------------------------------|---------------------------------------------|


E|---------------------------------------------|---------------------------------------------|
B|---------------------------------------------|-10-12-12-12-12-12-10-10-12-12-12-12-10------|
G|---------------------------------------------|---------------------------------------------|
D|-2--3--3--3--3--3--2--2--3--3--3--3--2-------|---------------------------------------------|
A|-3--5--5--5--5--5--3--3--5--5--5--5--3-------|---------------------------------------------|
E|---------------------------------------------|---------------------------------------------|


E|--------|--------|--------|--------|--------|--------|--------|--------|-----------------------|
B|--------|--------|--------|--------|--------|--------|--------|--------|-------------10--------|
G|--------|--------|--------|--------|--------|--------|--------|--------|------10-10------12----|
D|--------|--------|--------|--------|--------|--------|--------|--------|-12--------------------|
A|--------|--------|--------|--------|--------|--------|--------|--------|-----------------------|
E|--------|--------|--------|--------|--------|--------|--------|--------|-----------------------|


E|--------|--------|--------|--------|--------|--------|--------|--------|--------|
B|--------|--------|--------|--------|--------|--------|--------|--------|--------|
G|--------|--------|--------|--------|--------|--------|--------|--------|--------|
D|--------|--------|--------|--------|--------|--------|--------|--------|--------|
A|--------|--------|--------|--------|--------|--------|--------|--------|--------|
E|--------|--------|--------|--------|--------|--------|--------|--------|--------|


E|--------|--------|--------|--------|--------|--------|---------------------------------------------|
B|--------|--------|--------|--------|--------|--------|---------------------------------------------|
G|--------|--------|--------|--------|--------|--------|---------------------------------------------|
D|--------|--------|--------|--------|--------|--------|---------------------------------------------|
A|--------|--------|--------|--------|--------|--------|-3--5--5--5--5--5--3--3--5--5--5--5--3-------|
E|--------|--------|--------|--------|--------|--------|---------------------------------------------|


E|---------------------------------------------|---------------------------------------------|
B|---------------------------------------------|---------------------------------------------|
G|---------------------------------------------|---------------------------------------------|
D|---------------------------------------------|-2--3--3--3--3--3--2--2--3--3--3--3--2-------|
A|-3--5--5--5--5--5--3--3--5--5--5--5--3-------|-3--5--5--5--5--5--3--3--5--5--5--5--3-------|
E|---------------------------------------------|---------------------------------------------|


E|---------------------------------------------|---------------------------------------------|
B|---------------------------------------------|---------------------------------------------|
G|---------------------------------------------|-4--5--5--5--5--5--4--4--5--5--5--5--4-------|
D|-2--3--3--3--3--3--2--2--3--3--3--3--2-------|-5--7--7--7--7--7--5--5--7--7--7--7--5-------|
A|-3--5--5--5--5--5--3--3--5--5--5--5--3-------|---------------------------------------------|
E|---------------------------------------------|---------------------------------------------|


E|---------------------------------------------|---------------------------------------------|
B|---------------------------------------------|---------------------------------------------|
G|---------------------------------------------|---------------------------------------------|
D|-2--3--3--3--3--3--2--2--3--3--3--3--2-------|-2--3--3--3--3--3--2--2--3--3--3--3--2-------|
A|-3--5--5--5--5--5--3--3--5--5--5--5--3-------|-3--5--5--5--5--5--3--3--5--5--5--5--3-------|
E|---------------------------------------------|---------------------------------------------|


E|---------------------------------------------|--------|--------|--------|--------|
B|-10-12-12-12-12-12-10-10-12-12-12-12-10------|--------|--------|--------|--------|
G|---------------------------------------------|--------|--------|--------|--------|
D|---------------------------------------------|--------|--------|--------|--------|
A|---------------------------------------------|--------|--------|--------|--------|
E|---------------------------------------------|--------|--------|--------|--------|


E|--------|--------|--------|--------|--------|--------|--------|--------|--------|
B|--------|--------|--------|--------|--------|--------|--------|--------|--------|
G|--------|--------|--------|--------|--------|--------|--------|--------|--------|
D|--------|--------|--------|--------|--------|--------|--------|--------|--------|
A|--------|--------|--------|--------|--------|--------|--------|--------|--------|
E|--------|--------|--------|--------|--------|--------|--------|--------|--------|


E|--------|--------|--------|--------|--------|--------|--------|--------|--------|
B|--------|--------|--------|--------|--------|--------|--------|--------|--------|
G|--------|--------|--------|--------|--------|--------|--------|--------|--------|
D|--------|--------|--------|--------|--------|--------|--------|--------|--------|
A|--------|--------|--------|--------|--------|--------|--------|--------|--------|
E|--------|--------|--------|--------|--------|--------|--------|--------|--------|


E|--------|--------|--------|--------|--------|--------|--------|--------|--------|
B|--------|--------|--------|--------|--------|--------|--------|--------|--------|
G|--------|--------|--------|--------|--------|--------|--------|--------|--------|
D|--------|--------|--------|--------|--------|--------|--------|--------|--------|
A|--------|--------|--------|--------|--------|--------|--------|--------|--------|
E|--------|--------|--------|--------|--------|--------|--------|--------|--------|


E|--------|--------|--------|--------|--------|--------|--------|--------|--------|
B|--------|--------|--------|--------|--------|--------|--------|--------|--------|
G|--------|--------|--------|--------|--------|--------|--------|--------|--------|
D|--------|--------|--------|--------|--------|--------|--------|--------|--------|
A|--------|--------|--------|--------|--------|--------|--------|--------|--------|
E|--------|--------|--------|--------|--------|--------|--------|--------|--------|


E|--------|--------|--------|--------|--------|--------|--------|--------|--------|
B|--------|--------|--------|--------|--------|--------|--------|--------|--------|
G|--------|--------|--------|--------|--------|--------|--------|--------|--------|
D|--------|--------|--------|--------|--------|--------|--------|--------|--------|
A|--------|--------|--------|--------|--------|--------|--------|--------|--------|
E|--------|--------|--------|--------|--------|--------|--------|--------|--------|


E|--------|--------|--------|---------------------------------------------|---------------------------------------------|
B|--------|--------|--------|---------------------------------------------|---------------------------------------------|
G|--------|--------|--------|---------------------------------------------|---------------------------------------------|
D|--------|--------|--------|---------------------------------------------|---------------------------------------------|
A|--------|--------|--------|-3--5--5--5--5--5--3--3--5--5--5--5--3-------|-3--5--5--5--5--5--3--3--5--5--5--5--3-------|
E|--------|--------|--------|---------------------------------------------|---------------------------------------------|


E|---------------------------------------------|---------------------------------------------|
B|---------------------------------------------|---------------------------------------------|
G|---------------------------------------------|---------------------------------------------|
D|-2--3--3--3--3--3--2--2--3--3--3--3--2-------|-2--3--3--3--3--3--2--2--3--3--3--3--2-------|
A|-3--5--5--5--5--5--3--3--5--5--5--5--3-------|-3--5--5--5--5--5--3--3--5--5--5--5--3-------|
E|---------------------------------------------|---------------------------------------------|


E|---------------------------------------------|---------------------------------------------|
B|---------------------------------------------|---------------------------------------------|
G|-4--5--5--5--5--5--4--4--5--5--5--5--4-------|---------------------------------------------|
D|-5--7--7--7--7--7--5--5--7--7--7--7--5-------|-2--3--3--3--3--3--2--2--3--3--3--3--2-------|
A|---------------------------------------------|-3--5--5--5--5--5--3--3--5--5--5--5--3-------|
E|---------------------------------------------|---------------------------------------------|


E|---------------------------------------------|---------------------------------------------|
B|---------------------------------------------|-10-12-12-12-12-12-10-10-12-12-12-12-10------|
G|---------------------------------------------|---------------------------------------------|
D|-2--3--3--3--3--3--2--2--3--3--3--3--2-------|---------------------------------------------|
A|-3--5--5--5--5--5--3--3--5--5--5--5--3-------|---------------------------------------------|
E|---------------------------------------------|---------------------------------------------|


E|--------|--------|--------|--------|--------|--------|--------|--------|--------|
B|--------|--------|--------|--------|--------|--------|--------|--------|--------|
G|--------|--------|--------|--------|--------|--------|--------|--------|--------|
D|--------|--------|--------|--------|--------|--------|--------|--------|--------|
A|--------|--------|--------|--------|--------|--------|--------|--------|--------|
E|--------|--------|--------|--------|--------|--------|--------|--------|--------|


E|--------|--------|--------|--------|--------|--------|--------|--------|--------|
B|--------|--------|--------|--------|--------|--------|--------|--------|--------|
G|--------|--------|--------|--------|--------|--------|--------|--------|--------|
D|--------|--------|--------|--------|--------|--------|--------|--------|--------|
A|--------|--------|--------|--------|--------|--------|--------|--------|--------|
E|--------|--------|--------|--------|--------|--------|--------|--------|--------|


E|--------|--------|--------|--------|--------|--------|--------|--------|--------|
B|--------|--------|--------|--------|--------|--------|--------|--------|--------|
G|--------|--------|--------|--------|--------|--------|--------|--------|--------|
D|--------|--------|--------|--------|--------|--------|--------|--------|--------|
A|--------|--------|--------|--------|--------|--------|--------|--------|--------|
E|--------|--------|--------|--------|--------|--------|--------|--------|--------|


E|--------|--------|--------|--------|--------|--------|--------|--------|--------|
B|--------|--------|--------|--------|--------|--------|--------|--------|--------|
G|--------|--------|--------|--------|--------|--------|--------|--------|--------|
D|--------|--------|--------|--------|--------|--------|--------|--------|--------|
A|--------|--------|--------|--------|--------|--------|--------|--------|--------|
E|--------|--------|--------|--------|--------|--------|--------|--------|--------|


E|--------|--------|--------|--------|--------|--------|--------|--------|--------|
B|--------|--------|--------|--------|--------|--------|--------|--------|--------|
G|--------|--------|--------|--------|--------|--------|--------|--------|--------|
D|--------|--------|--------|--------|--------|--------|--------|--------|--------|
A|--------|--------|--------|--------|--------|--------|--------|--------|--------|
E|--------|--------|--------|--------|--------|--------|--------|--------|--------|


E|--------|--------|--------|--------|--------|--------|--------|--------|--------|
B|--------|--------|--------|--------|--------|--------|--------|--------|--------|
G|--------|--------|--------|--------|--------|--------|--------|--------|--------|
D|--------|--------|--------|--------|--------|--------|--------|--------|--------|
A|--------|--------|--------|--------|--------|--------|--------|--------|--------|
E|--------|--------|--------|--------|--------|--------|--------|--------|--------|


E|--------|--------|---------------------------------------------|---------------------------------------------|
B|--------|--------|---------------------------------------------|---------------------------------------------|
G|--------|--------|---------------------------------------------|---------------------------------------------|
D|--------|--------|---------------------------------------------|---------------------------------------------|
A|--------|--------|-3--5--5--5--5--5--3--3--5--5--5--5--3-------|-3--5--5--5--5--5--3--3--5--5--5--5--3-------|
E|--------|--------|---------------------------------------------|---------------------------------------------|


E|---------------------------------------------|---------------------------------------------|
B|---------------------------------------------|---------------------------------------------|
G|---------------------------------------------|---------------------------------------------|
D|---------------------------------------------|---------------------------------------------|
A|-3--5--5--5--5--5--3--3--5--5--5--5--3-------|-3--5--5--5--5--5--3--3--5--5--5--5--3-------|
E|---------------------------------------------|---------------------------------------------|


E|---------------------------------------------|---------------------------------------------|
B|---------------------------------------------|---------------------------------------------|
G|---------------------------------------------|---------------------------------------------|
D|-2--3--3--3--3--3--2--2--3--3--3--3--2-------|-2--3--3--3--3--3--2--2--3--3--3--3--2-------|
A|-3--5--5--5--5--5--3--3--5--5--5--5--3-------|-3--5--5--5--5--5--3--3--5--5--5--5--3-------|
E|---------------------------------------------|---------------------------------------------|


E|---------------------------------------------|---------------------------------------------|
B|---------------------------------------------|---------------------------------------------|
G|---------------------------------------------|---------------------------------------------|
D|-2--3--3--3--3--3--2--2--3--3--3--3--2-------|-2--3--3--3--3--3--2--2--3--3--3--3--2-------|
A|-3--5--5--5--5--5--3--3--5--5--5--5--3-------|-3--5--5--5--5--5--3--3--5--5--5--5--3-------|
E|---------------------------------------------|---------------------------------------------|


E|---------------------------------------------|---------------------------------------------|
B|---------------------------------------------|---------------------------------------------|
G|-4--5--5--5--5--5--4--4--5--5--5--5--4-------|-4--5--5--5--5--5--4--4--5--5--5--5--4-------|
D|-5--7--7--7--7--7--5--5--7--7--7--7--5-------|-5--7--7--7--7--7--5--5--7--7--7--7--5-------|
A|---------------------------------------------|---------------------------------------------|
E|---------------------------------------------|---------------------------------------------|


E|---------------------------------------------|---------------------------------------------|
B|---------------------------------------------|---------------------------------------------|
G|---------------------------------------------|---------------------------------------------|
D|-2--3--3--3--3--3--2--2--3--3--3--3--2-------|-2--3--3--3--3--3--2--2--3--3--3--3--2-------|
A|-3--5--5--5--5--5--3--3--5--5--5--5--3-------|-3--5--5--5--5--5--3--3--5--5--5--5--3-------|
E|---------------------------------------------|---------------------------------------------|


E|---------------------------------------------|---------------------------------------------|
B|---------------------------------------------|---------------------------------------------|
G|---------------------------------------------|---------------------------------------------|
D|-2--3--3--3--3--3--2--2--3--3--3--3--2-------|-2--3--3--3--3--3--2--2--3--3--3--3--2-------|
A|-3--5--5--5--5--5--3--3--5--5--5--5--3-------|-3--5--5--5--5--5--3--3--5--5--5--5--3-------|
E|---------------------------------------------|---------------------------------------------|


E|---------------------------------------------|---------------------------------------------|
B|-10-12-12-12-12-12-10-10-12-12-12-12-10------|-10-12-12-12-12-12-10-10-12-12-12-12-10------|
G|---------------------------------------------|---------------------------------------------|
D|---------------------------------------------|---------------------------------------------|
A|---------------------------------------------|---------------------------------------------|
E|---------------------------------------------|---------------------------------------------|





Track 4: Joe Satriani

E|--------|--------|--------|--------|--------|--------|--------|--------|--------|
B|--------|--------|--------|--------|--------|--------|--------|--------|--------|
G|--------|--------|--------|--------|--------|--------|--------|--------|--------|
D|--------|--------|--------|--------|--------|--------|--------|--------|--------|
A|--------|--------|--------|--------|--------|--------|--------|--------|--------|
E|--------|--------|--------|--------|--------|--------|--------|--------|--------|


E|--------|--------|--------|--------|--------|--------|--------|--------|--------|
B|--------|--------|--------|--------|--------|--------|--------|--------|--------|
G|--------|--------|--------|--------|--------|--------|--------|--------|--------|
D|--------|--------|--------|--------|--------|--------|--------|--------|--------|
A|--------|--------|--------|--------|--------|--------|--------|--------|--------|
E|--------|--------|--------|--------|--------|--------|--------|--------|--------|


E|--------|--------|--------|--------|--------|--------|--------|--------|--------|
B|--------|--------|--------|--------|--------|--------|--------|--------|--------|
G|--------|--------|--------|--------|--------|--------|--------|--------|--------|
D|--------|--------|--------|--------|--------|--------|--------|--------|--------|
A|--------|--------|--------|--------|--------|--------|--------|--------|--------|
E|--------|--------|--------|--------|--------|--------|--------|--------|--------|


E|--------|--------|--------|--------|--------|---------------------------------------------|
B|--------|--------|--------|--------|--------|---------------------------------------------|
G|--------|--------|--------|--------|--------|---------------------------------------------|
D|--------|--------|--------|--------|--------|-2--3--3--3--3--3--2--2--3--3--3--3--2-------|
A|--------|--------|--------|--------|--------|-3--5--5--5--5--5--3--3--5--5--5--5--3-------|
E|--------|--------|--------|--------|--------|---------------------------------------------|


E|---------------------------------------------|---------------------------------------------|
B|---------------------------------------------|---------------------------------------------|
G|-7--9--9--9--9--9--7--7--9--9--9--9--7-------|-7--9--9--9--9--9--7--7--9--9--9--9--7-------|
D|-5--7--7--7--7--7--5--5--7--7--7--7--5-------|-5--7--7--7--7--7--5--5--7--7--7--7--5-------|
A|---------------------------------------------|---------------------------------------------|
E|---------------------------------------------|---------------------------------------------|


E|---------------------------------------------|--------|--------|--------|--------|
B|---------------------------------------------|--------|--------|--------|--------|
G|-7--9--9--9--9--9--7--7--9--9--9--9--7-------|--------|--------|--------|--------|
D|-5--7--7--7--7--7--5--5--7--7--7--7--5-------|--------|--------|--------|--------|
A|-3--5--5--5--5--5--3--3--5--5--5--5--3-------|--------|--------|--------|--------|
E|---------------------------------------------|--------|--------|--------|--------|


E|--------|--------|--------|--------|--------|--------|--------|--------|--------|
B|--------|--------|--------|--------|--------|--------|--------|--------|--------|
G|--------|--------|--------|--------|--------|--------|--------|--------|--------|
D|--------|--------|--------|--------|--------|--------|--------|--------|--------|
A|--------|--------|--------|--------|--------|--------|--------|--------|--------|
E|--------|--------|--------|--------|--------|--------|--------|--------|--------|


E|--------|--------|--------|--------|--------|--------|--------|--------|--------|
B|--------|--------|--------|--------|--------|--------|--------|--------|--------|
G|--------|--------|--------|--------|--------|--------|--------|--------|--------|
D|--------|--------|--------|--------|--------|--------|--------|--------|--------|
A|--------|--------|--------|--------|--------|--------|--------|--------|--------|
E|--------|--------|--------|--------|--------|--------|--------|--------|--------|


E|--------|--------|--------|--------|--------|--------|---------------------------------------------|
B|--------|--------|--------|--------|--------|--------|---------------------------------------------|
G|--------|--------|--------|--------|--------|--------|---------------------------------------------|
D|--------|--------|--------|--------|--------|--------|-2--3--3--3--3--3--2--2--3--3--3--3--2-------|
A|--------|--------|--------|--------|--------|--------|-3--5--5--5--5--5--3--3--5--5--5--5--3-------|
E|--------|--------|--------|--------|--------|--------|---------------------------------------------|


E|---------------------------------------------|---------------------------------------------|
B|---------------------------------------------|---------------------------------------------|
G|-7--9--9--9--9--9--7--7--9--9--9--9--7-------|-7--9--9--9--9--9--7--7--9--9--9--9--7-------|
D|-5--7--7--7--7--7--5--5--7--7--7--7--5-------|-5--7--7--7--7--7--5--5--7--7--7--7--5-------|
A|---------------------------------------------|---------------------------------------------|
E|---------------------------------------------|---------------------------------------------|


E|---------------------------------------------|--------|--------|--------|--------|
B|---------------------------------------------|--------|--------|--------|--------|
G|-7--9--9--9--9--9--7--7--9--9--9--9--7-------|--------|--------|--------|--------|
D|-5--7--7--7--7--7--5--5--7--7--7--7--5-------|--------|--------|--------|--------|
A|-3--5--5--5--5--5--3--3--5--5--5--5--3-------|--------|--------|--------|--------|
E|---------------------------------------------|--------|--------|--------|--------|


E|--------|--------|--------|--------|--------|--------|--------|--------|--------|
B|--------|--------|--------|--------|--------|--------|--------|--------|--------|
G|--------|--------|--------|--------|--------|--------|--------|--------|--------|
D|--------|--------|--------|--------|--------|--------|--------|--------|--------|
A|--------|--------|--------|--------|--------|--------|--------|--------|--------|
E|--------|--------|--------|--------|--------|--------|--------|--------|--------|


E|--------|--------|--------|--------|--------|--------|--------|--------|--------|
B|--------|--------|--------|--------|--------|--------|--------|--------|--------|
G|--------|--------|--------|--------|--------|--------|--------|--------|--------|
D|--------|--------|--------|--------|--------|--------|--------|--------|--------|
A|--------|--------|--------|--------|--------|--------|--------|--------|--------|
E|--------|--------|--------|--------|--------|--------|--------|--------|--------|


E|--------|--------|--------|--------|--------|--------|--------|--------|--------|
B|--------|--------|--------|--------|--------|--------|--------|--------|--------|
G|--------|--------|--------|--------|--------|--------|--------|--------|--------|
D|--------|--------|--------|--------|--------|--------|--------|--------|--------|
A|--------|--------|--------|--------|--------|--------|--------|--------|--------|
E|--------|--------|--------|--------|--------|--------|--------|--------|--------|


E|--------|--------|--------|--------|--------|--------|--------|--------|--------|
B|--------|--------|--------|--------|--------|--------|--------|--------|--------|
G|--------|--------|--------|--------|--------|--------|--------|--------|--------|
D|--------|--------|--------|--------|--------|--------|--------|--------|--------|
A|--------|--------|--------|--------|--------|--------|--------|--------|--------|
E|--------|--------|--------|--------|--------|--------|--------|--------|--------|


E|--------|--------|--------|--------|--------|--------|--------|--------|--------|
B|--------|--------|--------|--------|--------|--------|--------|--------|--------|
G|--------|--------|--------|--------|--------|--------|--------|--------|--------|
D|--------|--------|--------|--------|--------|--------|--------|--------|--------|
A|--------|--------|--------|--------|--------|--------|--------|--------|--------|
E|--------|--------|--------|--------|--------|--------|--------|--------|--------|


E|--------|--------|--------|--------|--------|--------|--------|---------------------------------------------|
B|--------|--------|--------|--------|--------|--------|--------|---------------------------------------------|
G|--------|--------|--------|--------|--------|--------|--------|---------------------------------------------|
D|--------|--------|--------|--------|--------|--------|--------|-2--3--3--3--3--3--2--2--3--3--3--3--2-------|
A|--------|--------|--------|--------|--------|--------|--------|-3--5--5--5--5--5--3--3--5--5--5--5--3-------|
E|--------|--------|--------|--------|--------|--------|--------|---------------------------------------------|


E|---------------------------------------------|---------------------------------------------|
B|---------------------------------------------|---------------------------------------------|
G|-7--9--9--9--9--9--7--7--9--9--9--9--7-------|-7--9--9--9--9--9--7--7--9--9--9--9--7-------|
D|-5--7--7--7--7--7--5--5--7--7--7--7--5-------|-5--7--7--7--7--7--5--5--7--7--7--7--5-------|
A|---------------------------------------------|---------------------------------------------|
E|---------------------------------------------|---------------------------------------------|


E|---------------------------------------------|--------|--------|--------|--------|
B|---------------------------------------------|--------|--------|--------|--------|
G|-7--9--9--9--9--9--7--7--9--9--9--9--7-------|--------|--------|--------|--------|
D|-5--7--7--7--7--7--5--5--7--7--7--7--5-------|--------|--------|--------|--------|
A|-3--5--5--5--5--5--3--3--5--5--5--5--3-------|--------|--------|--------|--------|
E|---------------------------------------------|--------|--------|--------|--------|


E|--------|--------|--------|--------|--------|--------|--------|--------|--------|
B|--------|--------|--------|--------|--------|--------|--------|--------|--------|
G|--------|--------|--------|--------|--------|--------|--------|--------|--------|
D|--------|--------|--------|--------|--------|--------|--------|--------|--------|
A|--------|--------|--------|--------|--------|--------|--------|--------|--------|
E|--------|--------|--------|--------|--------|--------|--------|--------|--------|


E|--------|--------|--------|--------|--------|--------|--------|--------|--------|
B|--------|--------|--------|--------|--------|--------|--------|--------|--------|
G|--------|--------|--------|--------|--------|--------|--------|--------|--------|
D|--------|--------|--------|--------|--------|--------|--------|--------|--------|
A|--------|--------|--------|--------|--------|--------|--------|--------|--------|
E|--------|--------|--------|--------|--------|--------|--------|--------|--------|


E|--------|--------|--------|--------|--------|--------|--------|--------|--------|
B|--------|--------|--------|--------|--------|--------|--------|--------|--------|
G|--------|--------|--------|--------|--------|--------|--------|--------|--------|
D|--------|--------|--------|--------|--------|--------|--------|--------|--------|
A|--------|--------|--------|--------|--------|--------|--------|--------|--------|
E|--------|--------|--------|--------|--------|--------|--------|--------|--------|


E|--------|--------|--------|--------|--------|--------|--------|--------|--------|
B|--------|--------|--------|--------|--------|--------|--------|--------|--------|
G|--------|--------|--------|--------|--------|--------|--------|--------|--------|
D|--------|--------|--------|--------|--------|--------|--------|--------|--------|
A|--------|--------|--------|--------|--------|--------|--------|--------|--------|
E|--------|--------|--------|--------|--------|--------|--------|--------|--------|


E|--------|--------|--------|--------|--------|--------|--------|--------|--------|
B|--------|--------|--------|--------|--------|--------|--------|--------|--------|
G|--------|--------|--------|--------|--------|--------|--------|--------|--------|
D|--------|--------|--------|--------|--------|--------|--------|--------|--------|
A|--------|--------|--------|--------|--------|--------|--------|--------|--------|
E|--------|--------|--------|--------|--------|--------|--------|--------|--------|


E|--------|--------|--------|--------|--------|--------|--------|--------|--------|
B|--------|--------|--------|--------|--------|--------|--------|--------|--------|
G|--------|--------|--------|--------|--------|--------|--------|--------|--------|
D|--------|--------|--------|--------|--------|--------|--------|--------|--------|
A|--------|--------|--------|--------|--------|--------|--------|--------|--------|
E|--------|--------|--------|--------|--------|--------|--------|--------|--------|


E|--------|--------|--------|--------|--------|--------|---------------------------------------------|
B|--------|--------|--------|--------|--------|--------|---------------------------------------------|
G|--------|--------|--------|--------|--------|--------|---------------------------------------------|
D|--------|--------|--------|--------|--------|--------|-2--3--3--3--3--3--2--2--3--3--3--3--2-------|
A|--------|--------|--------|--------|--------|--------|-3--5--5--5--5--5--3--3--5--5--5--5--3-------|
E|--------|--------|--------|--------|--------|--------|---------------------------------------------|


E|---------------------------------------------|---------------------------------------------|
B|---------------------------------------------|---------------------------------------------|
G|---------------------------------------------|-7--9--9--9--9--9--7--7--9--9--9--9--7-------|
D|-2--3--3--3--3--3--2--2--3--3--3--3--2-------|-5--7--7--7--7--7--5--5--7--7--7--7--5-------|
A|-3--5--5--5--5--5--3--3--5--5--5--5--3-------|---------------------------------------------|
E|---------------------------------------------|---------------------------------------------|


E|---------------------------------------------|---------------------------------------------|
B|---------------------------------------------|---------------------------------------------|
G|-7--9--9--9--9--9--7--7--9--9--9--9--7-------|-7--9--9--9--9--9--7--7--9--9--9--9--7-------|
D|-5--7--7--7--7--7--5--5--7--7--7--7--5-------|-5--7--7--7--7--7--5--5--7--7--7--7--5-------|
A|---------------------------------------------|---------------------------------------------|
E|---------------------------------------------|---------------------------------------------|


E|---------------------------------------------|---------------------------------------------|
B|---------------------------------------------|---------------------------------------------|
G|-7--9--9--9--9--9--7--7--9--9--9--9--7-------|-7--9--9--9--9--9--7--7--9--9--9--9--7-------|
D|-5--7--7--7--7--7--5--5--7--7--7--7--5-------|-5--7--7--7--7--7--5--5--7--7--7--7--5-------|
A|---------------------------------------------|-3--5--5--5--5--5--3--3--5--5--5--5--3-------|
E|---------------------------------------------|---------------------------------------------|


E|---------------------------------------------|
B|---------------------------------------------|
G|-7--9--9--9--9--9--7--7--9--9--9--9--7-------|
D|-5--7--7--7--7--7--5--5--7--7--7--7--5-------|
A|-3--5--5--5--5--5--3--3--5--5--5--5--3-------|
E|---------------------------------------------|





Track 5: Satch Solo 2

E|--------|--------|--------|--------|--------|--------|--------|--------|--------|
B|--------|--------|--------|--------|--------|--------|--------|--------|--------|
G|--------|--------|--------|--------|--------|--------|--------|--------|--------|
D|--------|--------|--------|--------|--------|--------|--------|--------|--------|
A|--------|--------|--------|--------|--------|--------|--------|--------|--------|
E|--------|--------|--------|--------|--------|--------|--------|--------|--------|


E|--------|--------|--------|--------|--------|--------|--------|--------|--------|
B|--------|--------|--------|--------|--------|--------|--------|--------|--------|
G|--------|--------|--------|--------|--------|--------|--------|--------|--------|
D|--------|--------|--------|--------|--------|--------|--------|--------|--------|
A|--------|--------|--------|--------|--------|--------|--------|--------|--------|
E|--------|--------|--------|--------|--------|--------|--------|--------|--------|


E|--------|--------|--------|--------|--------|--------|--------|--------|--------|
B|--------|--------|--------|--------|--------|--------|--------|--------|--------|
G|--------|--------|--------|--------|--------|--------|--------|--------|--------|
D|--------|--------|--------|--------|--------|--------|--------|--------|--------|
A|--------|--------|--------|--------|--------|--------|--------|--------|--------|
E|--------|--------|--------|--------|--------|--------|--------|--------|--------|


E|--------|--------|--------|--------|--------|--------|--------|--------|--------|
B|--------|--------|--------|--------|--------|--------|--------|--------|--------|
G|--------|--------|--------|--------|--------|--------|--------|--------|--------|
D|--------|--------|--------|--------|--------|--------|--------|--------|--------|
A|--------|--------|--------|--------|--------|--------|--------|--------|--------|
E|--------|--------|--------|--------|--------|--------|--------|--------|--------|


E|--------|--------|--------|--------|--------|--------|--------|--------|--------|
B|--------|--------|--------|--------|--------|--------|--------|--------|--------|
G|--------|--------|--------|--------|--------|--------|--------|--------|--------|
D|--------|--------|--------|--------|--------|--------|--------|--------|--------|
A|--------|--------|--------|--------|--------|--------|--------|--------|--------|
E|--------|--------|--------|--------|--------|--------|--------|--------|--------|


E|--------|--------|--------|--------|--------|--------|--------|--------|--------|
B|--------|--------|--------|--------|--------|--------|--------|--------|--------|
G|--------|--------|--------|--------|--------|--------|--------|--------|--------|
D|--------|--------|--------|--------|--------|--------|--------|--------|--------|
A|--------|--------|--------|--------|--------|--------|--------|--------|--------|
E|--------|--------|--------|--------|--------|--------|--------|--------|--------|


E|--------|--------|--------|--------|--------|--------|--------|--------|--------|
B|--------|--------|--------|--------|--------|--------|--------|--------|--------|
G|--------|--------|--------|--------|--------|--------|--------|--------|--------|
D|--------|--------|--------|--------|--------|--------|--------|--------|--------|
A|--------|--------|--------|--------|--------|--------|--------|--------|--------|
E|--------|--------|--------|--------|--------|--------|--------|--------|--------|


E|--------|--------|--------|--------|--------|----------------------8--9--11-9--8--9--11-13-11-9-----------------|
B|--------|--------|--------|--------|--------|-------------8--9--11-------------------------------13-11-9--8--9--|
G|--------|--------|--------|--------|--------|----6--8--10-------------------------------------------------------|
D|--------|--------|--------|--------|--------|-------------------------------------------------------------------|
A|--------|--------|--------|--------|--------|-------------------------------------------------------------------|
E|--------|--------|--------|--------|--------|-------------------------------------------------------------------|


E|-------------------------------------------------------|----------------------------------------------------------------------|
B|-11-9--8-----------------------------------------------|----------------------------------------------------------------------|
G|----------10-8--6--6----5--6--8--6--5--6--10--10-8--6--|-------------------5--6--8--6--5--------------------------------------|
D|-------------------------------------------------------|-10-8--6--5--6--8-----------------8--6--5--6--8--6--5--8--10-8--6-----|
A|-------------------------------------------------------|-------------------------------------------------------------------10-|
E|-------------------------------------------------------|----------------------------------------------------------------------|


E|--------------------------------|--------|--------|--------|--------|-11-10-9----------------------------------------------------------------|
B|--------------------------------|--------|--------|--------|--------|----------1211109-12-10-9--12-9--10-12-10-9-----------------------------|
G|--------------------------------|--------|--------|--------|--------|------------------------------------------------11-8--9--11-9--8--9--11-|
D|--------------------------------|--------|--------|--------|--------|------------------------------------------------------------------------|
A|-6--8--6------------------------|--------|--------|--------|--------|------------------------------------------------------------------------|
E|----------8---8---6---8----8----|--------|--------|--------|--------|------------------------------------------------------------------------|


E|----------------------------------------------------------------|---------------------------------------------------------------|
B|----------------------------------------------------------------|---------------------------------------------------------------|
G|-13-11-9--8--9--8-----6--8--9--8--6-----------------------------|---------------------------------------------------------------|
D|-------------------11----------------9--6--7--9--6--7--9--11-9--|-7--6--------------6--7--9-------------------------------------|
A|----------------------------------------------------------------|-------7--6--7--9--------------9-7-5-4-5--7--5--4--5--7--9--7--|
E|----------------------------------------------------------------|---------------------------------------------------------------|


E|----------------------------------------|--------|--------|--------|--------|--------|
B|----------------------------------------|--------|--------|--------|--------|--------|
G|-------------------------------------10-|--------|--------|--------|--------|--------|
D|----------------------------------------|--------|--------|--------|--------|--------|
A|-6-----9-7-6-4--------------------------|--------|--------|--------|--------|--------|
E|---------------7--5--4--2--4-----12-----|--------|--------|--------|--------|--------|


E|--------|--------|--------|--------|--------|--------|--------|--------|--------|
B|--------|--------|--------|--------|--------|--------|--------|--------|--------|
G|--------|--------|--------|--------|--------|--------|--------|--------|--------|
D|--------|--------|--------|--------|--------|--------|--------|--------|--------|
A|--------|--------|--------|--------|--------|--------|--------|--------|--------|
E|--------|--------|--------|--------|--------|--------|--------|--------|--------|


E|--------|--------|--------|--------|--------|--------|--------|--------|--------|
B|--------|--------|--------|--------|--------|--------|--------|--------|--------|
G|--------|--------|--------|--------|--------|--------|--------|--------|--------|
D|--------|--------|--------|--------|--------|--------|--------|--------|--------|
A|--------|--------|--------|--------|--------|--------|--------|--------|--------|
E|--------|--------|--------|--------|--------|--------|--------|--------|--------|


E|--------|--------|--------|--------|--------|--------|--------|--------|--------|
B|--------|--------|--------|--------|--------|--------|--------|--------|--------|
G|--------|--------|--------|--------|--------|--------|--------|--------|--------|
D|--------|--------|--------|--------|--------|--------|--------|--------|--------|
A|--------|--------|--------|--------|--------|--------|--------|--------|--------|
E|--------|--------|--------|--------|--------|--------|--------|--------|--------|


E|--------|--------|--------|--------|--------|--------|--------|--------|--------|
B|--------|--------|--------|--------|--------|--------|--------|--------|--------|
G|--------|--------|--------|--------|--------|--------|--------|--------|--------|
D|--------|--------|--------|--------|--------|--------|--------|--------|--------|
A|--------|--------|--------|--------|--------|--------|--------|--------|--------|
E|--------|--------|--------|--------|--------|--------|--------|--------|--------|


E|--------|--------|--------|--------|--------|--------|--------|--------|--------|
B|--------|--------|--------|--------|--------|--------|--------|--------|--------|
G|--------|--------|--------|--------|--------|--------|--------|--------|--------|
D|--------|--------|--------|--------|--------|--------|--------|--------|--------|
A|--------|--------|--------|--------|--------|--------|--------|--------|--------|
E|--------|--------|--------|--------|--------|--------|--------|--------|--------|


E|--------|--------|--------|--------|--------|--------|--------|--------|--------|
B|--------|--------|--------|--------|--------|--------|--------|--------|--------|
G|--------|--------|--------|--------|--------|--------|--------|--------|--------|
D|--------|--------|--------|--------|--------|--------|--------|--------|--------|
A|--------|--------|--------|--------|--------|--------|--------|--------|--------|
E|--------|--------|--------|--------|--------|--------|--------|--------|--------|


E|--------|--------|--------|--------|--------|--------|--------|--------|--------|
B|--------|--------|--------|--------|--------|--------|--------|--------|--------|
G|--------|--------|--------|--------|--------|--------|--------|--------|--------|
D|--------|--------|--------|--------|--------|--------|--------|--------|--------|
A|--------|--------|--------|--------|--------|--------|--------|--------|--------|
E|--------|--------|--------|--------|--------|--------|--------|--------|--------|


E|--------|--------|--------|--------|--------|--------|--------|--------|--------|
B|--------|--------|--------|--------|--------|--------|--------|--------|--------|
G|--------|--------|--------|--------|--------|--------|--------|--------|--------|
D|--------|--------|--------|--------|--------|--------|--------|--------|--------|
A|--------|--------|--------|--------|--------|--------|--------|--------|--------|
E|--------|--------|--------|--------|--------|--------|--------|--------|--------|


E|--------|--------|--------|--------|--------|--------|--------|--------|--------|
B|--------|--------|--------|--------|--------|--------|--------|--------|--------|
G|--------|--------|--------|--------|--------|--------|--------|--------|--------|
D|--------|--------|--------|--------|--------|--------|--------|--------|--------|
A|--------|--------|--------|--------|--------|--------|--------|--------|--------|
E|--------|--------|--------|--------|--------|--------|--------|--------|--------|


E|--------|--------|--------|--------|--------|--------|--------|--------|--------|
B|--------|--------|--------|--------|--------|--------|--------|--------|--------|
G|--------|--------|--------|--------|--------|--------|--------|--------|--------|
D|--------|--------|--------|--------|--------|--------|--------|--------|--------|
A|--------|--------|--------|--------|--------|--------|--------|--------|--------|
E|--------|--------|--------|--------|--------|--------|--------|--------|--------|


E|--------|--------|--------|--------|--------|--------|--------|--------|--------|
B|--------|--------|--------|--------|--------|--------|--------|--------|--------|
G|--------|--------|--------|--------|--------|--------|--------|--------|--------|
D|--------|--------|--------|--------|--------|--------|--------|--------|--------|
A|--------|--------|--------|--------|--------|--------|--------|--------|--------|
E|--------|--------|--------|--------|--------|--------|--------|--------|--------|


E|--------|--------|--------|--------|--------|--------|--------|--------|--------|
B|--------|--------|--------|--------|--------|--------|--------|--------|--------|
G|--------|--------|--------|--------|--------|--------|--------|--------|--------|
D|--------|--------|--------|--------|--------|--------|--------|--------|--------|
A|--------|--------|--------|--------|--------|--------|--------|--------|--------|
E|--------|--------|--------|--------|--------|--------|--------|--------|--------|


E|--------|--------|--------|--------|--------|--------|--------|
B|--------|--------|--------|--------|--------|--------|--------|
G|--------|--------|--------|--------|--------|--------|--------|
D|--------|--------|--------|--------|--------|--------|--------|
A|--------|--------|--------|--------|--------|--------|--------|
E|--------|--------|--------|--------|--------|--------|--------|





Track 6: Satch Rhythym 2

E|--------|--------|--------|--------|--------|--------|--------|--------|--------|
B|--------|--------|--------|--------|--------|--------|--------|--------|--------|
G|--------|--------|--------|--------|--------|--------|--------|--------|--------|
D|--------|--------|--------|--------|--------|--------|--------|--------|--------|
A|--------|--------|--------|--------|--------|--------|--------|--------|--------|
E|--------|--------|--------|--------|--------|--------|--------|--------|--------|


E|--------|--------|--------|--------|--------|--------|--------|--------|--------|
B|--------|--------|--------|--------|--------|--------|--------|--------|--------|
G|--------|--------|--------|--------|--------|--------|--------|--------|--------|
D|--------|--------|--------|--------|--------|--------|--------|--------|--------|
A|--------|--------|--------|--------|--------|--------|--------|--------|--------|
E|--------|--------|--------|--------|--------|--------|--------|--------|--------|


E|--------|--------|--------|--------|--------|--------|--------|--------|--------|
B|--------|--------|--------|--------|--------|--------|--------|--------|--------|
G|--------|--------|--------|--------|--------|--------|--------|--------|--------|
D|--------|--------|--------|--------|--------|--------|--------|--------|--------|
A|--------|--------|--------|--------|--------|--------|--------|--------|--------|
E|--------|--------|--------|--------|--------|--------|--------|--------|--------|


E|--------|--------|--------|--------|--------|--------|--------|--------|--------|
B|--------|--------|--------|--------|--------|--------|--------|--------|--------|
G|--------|--------|--------|--------|--------|--------|--------|--------|--------|
D|--------|--------|--------|--------|--------|--------|--------|--------|--------|
A|--------|--------|--------|--------|--------|--------|--------|--------|--------|
E|--------|--------|--------|--------|--------|--------|--------|--------|--------|


E|--------|--------|--------|--------|--------|--------|--------|--------|--------|
B|--------|--------|--------|--------|--------|--------|--------|--------|--------|
G|--------|--------|--------|--------|--------|--------|--------|--------|--------|
D|--------|--------|--------|--------|--------|--------|--------|--------|--------|
A|--------|--------|--------|--------|--------|--------|--------|--------|--------|
E|--------|--------|--------|--------|--------|--------|--------|--------|--------|


E|--------|--------|--------|--------|--------|--------|--------|--------|--------|
B|--------|--------|--------|--------|--------|--------|--------|--------|--------|
G|--------|--------|--------|--------|--------|--------|--------|--------|--------|
D|--------|--------|--------|--------|--------|--------|--------|--------|--------|
A|--------|--------|--------|--------|--------|--------|--------|--------|--------|
E|--------|--------|--------|--------|--------|--------|--------|--------|--------|


E|--------|--------|--------|--------|--------|--------|--------|--------|--------|
B|--------|--------|--------|--------|--------|--------|--------|--------|--------|
G|--------|--------|--------|--------|--------|--------|--------|--------|--------|
D|--------|--------|--------|--------|--------|--------|--------|--------|--------|
A|--------|--------|--------|--------|--------|--------|--------|--------|--------|
E|--------|--------|--------|--------|--------|--------|--------|--------|--------|


E|--------|--------|--------|--------|--------|------------------------|------------------------------|
B|--------|--------|--------|--------|--------|------------------------|------------------------------|
G|--------|--------|--------|--------|--------|-5-----------------5----|---------5---------------5----|
D|--------|--------|--------|--------|--------|-5-------------3--------|-----5---------------3--------|
A|--------|--------|--------|--------|--------|-3-----4---4------------|-3-----------1---1------------|
E|--------|--------|--------|--------|--------|------------------------|------------------------------|


E|------------------------------|------------------------------|--------|--------|
B|------------------------------|------------------------------|--------|--------|
G|---------5---------------5----|---------5---------------5----|--------|--------|
D|-----5---------------3--------|-----5---------------3--------|--------|--------|
A|-3-----------4---4------------|-3-----------1---1------------|--------|--------|
E|------------------------------|------------------------------|--------|--------|


E|--------|--------|--------|--------|--------|--------|--------|--------|--------|
B|--------|--------|--------|--------|--------|--------|--------|--------|--------|
G|--------|--------|--------|--------|--------|--------|--------|--------|--------|
D|--------|--------|--------|--------|--------|--------|--------|--------|--------|
A|--------|--------|--------|--------|--------|--------|--------|--------|--------|
E|--------|--------|--------|--------|--------|--------|--------|--------|--------|


E|--------|--------|--------|--------|--------|--------|--------|--------|--------|
B|--------|--------|--------|--------|--------|--------|--------|--------|--------|
G|--------|--------|--------|--------|--------|--------|--------|--------|--------|
D|--------|--------|--------|--------|--------|--------|--------|--------|--------|
A|--------|--------|--------|--------|--------|--------|--------|--------|--------|
E|--------|--------|--------|--------|--------|--------|--------|--------|--------|


E|--------|--------|--------|--------|--------|--------|--------|--------|--------|
B|--------|--------|--------|--------|--------|--------|--------|--------|--------|
G|--------|--------|--------|--------|--------|--------|--------|--------|--------|
D|--------|--------|--------|--------|--------|--------|--------|--------|--------|
A|--------|--------|--------|--------|--------|--------|--------|--------|--------|
E|--------|--------|--------|--------|--------|--------|--------|--------|--------|


E|--------|--------|--------|--------|--------|--------|--------|--------|--------|
B|--------|--------|--------|--------|--------|--------|--------|--------|--------|
G|--------|--------|--------|--------|--------|--------|--------|--------|--------|
D|--------|--------|--------|--------|--------|--------|--------|--------|--------|
A|--------|--------|--------|--------|--------|--------|--------|--------|--------|
E|--------|--------|--------|--------|--------|--------|--------|--------|--------|


E|--------|--------|--------|--------|--------|--------|--------|--------|--------|
B|--------|--------|--------|--------|--------|--------|--------|--------|--------|
G|--------|--------|--------|--------|--------|--------|--------|--------|--------|
D|--------|--------|--------|--------|--------|--------|--------|--------|--------|
A|--------|--------|--------|--------|--------|--------|--------|--------|--------|
E|--------|--------|--------|--------|--------|--------|--------|--------|--------|


E|--------|--------|--------|--------|--------|--------|--------|--------|--------|
B|--------|--------|--------|--------|--------|--------|--------|--------|--------|
G|--------|--------|--------|--------|--------|--------|--------|--------|--------|
D|--------|--------|--------|--------|--------|--------|--------|--------|--------|
A|--------|--------|--------|--------|--------|--------|--------|--------|--------|
E|--------|--------|--------|--------|--------|--------|--------|--------|--------|


E|--------|--------|--------|--------|--------|--------|--------|--------|--------|
B|--------|--------|--------|--------|--------|--------|--------|--------|--------|
G|--------|--------|--------|--------|--------|--------|--------|--------|--------|
D|--------|--------|--------|--------|--------|--------|--------|--------|--------|
A|--------|--------|--------|--------|--------|--------|--------|--------|--------|
E|--------|--------|--------|--------|--------|--------|--------|--------|--------|


E|--------|--------|--------|--------|--------|--------|--------|--------|--------|
B|--------|--------|--------|--------|--------|--------|--------|--------|--------|
G|--------|--------|--------|--------|--------|--------|--------|--------|--------|
D|--------|--------|--------|--------|--------|--------|--------|--------|--------|
A|--------|--------|--------|--------|--------|--------|--------|--------|--------|
E|--------|--------|--------|--------|--------|--------|--------|--------|--------|


E|--------|--------|--------|--------|--------|--------|--------|--------|--------|
B|--------|--------|--------|--------|--------|--------|--------|--------|--------|
G|--------|--------|--------|--------|--------|--------|--------|--------|--------|
D|--------|--------|--------|--------|--------|--------|--------|--------|--------|
A|--------|--------|--------|--------|--------|--------|--------|--------|--------|
E|--------|--------|--------|--------|--------|--------|--------|--------|--------|


E|--------|--------|--------|--------|--------|--------|--------|--------|--------|
B|--------|--------|--------|--------|--------|--------|--------|--------|--------|
G|--------|--------|--------|--------|--------|--------|--------|--------|--------|
D|--------|--------|--------|--------|--------|--------|--------|--------|--------|
A|--------|--------|--------|--------|--------|--------|--------|--------|--------|
E|--------|--------|--------|--------|--------|--------|--------|--------|--------|


E|--------|--------|--------|--------|--------|--------|--------|--------|--------|
B|--------|--------|--------|--------|--------|--------|--------|--------|--------|
G|--------|--------|--------|--------|--------|--------|--------|--------|--------|
D|--------|--------|--------|--------|--------|--------|--------|--------|--------|
A|--------|--------|--------|--------|--------|--------|--------|--------|--------|
E|--------|--------|--------|--------|--------|--------|--------|--------|--------|


E|--------|--------|--------|--------|--------|--------|--------|--------|--------|
B|--------|--------|--------|--------|--------|--------|--------|--------|--------|
G|--------|--------|--------|--------|--------|--------|--------|--------|--------|
D|--------|--------|--------|--------|--------|--------|--------|--------|--------|
A|--------|--------|--------|--------|--------|--------|--------|--------|--------|
E|--------|--------|--------|--------|--------|--------|--------|--------|--------|


E|--------|--------|--------|--------|--------|--------|--------|--------|--------|
B|--------|--------|--------|--------|--------|--------|--------|--------|--------|
G|--------|--------|--------|--------|--------|--------|--------|--------|--------|
D|--------|--------|--------|--------|--------|--------|--------|--------|--------|
A|--------|--------|--------|--------|--------|--------|--------|--------|--------|
E|--------|--------|--------|--------|--------|--------|--------|--------|--------|


E|--------|--------|--------|--------|--------|--------|--------|--------|--------|
B|--------|--------|--------|--------|--------|--------|--------|--------|--------|
G|--------|--------|--------|--------|--------|--------|--------|--------|--------|
D|--------|--------|--------|--------|--------|--------|--------|--------|--------|
A|--------|--------|--------|--------|--------|--------|--------|--------|--------|
E|--------|--------|--------|--------|--------|--------|--------|--------|--------|





Track 7: Joe Satriani

E|--------|--------|--------|--------|--------|--------|--------|--------|--------|
B|--------|--------|--------|--------|--------|--------|--------|--------|--------|
G|--------|--------|--------|--------|--------|--------|--------|--------|--------|
D|--------|--------|--------|--------|--------|--------|--------|--------|--------|
A|--------|--------|--------|--------|--------|--------|--------|--------|--------|
E|--------|--------|--------|--------|--------|--------|--------|--------|--------|


E|--------|--------|--------|--------|--------|--------|--------|--------|--------|
B|--------|--------|--------|--------|--------|--------|--------|--------|--------|
G|--------|--------|--------|--------|--------|--------|--------|--------|--------|
D|--------|--------|--------|--------|--------|--------|--------|--------|--------|
A|--------|--------|--------|--------|--------|--------|--------|--------|--------|
E|--------|--------|--------|--------|--------|--------|--------|--------|--------|


E|--------|--------|--------|--------|--------|--------|--------|--------|--------|
B|--------|--------|--------|--------|--------|--------|--------|--------|--------|
G|--------|--------|--------|--------|--------|--------|--------|--------|--------|
D|--------|--------|--------|--------|--------|--------|--------|--------|--------|
A|--------|--------|--------|--------|--------|--------|--------|--------|--------|
E|--------|--------|--------|--------|--------|--------|--------|--------|--------|


E|--------|--------|--------|--------|--------|--------|--------|--------|--------|
B|--------|--------|--------|--------|--------|--------|--------|--------|--------|
G|--------|--------|--------|--------|--------|--------|--------|--------|--------|
D|--------|--------|--------|--------|--------|--------|--------|--------|--------|
A|--------|--------|--------|--------|--------|--------|--------|--------|--------|
E|--------|--------|--------|--------|--------|--------|--------|--------|--------|


E|--------|--------|--------|--------|--------|--------|--------|--------|--------|
B|--------|--------|--------|--------|--------|--------|--------|--------|--------|
G|--------|--------|--------|--------|--------|--------|--------|--------|--------|
D|--------|--------|--------|--------|--------|--------|--------|--------|--------|
A|--------|--------|--------|--------|--------|--------|--------|--------|--------|
E|--------|--------|--------|--------|--------|--------|--------|--------|--------|


E|--------|--------|--------|--------|--------|--------|--------|--------|--------|
B|--------|--------|--------|--------|--------|--------|--------|--------|--------|
G|--------|--------|--------|--------|--------|--------|--------|--------|--------|
D|--------|--------|--------|--------|--------|--------|--------|--------|--------|
A|--------|--------|--------|--------|--------|--------|--------|--------|--------|
E|--------|--------|--------|--------|--------|--------|--------|--------|--------|


E|--------|--------|--------|--------|--------|--------|--------|--------|--------|
B|--------|--------|--------|--------|--------|--------|--------|--------|--------|
G|--------|--------|--------|--------|--------|--------|--------|--------|--------|
D|--------|--------|--------|--------|--------|--------|--------|--------|--------|
A|--------|--------|--------|--------|--------|--------|--------|--------|--------|
E|--------|--------|--------|--------|--------|--------|--------|--------|--------|


E|--------|--------|--------|--------|--------|--------|--------|--------|--------|
B|--------|--------|--------|--------|--------|--------|--------|--------|--------|
G|--------|--------|--------|--------|--------|--------|--------|--------|--------|
D|--------|--------|--------|--------|--------|--------|--------|--------|--------|
A|--------|--------|--------|--------|--------|--------|--------|--------|--------|
E|--------|--------|--------|--------|--------|--------|--------|--------|--------|


E|---------------------------------|---------------------------------|---------------------------------|
B|---------------------------------|---------------------------------|---------------------------------|
G|---------9---------------9---9---|---------9---------------9---9---|---------9---------------9---9---|
D|-----9---------------7-----------|-----9---------------7-----------|-----9---------------7-----------|
A|-7-----------8---8---------------|-7-----------5---5---------------|-7-----------8---8---------------|
E|---------------------------------|---------------------------------|---------------------------------|


E|---------------------------------|--------|--------|--------|--------|--------|--------|
B|---------------------------------|--------|--------|--------|--------|--------|--------|
G|---------9---------------9---9---|--------|--------|--------|--------|--------|--------|
D|-----9---------------7-----------|--------|--------|--------|--------|--------|--------|
A|-7-----------5---5---------------|--------|--------|--------|--------|--------|--------|
E|---------------------------------|--------|--------|--------|--------|--------|--------|


E|--------|--------|--------|--------|--------|--------|--------|--------|--------|
B|--------|--------|--------|--------|--------|--------|--------|--------|--------|
G|--------|--------|--------|--------|--------|--------|--------|--------|--------|
D|--------|--------|--------|--------|--------|--------|--------|--------|--------|
A|--------|--------|--------|--------|--------|--------|--------|--------|--------|
E|--------|--------|--------|--------|--------|--------|--------|--------|--------|


E|--------|--------|--------|--------|--------|--------|--------|--------|--------|
B|--------|--------|--------|--------|--------|--------|--------|--------|--------|
G|--------|--------|--------|--------|--------|--------|--------|--------|--------|
D|--------|--------|--------|--------|--------|--------|--------|--------|--------|
A|--------|--------|--------|--------|--------|--------|--------|--------|--------|
E|--------|--------|--------|--------|--------|--------|--------|--------|--------|


E|--------|--------|--------|--------|--------|--------|--------|--------|--------|
B|--------|--------|--------|--------|--------|--------|--------|--------|--------|
G|--------|--------|--------|--------|--------|--------|--------|--------|--------|
D|--------|--------|--------|--------|--------|--------|--------|--------|--------|
A|--------|--------|--------|--------|--------|--------|--------|--------|--------|
E|--------|--------|--------|--------|--------|--------|--------|--------|--------|


E|--------|--------|--------|--------|--------|--------|--------|--------|--------|
B|--------|--------|--------|--------|--------|--------|--------|--------|--------|
G|--------|--------|--------|--------|--------|--------|--------|--------|--------|
D|--------|--------|--------|--------|--------|--------|--------|--------|--------|
A|--------|--------|--------|--------|--------|--------|--------|--------|--------|
E|--------|--------|--------|--------|--------|--------|--------|--------|--------|


E|--------|--------|--------|--------|--------|--------|--------|--------|--------|
B|--------|--------|--------|--------|--------|--------|--------|--------|--------|
G|--------|--------|--------|--------|--------|--------|--------|--------|--------|
D|--------|--------|--------|--------|--------|--------|--------|--------|--------|
A|--------|--------|--------|--------|--------|--------|--------|--------|--------|
E|--------|--------|--------|--------|--------|--------|--------|--------|--------|


E|--------|--------|--------|--------|--------|--------|--------|--------|--------|
B|--------|--------|--------|--------|--------|--------|--------|--------|--------|
G|--------|--------|--------|--------|--------|--------|--------|--------|--------|
D|--------|--------|--------|--------|--------|--------|--------|--------|--------|
A|--------|--------|--------|--------|--------|--------|--------|--------|--------|
E|--------|--------|--------|--------|--------|--------|--------|--------|--------|


E|--------|--------|--------|--------|--------|--------|--------|--------|--------|
B|--------|--------|--------|--------|--------|--------|--------|--------|--------|
G|--------|--------|--------|--------|--------|--------|--------|--------|--------|
D|--------|--------|--------|--------|--------|--------|--------|--------|--------|
A|--------|--------|--------|--------|--------|--------|--------|--------|--------|
E|--------|--------|--------|--------|--------|--------|--------|--------|--------|


E|--------|--------|--------|--------|--------|--------|--------|--------|--------|
B|--------|--------|--------|--------|--------|--------|--------|--------|--------|
G|--------|--------|--------|--------|--------|--------|--------|--------|--------|
D|--------|--------|--------|--------|--------|--------|--------|--------|--------|
A|--------|--------|--------|--------|--------|--------|--------|--------|--------|
E|--------|--------|--------|--------|--------|--------|--------|--------|--------|


E|--------|--------|--------|--------|--------|--------|--------|--------|--------|
B|--------|--------|--------|--------|--------|--------|--------|--------|--------|
G|--------|--------|--------|--------|--------|--------|--------|--------|--------|
D|--------|--------|--------|--------|--------|--------|--------|--------|--------|
A|--------|--------|--------|--------|--------|--------|--------|--------|--------|
E|--------|--------|--------|--------|--------|--------|--------|--------|--------|


E|--------|--------|--------|--------|--------|--------|--------|--------|--------|
B|--------|--------|--------|--------|--------|--------|--------|--------|--------|
G|--------|--------|--------|--------|--------|--------|--------|--------|--------|
D|--------|--------|--------|--------|--------|--------|--------|--------|--------|
A|--------|--------|--------|--------|--------|--------|--------|--------|--------|
E|--------|--------|--------|--------|--------|--------|--------|--------|--------|


E|--------|--------|--------|--------|--------|--------|--------|--------|--------|
B|--------|--------|--------|--------|--------|--------|--------|--------|--------|
G|--------|--------|--------|--------|--------|--------|--------|--------|--------|
D|--------|--------|--------|--------|--------|--------|--------|--------|--------|
A|--------|--------|--------|--------|--------|--------|--------|--------|--------|
E|--------|--------|--------|--------|--------|--------|--------|--------|--------|


E|--------|--------|--------|--------|--------|--------|--------|--------|--------|
B|--------|--------|--------|--------|--------|--------|--------|--------|--------|
G|--------|--------|--------|--------|--------|--------|--------|--------|--------|
D|--------|--------|--------|--------|--------|--------|--------|--------|--------|
A|--------|--------|--------|--------|--------|--------|--------|--------|--------|
E|--------|--------|--------|--------|--------|--------|--------|--------|--------|


E|--------|--------|--------|--------|--------|--------|--------|--------|--------|
B|--------|--------|--------|--------|--------|--------|--------|--------|--------|
G|--------|--------|--------|--------|--------|--------|--------|--------|--------|
D|--------|--------|--------|--------|--------|--------|--------|--------|--------|
A|--------|--------|--------|--------|--------|--------|--------|--------|--------|
E|--------|--------|--------|--------|--------|--------|--------|--------|--------|


E|--------|
B|--------|
G|--------|
D|--------|
A|--------|
E|--------|





Track 8: Joe Satriani

E|--------|--------|--------|--------|--------|--------|--------|--------|--------|
B|--------|--------|--------|--------|--------|--------|--------|--------|--------|
G|--------|--------|--------|--------|--------|--------|--------|--------|--------|
D|--------|--------|--------|--------|--------|--------|--------|--------|--------|
A|--------|--------|--------|--------|--------|--------|--------|--------|--------|
E|--------|--------|--------|--------|--------|--------|--------|--------|--------|


E|--------|--------|--------|--------|--------|--------|--------|--------|--------|
B|--------|--------|--------|--------|--------|--------|--------|--------|--------|
G|--------|--------|--------|--------|--------|--------|--------|--------|--------|
D|--------|--------|--------|--------|--------|--------|--------|--------|--------|
A|--------|--------|--------|--------|--------|--------|--------|--------|--------|
E|--------|--------|--------|--------|--------|--------|--------|--------|--------|


E|--------|--------|--------|--------|--------|--------|--------|--------|--------|
B|--------|--------|--------|--------|--------|--------|--------|--------|--------|
G|--------|--------|--------|--------|--------|--------|--------|--------|--------|
D|--------|--------|--------|--------|--------|--------|--------|--------|--------|
A|--------|--------|--------|--------|--------|--------|--------|--------|--------|
E|--------|--------|--------|--------|--------|--------|--------|--------|--------|


E|--------|--------|--------|--------|--------|--------|--------|--------|--------|
B|--------|--------|--------|--------|--------|--------|--------|--------|--------|
G|--------|--------|--------|--------|--------|--------|--------|--------|--------|
D|--------|--------|--------|--------|--------|--------|--------|--------|--------|
A|--------|--------|--------|--------|--------|--------|--------|--------|--------|
E|--------|--------|--------|--------|--------|--------|--------|--------|--------|


E|--------|--------|--------|--------|--------|--------|--------|--------|--------|
B|--------|--------|--------|--------|--------|--------|--------|--------|--------|
G|--------|--------|--------|--------|--------|--------|--------|--------|--------|
D|--------|--------|--------|--------|--------|--------|--------|--------|--------|
A|--------|--------|--------|--------|--------|--------|--------|--------|--------|
E|--------|--------|--------|--------|--------|--------|--------|--------|--------|


E|--------|--------|--------|--------|--------|--------|--------|--------|--------|
B|--------|--------|--------|--------|--------|--------|--------|--------|--------|
G|--------|--------|--------|--------|--------|--------|--------|--------|--------|
D|--------|--------|--------|--------|--------|--------|--------|--------|--------|
A|--------|--------|--------|--------|--------|--------|--------|--------|--------|
E|--------|--------|--------|--------|--------|--------|--------|--------|--------|


E|--------|--------|--------|--------|--------|--------|--------|--------|--------|
B|--------|--------|--------|--------|--------|--------|--------|--------|--------|
G|--------|--------|--------|--------|--------|--------|--------|--------|--------|
D|--------|--------|--------|--------|--------|--------|--------|--------|--------|
A|--------|--------|--------|--------|--------|--------|--------|--------|--------|
E|--------|--------|--------|--------|--------|--------|--------|--------|--------|


E|--------|--------|--------|--------|--------|--------|--------|--------|--------|
B|--------|--------|--------|--------|--------|--------|--------|--------|--------|
G|--------|--------|--------|--------|--------|--------|--------|--------|--------|
D|--------|--------|--------|--------|--------|--------|--------|--------|--------|
A|--------|--------|--------|--------|--------|--------|--------|--------|--------|
E|--------|--------|--------|--------|--------|--------|--------|--------|--------|


E|--------|--------|--------|--------|---------------------------------|---------------------------------|
B|--------|--------|--------|--------|---------------------------------|---------------------------------|
G|--------|--------|--------|--------|---------------------------------|---------------------------------|
D|--------|--------|--------|--------|---------6---------------6---6---|---------6---------------6---6---|
A|--------|--------|--------|--------|-----6---------------4-----------|-----6---------------4-----------|
E|--------|--------|--------|--------|-4-----------5---5---------------|-4-----------2---2---------------|


E|---------------------------------|---------------------------------|--------|--------|
B|---------------------------------|---------------------------------|--------|--------|
G|---------------------------------|---------------------------------|--------|--------|
D|---------6---------------6---6---|---------6---------------6---6---|--------|--------|
A|-----6---------------4-----------|-----6---------------4-----------|--------|--------|
E|-4-----------5---5---------------|-4-----------2---2---------------|--------|--------|


E|--------|--------|--------|--------|--------|--------|--------|--------|--------|
B|--------|--------|--------|--------|--------|--------|--------|--------|--------|
G|--------|--------|--------|--------|--------|--------|--------|--------|--------|
D|--------|--------|--------|--------|--------|--------|--------|--------|--------|
A|--------|--------|--------|--------|--------|--------|--------|--------|--------|
E|--------|--------|--------|--------|--------|--------|--------|--------|--------|


E|--------|--------|--------|--------|--------|--------|--------|--------|--------|
B|--------|--------|--------|--------|--------|--------|--------|--------|--------|
G|--------|--------|--------|--------|--------|--------|--------|--------|--------|
D|--------|--------|--------|--------|--------|--------|--------|--------|--------|
A|--------|--------|--------|--------|--------|--------|--------|--------|--------|
E|--------|--------|--------|--------|--------|--------|--------|--------|--------|


E|--------|--------|--------|--------|--------|--------|--------|--------|--------|
B|--------|--------|--------|--------|--------|--------|--------|--------|--------|
G|--------|--------|--------|--------|--------|--------|--------|--------|--------|
D|--------|--------|--------|--------|--------|--------|--------|--------|--------|
A|--------|--------|--------|--------|--------|--------|--------|--------|--------|
E|--------|--------|--------|--------|--------|--------|--------|--------|--------|


E|--------|--------|--------|--------|--------|--------|--------|--------|--------|
B|--------|--------|--------|--------|--------|--------|--------|--------|--------|
G|--------|--------|--------|--------|--------|--------|--------|--------|--------|
D|--------|--------|--------|--------|--------|--------|--------|--------|--------|
A|--------|--------|--------|--------|--------|--------|--------|--------|--------|
E|--------|--------|--------|--------|--------|--------|--------|--------|--------|


E|--------|--------|--------|--------|--------|--------|--------|--------|--------|
B|--------|--------|--------|--------|--------|--------|--------|--------|--------|
G|--------|--------|--------|--------|--------|--------|--------|--------|--------|
D|--------|--------|--------|--------|--------|--------|--------|--------|--------|
A|--------|--------|--------|--------|--------|--------|--------|--------|--------|
E|--------|--------|--------|--------|--------|--------|--------|--------|--------|


E|--------|--------|--------|--------|--------|--------|--------|--------|--------|
B|--------|--------|--------|--------|--------|--------|--------|--------|--------|
G|--------|--------|--------|--------|--------|--------|--------|--------|--------|
D|--------|--------|--------|--------|--------|--------|--------|--------|--------|
A|--------|--------|--------|--------|--------|--------|--------|--------|--------|
E|--------|--------|--------|--------|--------|--------|--------|--------|--------|


E|--------|--------|--------|--------|--------|--------|--------|--------|--------|
B|--------|--------|--------|--------|--------|--------|--------|--------|--------|
G|--------|--------|--------|--------|--------|--------|--------|--------|--------|
D|--------|--------|--------|--------|--------|--------|--------|--------|--------|
A|--------|--------|--------|--------|--------|--------|--------|--------|--------|
E|--------|--------|--------|--------|--------|--------|--------|--------|--------|


E|--------|--------|--------|--------|--------|--------|--------|--------|--------|
B|--------|--------|--------|--------|--------|--------|--------|--------|--------|
G|--------|--------|--------|--------|--------|--------|--------|--------|--------|
D|--------|--------|--------|--------|--------|--------|--------|--------|--------|
A|--------|--------|--------|--------|--------|--------|--------|--------|--------|
E|--------|--------|--------|--------|--------|--------|--------|--------|--------|


E|--------|--------|--------|--------|--------|--------|--------|--------|--------|
B|--------|--------|--------|--------|--------|--------|--------|--------|--------|
G|--------|--------|--------|--------|--------|--------|--------|--------|--------|
D|--------|--------|--------|--------|--------|--------|--------|--------|--------|
A|--------|--------|--------|--------|--------|--------|--------|--------|--------|
E|--------|--------|--------|--------|--------|--------|--------|--------|--------|


E|--------|--------|--------|--------|--------|--------|--------|--------|--------|
B|--------|--------|--------|--------|--------|--------|--------|--------|--------|
G|--------|--------|--------|--------|--------|--------|--------|--------|--------|
D|--------|--------|--------|--------|--------|--------|--------|--------|--------|
A|--------|--------|--------|--------|--------|--------|--------|--------|--------|
E|--------|--------|--------|--------|--------|--------|--------|--------|--------|


E|--------|--------|--------|--------|--------|--------|--------|--------|--------|
B|--------|--------|--------|--------|--------|--------|--------|--------|--------|
G|--------|--------|--------|--------|--------|--------|--------|--------|--------|
D|--------|--------|--------|--------|--------|--------|--------|--------|--------|
A|--------|--------|--------|--------|--------|--------|--------|--------|--------|
E|--------|--------|--------|--------|--------|--------|--------|--------|--------|


E|--------|--------|--------|--------|--------|--------|--------|--------|--------|
B|--------|--------|--------|--------|--------|--------|--------|--------|--------|
G|--------|--------|--------|--------|--------|--------|--------|--------|--------|
D|--------|--------|--------|--------|--------|--------|--------|--------|--------|
A|--------|--------|--------|--------|--------|--------|--------|--------|--------|
E|--------|--------|--------|--------|--------|--------|--------|--------|--------|


E|--------|--------|--------|--------|--------|--------|--------|--------|--------|
B|--------|--------|--------|--------|--------|--------|--------|--------|--------|
G|--------|--------|--------|--------|--------|--------|--------|--------|--------|
D|--------|--------|--------|--------|--------|--------|--------|--------|--------|
A|--------|--------|--------|--------|--------|--------|--------|--------|--------|
E|--------|--------|--------|--------|--------|--------|--------|--------|--------|


E|--------|
B|--------|
G|--------|
D|--------|
A|--------|
E|--------|





Track 9: Joe Satriani

E|--------|--------|--------|--------|--------|--------|--------|--------|--------|
B|--------|--------|--------|--------|--------|--------|--------|--------|--------|
G|--------|--------|--------|--------|--------|--------|--------|--------|--------|
D|--------|--------|--------|--------|--------|--------|--------|--------|--------|
A|--------|--------|--------|--------|--------|--------|--------|--------|--------|
E|--------|--------|--------|--------|--------|--------|--------|--------|--------|


E|--------|--------|--------|--------|--------|--------|--------|--------|--------|
B|--------|--------|--------|--------|--------|--------|--------|--------|--------|
G|--------|--------|--------|--------|--------|--------|--------|--------|--------|
D|--------|--------|--------|--------|--------|--------|--------|--------|--------|
A|--------|--------|--------|--------|--------|--------|--------|--------|--------|
E|--------|--------|--------|--------|--------|--------|--------|--------|--------|


E|--------|--------|--------|--------|--------|--------|--------|--------|--------|
B|--------|--------|--------|--------|--------|--------|--------|--------|--------|
G|--------|--------|--------|--------|--------|--------|--------|--------|--------|
D|--------|--------|--------|--------|--------|--------|--------|--------|--------|
A|--------|--------|--------|--------|--------|--------|--------|--------|--------|
E|--------|--------|--------|--------|--------|--------|--------|--------|--------|


E|--------|--------|--------|--------|--------|--------|--------|--------|--------|
B|--------|--------|--------|--------|--------|--------|--------|--------|--------|
G|--------|--------|--------|--------|--------|--------|--------|--------|--------|
D|--------|--------|--------|--------|--------|--------|--------|--------|--------|
A|--------|--------|--------|--------|--------|--------|--------|--------|--------|
E|--------|--------|--------|--------|--------|--------|--------|--------|--------|


E|--------|--------|--------|--------|--------|--------|--------|--------|--------|
B|--------|--------|--------|--------|--------|--------|--------|--------|--------|
G|--------|--------|--------|--------|--------|--------|--------|--------|--------|
D|--------|--------|--------|--------|--------|--------|--------|--------|--------|
A|--------|--------|--------|--------|--------|--------|--------|--------|--------|
E|--------|--------|--------|--------|--------|--------|--------|--------|--------|


E|--------|--------|--------|--------|--------|--------|--------|--------|--------|
B|--------|--------|--------|--------|--------|--------|--------|--------|--------|
G|--------|--------|--------|--------|--------|--------|--------|--------|--------|
D|--------|--------|--------|--------|--------|--------|--------|--------|--------|
A|--------|--------|--------|--------|--------|--------|--------|--------|--------|
E|--------|--------|--------|--------|--------|--------|--------|--------|--------|


E|--------|--------|--------|--------|--------|--------|--------|--------|--------|
B|--------|--------|--------|--------|--------|--------|--------|--------|--------|
G|--------|--------|--------|--------|--------|--------|--------|--------|--------|
D|--------|--------|--------|--------|--------|--------|--------|--------|--------|
A|--------|--------|--------|--------|--------|--------|--------|--------|--------|
E|--------|--------|--------|--------|--------|--------|--------|--------|--------|


E|--------|--------|--------|--------|--------|--------|--------|--------|--------|
B|--------|--------|--------|--------|--------|--------|--------|--------|--------|
G|--------|--------|--------|--------|--------|--------|--------|--------|--------|
D|--------|--------|--------|--------|--------|--------|--------|--------|--------|
A|--------|--------|--------|--------|--------|--------|--------|--------|--------|
E|--------|--------|--------|--------|--------|--------|--------|--------|--------|


E|--------|--------|--------|--------|--------|--------|--------|--------|------------------------------|
B|--------|--------|--------|--------|--------|--------|--------|--------|------------------------------|
G|--------|--------|--------|--------|--------|--------|--------|--------|---------5---------------5----|
D|--------|--------|--------|--------|--------|--------|--------|--------|-----5---------------3--------|
A|--------|--------|--------|--------|--------|--------|--------|--------|-3-----------4---4------------|
E|--------|--------|--------|--------|--------|--------|--------|--------|------------------------------|


E|------------------------------|------------------------------|------------------------------|
B|------------------------------|------------------------------|------------------------------|
G|---------5---------------5----|---------5---------------5----|---------5---------------5----|
D|-----5---------------3--------|-----5---------------3--------|-----5---------------3--------|
A|-3-----------1---1------------|-3-----------4---4------------|-3-----------1---1------------|
E|------------------------------|------------------------------|------------------------------|


E|---------------------------------|---------------------------------|---------------------------------|
B|---------------------------------|---------------------------------|---------------------------------|
G|---------9---------------9---9---|---------9---------------9---9---|---------9---------------9---9---|
D|-----9---------------7-----------|-----9---------------7-----------|-----9---------------7-----------|
A|-7-----------8---8---------------|-7-----------5---5---------------|-7-----------8---8---------------|
E|---------------------------------|---------------------------------|---------------------------------|


E|---------------------------------|---------------------------------|---------------------------------|
B|---------------------------------|---------------------------------|---------------------------------|
G|---------9---------------9---9---|---------------------------------|---------------------------------|
D|-----9---------------7-----------|---------6---------------6---6---|---------6---------------6---6---|
A|-7-----------5---5---------------|-----6---------------4-----------|-----6---------------4-----------|
E|---------------------------------|-4-----------5---5---------------|-4-----------2---2---------------|


E|---------------------------------|---------------------------------|------------------------------|
B|---------------------------------|---------------------------------|------------------------------|
G|---------------------------------|---------------------------------|---------5---------------5----|
D|---------6---------------6---6---|---------6---------------6---6---|-----5---------------3--------|
A|-----6---------------4-----------|-----6---------------4-----------|-3-----------4---4------------|
E|-4-----------5---5---------------|-4-----------2---2---------------|------------------------------|


E|------------------------------|------------------------------|------------------------------|
B|------------------------------|------------------------------|------------------------------|
G|---------5---------------5----|---------5---------------5----|---------5---------------5----|
D|-----5---------------3--------|-----5---------------3--------|-----5---------------3--------|
A|-3-----------1---1------------|-3-----------4---4------------|-3-----------1---1------------|
E|------------------------------|------------------------------|------------------------------|


E|-5-----6---6---------|-5-----3---3---------|-5-----6---6---------|-5-----3---3---------|
B|-5-----6---6---------|-5-----3---3---------|-5-----6---6---------|-5-----3---3---------|
G|-7-----8---8---------|-7-----5---5---------|-7-----8---8---------|-7-----5---5---------|
D|-----------------0---|-----------------0---|-----------------0---|-----------------0---|
A|---------------------|---------------------|---------------------|---------------------|
E|---------------------|---------------------|---------------------|---------------------|


E|-5-----6---6---------|-5-----3---3---------|-5-----6---6---------|-5-----3---3---------|
B|-5-----6---6---------|-5-----3---3---------|-5-----6---6---------|-5-----3---3---------|
G|-7-----8---8---------|-7-----5---5---------|-7-----8---8---------|-7-----5---5---------|
D|-----------------0---|-----------------0---|-----------------0---|-----------------0---|
A|---------------------|---------------------|---------------------|---------------------|
E|---------------------|---------------------|---------------------|---------------------|


E|-----------------------|--------|--------|--------|--------|--------|--------|--------|
B|-------------10--------|--------|--------|--------|--------|--------|--------|--------|
G|------10-10------12----|--------|--------|--------|--------|--------|--------|--------|
D|-12--------------------|--------|--------|--------|--------|--------|--------|--------|
A|-----------------------|--------|--------|--------|--------|--------|--------|--------|
E|-----------------------|--------|--------|--------|--------|--------|--------|--------|


E|--------|--------|--------|--------|--------|--------|--------|--------|--------|
B|--------|--------|--------|--------|--------|--------|--------|--------|--------|
G|--------|--------|--------|--------|--------|--------|--------|--------|--------|
D|--------|--------|--------|--------|--------|--------|--------|--------|--------|
A|--------|--------|--------|--------|--------|--------|--------|--------|--------|
E|--------|--------|--------|--------|--------|--------|--------|--------|--------|


E|--------|--------|--------|--------|--------|--------|--------|--------|--------|
B|--------|--------|--------|--------|--------|--------|--------|--------|--------|
G|--------|--------|--------|--------|--------|--------|--------|--------|--------|
D|--------|--------|--------|--------|--------|--------|--------|--------|--------|
A|--------|--------|--------|--------|--------|--------|--------|--------|--------|
E|--------|--------|--------|--------|--------|--------|--------|--------|--------|


E|--------|--------|--------|--------|--------|--------|--------|--------|--------|
B|--------|--------|--------|--------|--------|--------|--------|--------|--------|
G|--------|--------|--------|--------|--------|--------|--------|--------|--------|
D|--------|--------|--------|--------|--------|--------|--------|--------|--------|
A|--------|--------|--------|--------|--------|--------|--------|--------|--------|
E|--------|--------|--------|--------|--------|--------|--------|--------|--------|


E|--------|--------|--------|--------|--------|--------|--------|--------|--------|
B|--------|--------|--------|--------|--------|--------|--------|--------|--------|
G|--------|--------|--------|--------|--------|--------|--------|--------|--------|
D|--------|--------|--------|--------|--------|--------|--------|--------|--------|
A|--------|--------|--------|--------|--------|--------|--------|--------|--------|
E|--------|--------|--------|--------|--------|--------|--------|--------|--------|


E|--------|--------|--------|--------|--------|--------|--------|--------|--------|
B|--------|--------|--------|--------|--------|--------|--------|--------|--------|
G|--------|--------|--------|--------|--------|--------|--------|--------|--------|
D|--------|--------|--------|--------|--------|--------|--------|--------|--------|
A|--------|--------|--------|--------|--------|--------|--------|--------|--------|
E|--------|--------|--------|--------|--------|--------|--------|--------|--------|


E|--------|--------|--------|--------|--------|--------|--------|--------|--------|
B|--------|--------|--------|--------|--------|--------|--------|--------|--------|
G|--------|--------|--------|--------|--------|--------|--------|--------|--------|
D|--------|--------|--------|--------|--------|--------|--------|--------|--------|
A|--------|--------|--------|--------|--------|--------|--------|--------|--------|
E|--------|--------|--------|--------|--------|--------|--------|--------|--------|


E|--------|--------|--------|--------|--------|--------|--------|--------|--------|
B|--------|--------|--------|--------|--------|--------|--------|--------|--------|
G|--------|--------|--------|--------|--------|--------|--------|--------|--------|
D|--------|--------|--------|--------|--------|--------|--------|--------|--------|
A|--------|--------|--------|--------|--------|--------|--------|--------|--------|
E|--------|--------|--------|--------|--------|--------|--------|--------|--------|


E|--------|--------|--------|--------|--------|--------|--------|--------|--------|
B|--------|--------|--------|--------|--------|--------|--------|--------|--------|
G|--------|--------|--------|--------|--------|--------|--------|--------|--------|
D|--------|--------|--------|--------|--------|--------|--------|--------|--------|
A|--------|--------|--------|--------|--------|--------|--------|--------|--------|
E|--------|--------|--------|--------|--------|--------|--------|--------|--------|


E|--------|--------|--------|--------|--------|--------|--------|--------|--------|
B|--------|--------|--------|--------|--------|--------|--------|--------|--------|
G|--------|--------|--------|--------|--------|--------|--------|--------|--------|
D|--------|--------|--------|--------|--------|--------|--------|--------|--------|
A|--------|--------|--------|--------|--------|--------|--------|--------|--------|
E|--------|--------|--------|--------|--------|--------|--------|--------|--------|


E|--------|--------|--------|--------|--------|--------|--------|
B|--------|--------|--------|--------|--------|--------|--------|
G|--------|--------|--------|--------|--------|--------|--------|
D|--------|--------|--------|--------|--------|--------|--------|
A|--------|--------|--------|--------|--------|--------|--------|
E|--------|--------|--------|--------|--------|--------|--------|





Track 10: Joe Satriani

E|--------|--------|--------|--------|--------|--------|--------|--------|--------|
B|--------|--------|--------|--------|--------|--------|--------|--------|--------|
G|--------|--------|--------|--------|--------|--------|--------|--------|--------|
D|--------|--------|--------|--------|--------|--------|--------|--------|--------|
A|--------|--------|--------|--------|--------|--------|--------|--------|--------|
E|--------|--------|--------|--------|--------|--------|--------|--------|--------|


E|--------|--------|--------|--------|--------|--------|--------|--------|--------|
B|--------|--------|--------|--------|--------|--------|--------|--------|--------|
G|--------|--------|--------|--------|--------|--------|--------|--------|--------|
D|--------|--------|--------|--------|--------|--------|--------|--------|--------|
A|--------|--------|--------|--------|--------|--------|--------|--------|--------|
E|--------|--------|--------|--------|--------|--------|--------|--------|--------|


E|--------|--------|--------|--------|--------|--------|--------|--------|--------|
B|--------|--------|--------|--------|--------|--------|--------|--------|--------|
G|--------|--------|--------|--------|--------|--------|--------|--------|--------|
D|--------|--------|--------|--------|--------|--------|--------|--------|--------|
A|--------|--------|--------|--------|--------|--------|--------|--------|--------|
E|--------|--------|--------|--------|--------|--------|--------|--------|--------|


E|--------|--------|--------|--------|--------|--------|--------|--------|--------|
B|--------|--------|--------|--------|--------|--------|--------|--------|--------|
G|--------|--------|--------|--------|--------|--------|--------|--------|--------|
D|--------|--------|--------|--------|--------|--------|--------|--------|--------|
A|--------|--------|--------|--------|--------|--------|--------|--------|--------|
E|--------|--------|--------|--------|--------|--------|--------|--------|--------|


E|--------|--------|--------|--------|--------|--------|--------|--------|--------|
B|--------|--------|--------|--------|--------|--------|--------|--------|--------|
G|--------|--------|--------|--------|--------|--------|--------|--------|--------|
D|--------|--------|--------|--------|--------|--------|--------|--------|--------|
A|--------|--------|--------|--------|--------|--------|--------|--------|--------|
E|--------|--------|--------|--------|--------|--------|--------|--------|--------|


E|--------|--------|--------|--------|--------|--------|--------|--------|--------|
B|--------|--------|--------|--------|--------|--------|--------|--------|--------|
G|--------|--------|--------|--------|--------|--------|--------|--------|--------|
D|--------|--------|--------|--------|--------|--------|--------|--------|--------|
A|--------|--------|--------|--------|--------|--------|--------|--------|--------|
E|--------|--------|--------|--------|--------|--------|--------|--------|--------|


E|--------|--------|--------|--------|--------|--------|--------|--------|--------|
B|--------|--------|--------|--------|--------|--------|--------|--------|--------|
G|--------|--------|--------|--------|--------|--------|--------|--------|--------|
D|--------|--------|--------|--------|--------|--------|--------|--------|--------|
A|--------|--------|--------|--------|--------|--------|--------|--------|--------|
E|--------|--------|--------|--------|--------|--------|--------|--------|--------|


E|--------|--------|--------|--------|--------|--------|--------|--------|--------|
B|--------|--------|--------|--------|--------|--------|--------|--------|--------|
G|--------|--------|--------|--------|--------|--------|--------|--------|--------|
D|--------|--------|--------|--------|--------|--------|--------|--------|--------|
A|--------|--------|--------|--------|--------|--------|--------|--------|--------|
E|--------|--------|--------|--------|--------|--------|--------|--------|--------|


E|--------|--------|--------|--------|--------|--------|--------|--------|--------|
B|--------|--------|--------|--------|--------|--------|--------|--------|--------|
G|--------|--------|--------|--------|--------|--------|--------|--------|--------|
D|--------|--------|--------|--------|--------|--------|--------|--------|--------|
A|--------|--------|--------|--------|--------|--------|--------|--------|--------|
E|--------|--------|--------|--------|--------|--------|--------|--------|--------|


E|--------|--------|--------|--------|--------|--------|--------|--------|--------|
B|--------|--------|--------|--------|--------|--------|--------|--------|--------|
G|--------|--------|--------|--------|--------|--------|--------|--------|--------|
D|--------|--------|--------|--------|--------|--------|--------|--------|--------|
A|--------|--------|--------|--------|--------|--------|--------|--------|--------|
E|--------|--------|--------|--------|--------|--------|--------|--------|--------|


E|--------|--------|--------|--------|--------|--------|--------|--------|--------|
B|--------|--------|--------|--------|--------|--------|--------|--------|--------|
G|--------|--------|--------|--------|--------|--------|--------|--------|--------|
D|--------|--------|--------|--------|--------|--------|--------|--------|--------|
A|--------|--------|--------|--------|--------|--------|--------|--------|--------|
E|--------|--------|--------|--------|--------|--------|--------|--------|--------|


E|--------|--------|--------|--------|--------|--------|--------|--------|--------|
B|--------|--------|--------|--------|--------|--------|--------|--------|--------|
G|--------|--------|--------|--------|--------|--------|--------|--------|--------|
D|--------|--------|--------|--------|--------|--------|--------|--------|--------|
A|--------|--------|--------|--------|--------|--------|--------|--------|--------|
E|--------|--------|--------|--------|--------|--------|--------|--------|--------|


E|--------|--------|--------|--------|--------|--------|--------|--------|--------|
B|--------|--------|--------|--------|--------|--------|--------|--------|--------|
G|--------|--------|--------|--------|--------|--------|--------|--------|--------|
D|--------|--------|--------|--------|--------|--------|--------|--------|--------|
A|--------|--------|--------|--------|--------|--------|--------|--------|--------|
E|--------|--------|--------|--------|--------|--------|--------|--------|--------|


E|--------|--------|--------|--------|--------|--------|--------|--------|--------|
B|--------|--------|--------|--------|--------|--------|--------|--------|--------|
G|--------|--------|--------|--------|--------|--------|--------|--------|--------|
D|--------|--------|--------|--------|--------|--------|--------|--------|--------|
A|--------|--------|--------|--------|--------|--------|--------|--------|--------|
E|--------|--------|--------|--------|--------|--------|--------|--------|--------|


E|--------|--------|------------------------------|------------------------------|
B|--------|--------|------------------------------|------------------------------|
G|--------|--------|---------5---------------5----|---------5---------------5----|
D|--------|--------|-----5---------------3--------|-----5---------------3--------|
A|--------|--------|-3-----------4---4------------|-3-----------1---1------------|
E|--------|--------|------------------------------|------------------------------|


E|------------------------------|------------------------------|------------------------------|
B|------------------------------|------------------------------|------------------------------|
G|---------5---------------5----|---------5---------------5----|---------5---------------5----|
D|-----5---------------3--------|-----5---------------3--------|-----5---------------3--------|
A|-3-----------4---4------------|-3-----------1---1------------|-3-----------4---4------------|
E|------------------------------|------------------------------|------------------------------|


E|------------------------------|------------------------------|------------------------------|
B|------------------------------|------------------------------|------------------------------|
G|---------5---------------5----|---------5---------------5----|---------5---------------5----|
D|-----5---------------3--------|-----5---------------3--------|-----5---------------3--------|
A|-3-----------1---1------------|-3-----------4---4------------|-3-----------1---1------------|
E|------------------------------|------------------------------|------------------------------|


E|------------------------------|------------------------------|------------------------------|
B|------------------------------|------------------------------|------------------------------|
G|---------5---------------5----|---------5---------------5----|---------5---------------5----|
D|-----5---------------3--------|-----5---------------3--------|-----5---------------3--------|
A|-3-----------4---4------------|-3-----------1---1------------|-3-----------4---4------------|
E|------------------------------|------------------------------|------------------------------|


E|------------------------------|------------------------------|------------------------------|
B|------------------------------|------------------------------|------------------------------|
G|---------5---------------5----|---------5---------------5----|---------5---------------5----|
D|-----5---------------3--------|-----5---------------3--------|-----5---------------3--------|
A|-3-----------1---1------------|-3-----------4---4------------|-3-----------1---1------------|
E|------------------------------|------------------------------|------------------------------|


E|------------------------------|------------------------------|------------------------------|
B|------------------------------|------------------------------|------------------------------|
G|---------5---------------5----|---------5---------------5----|---------5---------------5----|
D|-----5---------------3--------|-----5---------------3--------|-----5---------------3--------|
A|-3-----------4---4------------|-3-----------1---1------------|-3-----------4---4------------|
E|------------------------------|------------------------------|------------------------------|


E|------------------------------|------------------------------|------------------------------|
B|------------------------------|------------------------------|------------------------------|
G|---------5---------------5----|---------5---------------5----|---------5---------------5----|
D|-----5---------------3--------|-----5---------------3--------|-----5---------------3--------|
A|-3-----------1---1------------|-3-----------4---4------------|-3-----------1---1------------|
E|------------------------------|------------------------------|------------------------------|


E|------------------------------|------------------------------|------------------------------|
B|------------------------------|------------------------------|------------------------------|
G|---------5---------------5----|---------5---------------5----|---------5---------------5----|
D|-----5---------------3--------|-----5---------------3--------|-----5---------------3--------|
A|-3-----------4---4------------|-3-----------1---1------------|-3-----------4---4------------|
E|------------------------------|------------------------------|------------------------------|


E|------------------------------|--------|--------|--------|--------|--------|--------|
B|------------------------------|--------|--------|--------|--------|--------|--------|
G|---------5---------------5----|--------|--------|--------|--------|--------|--------|
D|-----5---------------3--------|--------|--------|--------|--------|--------|--------|
A|-3-----------1---1------------|--------|--------|--------|--------|--------|--------|
E|------------------------------|--------|--------|--------|--------|--------|--------|


E|--------|--------|--------|--------|--------|--------|--------|--------|--------|
B|--------|--------|--------|--------|--------|--------|--------|--------|--------|
G|--------|--------|--------|--------|--------|--------|--------|--------|--------|
D|--------|--------|--------|--------|--------|--------|--------|--------|--------|
A|--------|--------|--------|--------|--------|--------|--------|--------|--------|
E|--------|--------|--------|--------|--------|--------|--------|--------|--------|


E|--------|--------|--------|--------|--------|--------|--------|--------|--------|
B|--------|--------|--------|--------|--------|--------|--------|--------|--------|
G|--------|--------|--------|--------|--------|--------|--------|--------|--------|
D|--------|--------|--------|--------|--------|--------|--------|--------|--------|
A|--------|--------|--------|--------|--------|--------|--------|--------|--------|
E|--------|--------|--------|--------|--------|--------|--------|--------|--------|


E|--------|--------|--------|--------|--------|--------|--------|--------|--------|
B|--------|--------|--------|--------|--------|--------|--------|--------|--------|
G|--------|--------|--------|--------|--------|--------|--------|--------|--------|
D|--------|--------|--------|--------|--------|--------|--------|--------|--------|
A|--------|--------|--------|--------|--------|--------|--------|--------|--------|
E|--------|--------|--------|--------|--------|--------|--------|--------|--------|


E|--------|--------|--------|--------|--------|--------|--------|--------|--------|
B|--------|--------|--------|--------|--------|--------|--------|--------|--------|
G|--------|--------|--------|--------|--------|--------|--------|--------|--------|
D|--------|--------|--------|--------|--------|--------|--------|--------|--------|
A|--------|--------|--------|--------|--------|--------|--------|--------|--------|
E|--------|--------|--------|--------|--------|--------|--------|--------|--------|


E|--------|--------|--------|--------|--------|--------|
B|--------|--------|--------|--------|--------|--------|
G|--------|--------|--------|--------|--------|--------|
D|--------|--------|--------|--------|--------|--------|
A|--------|--------|--------|--------|--------|--------|
E|--------|--------|--------|--------|--------|--------|





Track 11: Untitled

G|--------|--------|--------|--------|--------|--------|--------|--------|--------|
D|--------|--------|--------|--------|--------|--------|--------|--------|--------|
A|--------|--------|--------|--------|--------|--------|--------|--------|--------|
E|--------|--------|--------|--------|--------|--------|--------|--------|--------|


G|--------|--------|--------|--------|--------|--------|--------|--------|--------|
D|--------|--------|--------|--------|--------|--------|--------|--------|--------|
A|--------|--------|--------|--------|--------|--------|--------|--------|--------|
E|--------|--------|--------|--------|--------|--------|--------|--------|--------|


G|--------|--------|--------|--------|--------|--------|--------|--------|--------|
D|--------|--------|--------|--------|--------|--------|--------|--------|--------|
A|--------|--------|--------|--------|--------|--------|--------|--------|--------|
E|--------|--------|--------|--------|--------|--------|--------|--------|--------|


G|--------|--------|--------|--------|--------|--------|--------|--------|--------|
D|--------|--------|--------|--------|--------|--------|--------|--------|--------|
A|--------|--------|--------|--------|--------|--------|--------|--------|--------|
E|--------|--------|--------|--------|--------|--------|--------|--------|--------|


G|--------|--------|--------|--------|--------|--------|--------|--------|--------|
D|--------|--------|--------|--------|--------|--------|--------|--------|--------|
A|--------|--------|--------|--------|--------|--------|--------|--------|--------|
E|--------|--------|--------|--------|--------|--------|--------|--------|--------|


G|--------|--------|--------|--------|--------|--------|--------|--------|--------|
D|--------|--------|--------|--------|--------|--------|--------|--------|--------|
A|--------|--------|--------|--------|--------|--------|--------|--------|--------|
E|--------|--------|--------|--------|--------|--------|--------|--------|--------|


G|--------|--------|--------|--------|--------|--------|--------|--------|--------|
D|--------|--------|--------|--------|--------|--------|--------|--------|--------|
A|--------|--------|--------|--------|--------|--------|--------|--------|--------|
E|--------|--------|--------|--------|--------|--------|--------|--------|--------|


G|--------|--------|--------|--------|--------|--------|--------|--------|--------|
D|--------|--------|--------|--------|--------|--------|--------|--------|--------|
A|--------|--------|--------|--------|--------|--------|--------|--------|--------|
E|--------|--------|--------|--------|--------|--------|--------|--------|--------|


G|--------|--------|--------|--------|--------|--------|--------|--------|--------|
D|--------|--------|--------|--------|--------|--------|--------|--------|--------|
A|--------|--------|--------|--------|--------|--------|--------|--------|--------|
E|--------|--------|--------|--------|--------|--------|--------|--------|--------|


G|--------|--------|--------|--------|--------|--------|--------|--------|--------|
D|--------|--------|--------|--------|--------|--------|--------|--------|--------|
A|--------|--------|--------|--------|--------|--------|--------|--------|--------|
E|--------|--------|--------|--------|--------|--------|--------|--------|--------|


G|--------|--------|--------|--------|--------|--------|--------|--------|--------|
D|--------|--------|--------|--------|--------|--------|--------|--------|--------|
A|--------|--------|--------|--------|--------|--------|--------|--------|--------|
E|--------|--------|--------|--------|--------|--------|--------|--------|--------|


G|--------|--------|--------|--------|--------|--------|--------|--------|--------|
D|--------|--------|--------|--------|--------|--------|--------|--------|--------|
A|--------|--------|--------|--------|--------|--------|--------|--------|--------|
E|--------|--------|--------|--------|--------|--------|--------|--------|--------|


G|--------|--------|--------|--------|--------|--------|--------|--------|--------|
D|--------|--------|--------|--------|--------|--------|--------|--------|--------|
A|--------|--------|--------|--------|--------|--------|--------|--------|--------|
E|--------|--------|--------|--------|--------|--------|--------|--------|--------|


G|--------|--------|--------|--------|--------|--------|--------|--------|--------|
D|--------|--------|--------|--------|--------|--------|--------|--------|--------|
A|--------|--------|--------|--------|--------|--------|--------|--------|--------|
E|--------|--------|--------|--------|--------|--------|--------|--------|--------|


G|--------|--------|--------|--------|--------|--------|--------|--------|--------|
D|--------|--------|--------|--------|--------|--------|--------|--------|--------|
A|--------|--------|--------|--------|--------|--------|--------|--------|--------|
E|--------|--------|--------|--------|--------|--------|--------|--------|--------|


G|--------|--------|--------|--------|--------|--------|--------|--------|--------|
D|--------|--------|--------|--------|--------|--------|--------|--------|--------|
A|--------|--------|--------|--------|--------|--------|--------|--------|--------|
E|--------|--------|--------|--------|--------|--------|--------|--------|--------|


G|--------|--------|--------|--------|--------|--------|--------|--------|--------|
D|--------|--------|--------|--------|--------|--------|--------|--------|--------|
A|--------|--------|--------|--------|--------|--------|--------|--------|--------|
E|--------|--------|--------|--------|--------|--------|--------|--------|--------|


G|--------|--------|--------|--------|--------|--------|--------|--------|--------|
D|--------|--------|--------|--------|--------|--------|--------|--------|--------|
A|--------|--------|--------|--------|--------|--------|--------|--------|--------|
E|--------|--------|--------|--------|--------|--------|--------|--------|--------|


G|--------|--------|--------|--------|--------|--------|--------|--------|--------|
D|--------|--------|--------|--------|--------|--------|--------|--------|--------|
A|--------|--------|--------|--------|--------|--------|--------|--------|--------|
E|--------|--------|--------|--------|--------|--------|--------|--------|--------|


G|--------|--------|--------|--------|--------|--------|--------|--------|--------|
D|--------|--------|--------|--------|--------|--------|--------|--------|--------|
A|--------|--------|--------|--------|--------|--------|--------|--------|--------|
E|--------|--------|--------|--------|--------|--------|--------|--------|--------|


G|--------|--------|--------|--------|--------|--------|--------|--------|--------|
D|--------|--------|--------|--------|--------|--------|--------|--------|--------|
A|--------|--------|--------|--------|--------|--------|--------|--------|--------|
E|--------|--------|--------|--------|--------|--------|--------|--------|--------|


G|--------|--------|--------|--------|--------|--------|--------|--------|--------|
D|--------|--------|--------|--------|--------|--------|--------|--------|--------|
A|--------|--------|--------|--------|--------|--------|--------|--------|--------|
E|--------|--------|--------|--------|--------|--------|--------|--------|--------|


G|--------|--------|
D|--------|--------|
A|--------|--------|
E|--------|--------|