Menu:

 

Search:

 

joe satriani - crystal planet:

 



Title: Crystal Planet
Artist: 
Album: Crystal Planet
Author: Joe Satriani


Track 1: Untitled

E|-2--3--2--0--2--2---2--3--2--0--2----3---5---|-2--3--2--0--2--2---2--3--2--0--2----3---5---|
B|-0-----------0--0---0-----------0----0---0---|-0-----------0--0---0-----------0----0---0---|
G|---------------------------------------------|---------------------------------------------|
D|---------------------------------------------|---------------------------------------------|
A|---------------------------------------------|---------------------------------------------|
E|---------------------------------------------|---------------------------------------------|


E|-2--3--2--0--2--2---2--3--2--0--2----3---5---|-2--3--2--0--2--2--0------5-----------7---|
B|-0-----------0--0---0-----------0----0---0---|-0-----------0--0-----3-----------5-------|
G|---------------------------------------------|------------------------------------------|
D|---------------------------------------------|------------------------------7-----------|
A|---------------------------------------------|------------------------------------------|
E|---------------------------------------------|------------------------------------------|


E|-2--3--2--0--2--2---2--3--2--0--2----3---5---|-2--3--2--0--2--2---2--3--2--0--2----3---5---|
B|-0-----------0--0---0-----------0----0---0---|-0-----------0--0---0-----------0----0---0---|
G|---------------------------------------------|---------------------------------------------|
D|---------------------------------------------|---------------------------------------------|
A|---------------------------------------------|---------------------------------------------|
E|---------------------------------------------|---------------------------------------------|


E|-2--3--2--0--2--2---2--3--2--0--2----3---5---|-2--3--2--0--2--2--0------5-----------7---|
B|-0-----------0--0---0-----------0----0---0---|-0-----------0--0-----3-----------5-------|
G|---------------------------------------------|------------------------------------------|
D|---------------------------------------------|------------------------------7-----------|
A|---------------------------------------------|------------------------------------------|
E|---------------------------------------------|------------------------------------------|


E|-2--3--2--0--2--2---2--3--2--0--2----3---5---|-2--3--2--0--2--2---2--3--2--0--2----3---5---|
B|-0-----------0--0---0-----------0----0---0---|-0-----------0--0---0-----------0----0---0---|
G|---------------------------------------------|---------------------------------------------|
D|---------------------------------------------|---------------------------------------------|
A|---------------------------------------------|---------------------------------------------|
E|---------------------------------------------|---------------------------------------------|


E|-2--3--2--0--2--2---2--3--2--0--2----3---5---|-2--3--2--0--2--2--0------5-----------7---|
B|-0-----------0--0---0-----------0----0---0---|-0-----------0--0-----3-----------5-------|
G|---------------------------------------------|------------------------------------------|
D|---------------------------------------------|------------------------------7-----------|
A|---------------------------------------------|------------------------------------------|
E|---------------------------------------------|------------------------------------------|


E|-2--3--2--0--2--2---2--3--2--0--2----3---5---|-2--3--2--0--2--2---2--3--2--0--2----3---5---|
B|-0-----------0--0---0-----------0----0---0---|-0-----------0--0---0-----------0----0---0---|
G|---------------------------------------------|---------------------------------------------|
D|---------------------------------------------|---------------------------------------------|
A|---------------------------------------------|---------------------------------------------|
E|---------------------------------------------|---------------------------------------------|


E|-2--3--2--0--2--2---2--3--2--0--2----3---5---|-2--3--2--0--2--2--0------5-----------7---|
B|-0-----------0--0---0-----------0----0---0---|-0-----------0--0-----3-----------5-------|
G|---------------------------------------------|------------------------------------------|
D|---------------------------------------------|------------------------------7-----------|
A|---------------------------------------------|------------------------------------------|
E|---------------------------------------------|------------------------------------------|


E|---------------------------------------------|---------------------------------------------|
B|---------------------------------------------|---------------------------------------------|
G|---------------------------------------------|---------------------------------------------|
D|-----------------------------------------7---|-----------------------------------------7---|
A|-9--10-9--7--9--9---9--10-9--7--9----10--7---|-9--10-9--7--9--9---9--10-9--7--9----10--7---|
E|-7-----------7--7---7-----------7----7-------|-7-----------7--7---7-----------7----7-------|


E|---------------------------------------------|---------------------------------------|
B|---------------------------------------------|---------------------------------------|
G|---------------------------------------------|---------------------------------------|
D|-----------------------------------------7---|---------------------------------------|
A|-9--10-9--7--9--9---9--10-9--7--9----10--7---|-9--10-9--7--9--9--9--12--12--7---7----|
E|-7-----------7--7---7-----------7----7-------|-7-----------7--7--7--10--10--5---5----|


E|---------------------------------------------|---------------------------------------------|
B|---------------------------------------------|---------------------------------------------|
G|---------------------------------------------|---------------------------------------------|
D|-----------------------------------------7---|-----------------------------------------7---|
A|-9--10-9--7--9--9---9--10-9--7--9----10--7---|-9--10-9--7--9--9---9--10-9--7--9----10--7---|
E|-7-----------7--7---7-----------7----7-------|-7-----------7--7---7-----------7----7-------|


E|---------------------------------------------|---------------------------------------|
B|---------------------------------------------|---------------------------------------|
G|---------------------------------------------|---------------------------------------|
D|-----------------------------------------7---|---------------------------------------|
A|-9--10-9--7--9--9---9--10-9--7--9----10--7---|-9--10-9--7--9--9--9--12--12--7---7----|
E|-7-----------7--7---7-----------7----7-------|-7-----------7--7--7--10--10--5---5----|


E|-----------------------------------------|-------------------------------------|
B|-----------------------------------------|-------------------------------------|
G|-12--12-12-12--12-12-12--12-12-12--12-12-|-12--12-12-12--12-12-12--------------|
D|-12--12-12-12--12-12-12--12-12-12--12-12-|-12--12-12-12--12-12-12--0-----------|
A|-12--12-12-12--12-12-12--12-12-12--12-12-|-12--12-12-12--12-12-12--0-------0---|
E|-----------------------------------------|-12--------12--------12--0---15------|


E|------------------------|---------------------------|------------------------|-----------------|
B|-14--14---14--14--14----|-14--------14---14-14--12--|-14----12--12--12---12--|-12---------10---|
G|------------------------|---------------------------|------------------------|-------11--------|
D|------------------------|---------------------------|------------------------|-----------------|
A|------------------------|---------------------------|------------------------|-----------------|
E|------------------------|---------------------------|------------------------|-----------------|


E|--------------------|-----------------------|------------------------|-------------|
B|-12---12--12--12----|-12--------------------|------------------------|-------------|
G|--------------------|-------11---11-11--9---|-9-----7---7---7---7----|-7-----------|
D|--------------------|-----------------------|------------------------|-------------|
A|--------------------|-----------------------|------------------------|-------------|
E|--------------------|-----------------------|------------------------|-------------|


E|------------------------|---------------------------|----------------14---|-14---14-14-------------|
B|-14--14---14--14--14----|-14--------14---14-14--14--|-14----12--12--------|-------------------10---|
G|------------------------|---------------------------|---------------------|--------------11--------|
D|------------------------|---------------------------|---------------------|------------------------|
A|------------------------|---------------------------|---------------------|------------------------|
E|------------------------|---------------------------|---------------------|------------------------|


E|---------------------|---------------------|-----------------|----------------------|
B|-12----12--12---12---|-12--------14----14--|-12---12---------|----------------------|
G|---------------------|---------------------|-----------------|----------------------|
D|---------------------|---------------------|------------9----|-9----9-----9--19-14--|
A|---------------------|---------------------|-----------------|----------------------|
E|---------------------|---------------------|-----------------|----------------------|


E|-------------|--------------------|-------------|-13-----13---13-|-13-----14---|
B|-------------|-13---13----13--13--|-11-----12---|----------------|-------------|
G|-11-----12---|--------------------|-------------|----------------|-------------|
D|-------------|--------------------|-------------|----------------|-------------|
A|-------------|--------------------|-------------|----------------|-------------|
E|-------------|--------------------|-------------|----------------|-------------|


E|-20-----20--|-20-----20--20--|-20---20---------|-21-----|-21----21---21-21--19--|
B|------------|----------------|-----------------|--------|-----------------------|
G|------------|----------------|-----------------|--------|-----------------------|
D|------------|----------------|-----------------|--------|-----------------------|
A|------------|----------------|-----------------|--------|-----------------------|
E|------------|----------------|-----------------|--------|-----------------------|


E|-21----19--19----|-19--------------|-19------------------|----------21--21----21--|
B|-----------------|-------19---22---|-------22--22---22---|-22---------------------|
G|-----------------|-----------------|---------------------|------------------------|
D|-----------------|-----------------|---------------------|------------------------|
A|-----------------|-----------------|---------------------|------------------------|
E|-----------------|-----------------|---------------------|------------------------|


E|-19-----|-19-----22---|-------------------------------------------------|-------------------------------------------------|
B|--------|-------------|-------------------------------------------------|-------------------------------------------------|
G|--------|-------------|-------------------------------------------------|-------------------------------------------------|
D|--------|-------------|-------------------------------------------------|-------------------------------------------------|
A|--------|-------------|-------14-------14-------14-------14-------17----|-------14-------14-------14-------14-------12----|
E|--------|-------------|-0--12----0--12----0--12----0--12----0--15----15-|-0--12----0--12----0--12----0--12----0--10----10-|


E|-------------------------------------------------|-------------------------------------------------|
B|-------------------------------------------------|-------------------------------------------------|
G|-------------------------------------------------|-------------------------------------------------|
D|-------------------------------------------------|-------------------------------------------------|
A|-------14-------14-------14-------14-------17----|-------14-------14-------14-------14-------12----|
E|-0--12----0--12----0--12----0--12----0--15----15-|-0--12----0--12----0--12----0--12----0--10----10-|


E|-------------------------------------------------|-------------------------------------------------|
B|-------------------------------------------------|-------------------------------------------------|
G|-------------------------------------------------|-------------------------------------------------|
D|-------------------------------------------------|-------------------------------------------------|
A|-------14-------14-------14-------14-------17----|-------14-------14-------14-------14-------12----|
E|-0--12----0--12----0--12----0--12----0--15----15-|-0--12----0--12----0--12----0--12----0--10----10-|


E|-------------------------------------------------|-----------------------------------|
B|-------------------------------------------------|-----------------------------------|
G|-------------------------------------------------|-----------------------------------|
D|-------------------------------------------------|-----------------------------------|
A|-------14-------14-------14-------14-------17----|-------14-------14-------14--------|
E|-0--12----0--12----0--12----0--12----0--15----15-|-0--12----0--12----0--12------19---|


E|----------------|---------------------|-----12--------------------------------------|
B|------15-15-----|-15---15---15----15--|-15-----12-15-12----12-----------------------|
G|------14-14-----|-14---14---14--------|-----------------14----15-14-12----14----12--|
D|----------------|---------------------|--------------------------------14----14-----|
A|----------------|---------------------|---------------------------------------------|
E|-0--------------|---------------------|---------------------------------------------|


E|-------------------------------------------|------------------------------|---------------12-----15-|
B|-------------------------------------------|-----15---15--15--15------15--|-15----15--15-----12-----|
G|-12----------------------------------12----|-14-------14--14------14--14--|-14----14----------------|
D|------12-14-12----12-12--14-12-14-12----14-|------------------------------|-------------------------|
A|---------------14--------------------------|------------------------------|-------------------------|
E|-------------------------------------------|------------------------------|-------------------------|


E|-15--15--15---12----12----12-14-12----|-12--------------------------------------|
B|-----------------15----15----------15-|----12-15-12-----------------------------|
G|--------------------------------------|-------------14----15-14-12-14-------16--|
D|--------------------------------------|----------------14---------------13------|
A|--------------------------------------|-----------------------------------------|
E|--------------------------------------|-----------------------------------------|


E|-----17----17---17---|-17----17--17-------18-19-|-18-15-19-15-18----19-15-18-15----15-18-19-18-15----|
B|-15------------------|--------------------------|-------------------------------19----------------19-|
G|---------------------|--------------------------|----------------------------------------------------|
D|---------------------|--------------------------|----------------------------------------------------|
A|---------------------|--------------------------|----------------------------------------------------|
E|---------------------|--------------------------|----------------------------------------------------|


E|-15-----------------------------------|----12------------12---------12----|-----12--------12---------12----12-15-|
B|----19-17-15-19-17-16--16-16-17---15--|-15----12-15-15------12-15------12-|-15-----12-15-----12-15------15-------|
G|--------------------------------------|-----------------------------------|--------------------------------------|
D|--------------------------------------|-----------------------------------|--------------------------------------|
A|--------------------------------------|-----------------------------------|--------------------------------------|
E|--------------------------------------|-----------------------------------|--------------------------------------|


E|-12----12--------------------------------------|---------------------------------------------|
B|----15----12-15-12----12-----------------------|---------------------------------------------|
G|-------------------14----15-14-12----14----12--|------------------------------------------16-|
D|----------------------------------14----14-----|-14-12---------------------------------------|
A|-----------------------------------------------|-------14-12-10----12----10------------------|
E|-----------------------------------------------|----------------12----12-----12-10-12-0------|


E|------------|---------------------------|-----16--16-16-------------------|---------------------|
B|------------|------------------0--------|-----------------17---17-17------|---------------------|
G|-16-----17--|-17---16---17-17-----------|-----------------------------16--|-17----16--13----14--|
D|------------|---------------------------|---------------------------------|---------------------|
A|------------|---------------------------|---------------------------------|---------------------|
E|------------|----------------------17---|---------------------------------|---------------------|


E|-----------------12----------------|-----12-----12-12----------12--12----|-----12------------------------12-----------12-------|
B|--------------------12-12--12------|-12------15--------15---15---15---15-|-15-----15-12-15--12-15-12-15-----15-12-15-----15-12-|
G|-12----14-14-14----------------14--|-------------------------------------|-----------------------------------------------------|
D|-----------------------------------|-------------------------------------|-----------------------------------------------------|
A|-----------------------------------|-------------------------------------|-----------------------------------------------------|
E|-----------------------------------|-------------------------------------|-----------------------------------------------------|


E|-----------------|-2--3--2--0--2--2---2--3--2--0--2----3---5---|-2--3--2--0--2--2---2--3--2--0--2----3---5---|
B|-15----15--------|-0-----------0--0---0-----------0----0---0---|-0-----------0--0---0-----------0----0---0---|
G|-----------------|---------------------------------------------|---------------------------------------------|
D|-----------------|---------------------------------------------|---------------------------------------------|
A|-----------------|---------------------------------------------|---------------------------------------------|
E|-----------15----|---------------------------------------------|---------------------------------------------|


E|-2--3--2--0--2--2---2--3--2--0--2----3---5---|-2--3--2--0--2--2--0------5-----------7---|
B|-0-----------0--0---0-----------0----0---0---|-0-----------0--0-----3-----------5-------|
G|---------------------------------------------|------------------------------------------|
D|---------------------------------------------|------------------------------7-----------|
A|---------------------------------------------|------------------------------------------|
E|---------------------------------------------|------------------------------------------|


E|-2--3--2--0--2--2---2--3--2--0--2----3---5---|-2--3--2--0--2--2---2--3--2--0--2----3---5---|
B|-0-----------0--0---0-----------0----0---0---|-0-----------0--0---0-----------0----0---0---|
G|---------------------------------------------|---------------------------------------------|
D|---------------------------------------------|---------------------------------------------|
A|---------------------------------------------|---------------------------------------------|
E|---------------------------------------------|---------------------------------------------|


E|-2--3--2--0--2--2---2--3--2--0--2----3---5---|-2--3--2--0--2--2--0------5-----------7---|
B|-0-----------0--0---0-----------0----0---0---|-0-----------0--0-----3-----------5-------|
G|---------------------------------------------|------------------------------------------|
D|---------------------------------------------|------------------------------7-----------|
A|---------------------------------------------|------------------------------------------|
E|---------------------------------------------|------------------------------------------|


E|-7----------|-----10-10-10--10-10-10--10-10-10--10-10-|-10--10-10-10--10-10-10--10-10------|
B|------------|-----10-10-10--10-10-10--10-10-10--10-10-|-10--10-10-10--10-10-10--10-10------|
G|--------5---|-10--10-10-10--10-10-10--10-10-10--10-10-|-10--10-10-10--10-10-10--10-10------|
D|------------|-----------------------------------------|------------------------------------|
A|------------|-----------------------------------------|------------------------------------|
E|------------|-----------------------------------------|-------------------------------17---|


E|-------------|--------------------|-------------|-13-----13---13-|-13-----14---|
B|-------------|-13---13----13--13--|-11-----12---|----------------|-------------|
G|-11-----12---|--------------------|-------------|----------------|-------------|
D|-------------|--------------------|-------------|----------------|-------------|
A|-------------|--------------------|-------------|----------------|-------------|
E|-------------|--------------------|-------------|----------------|-------------|


E|-20-----20--|-20-----20--20--|-20---20---------|-21-----|-21----21---21-21--19--|
B|------------|----------------|-----------------|--------|-----------------------|
G|------------|----------------|-----------------|--------|-----------------------|
D|------------|----------------|-----------------|--------|-----------------------|
A|------------|----------------|-----------------|--------|-----------------------|
E|------------|----------------|-----------------|--------|-----------------------|


E|-21----19--19----|-19--------------|-19------------------|----------21--21----21--|
B|-----------------|-------19---22---|-------22--22---22---|-22---------------------|
G|-----------------|-----------------|---------------------|------------------------|
D|-----------------|-----------------|---------------------|------------------------|
A|-----------------|-----------------|---------------------|------------------------|
E|-----------------|-----------------|---------------------|------------------------|


E|-19----------|---------------------|-19--------------|----------21--21----21--|-19--------------|
B|-------------|-12--------19---22---|-------22--22----|-22---------------------|-----------------|
G|-------------|---------------------|-----------------|------------------------|-------16--------|
D|-------------|---------------------|-----------------|------------------------|-----------------|
A|--------21---|---------------------|-----------------|------------------------|------------14---|
E|-------------|---------------------|-----------------|------------------------|-----------------|


E|-----------------|--------|--------|--------|--------|--------|--------|--------|
B|------------0----|--------|--------|--------|--------|--------|--------|--------|
G|-----------------|--------|--------|--------|--------|--------|--------|--------|
D|-----------------|--------|--------|--------|--------|--------|--------|--------|
A|-----------------|--------|--------|--------|--------|--------|--------|--------|
E|-7-----7---------|--------|--------|--------|--------|--------|--------|--------|


E|--------|--------|--------|--------|--------|--------|--------|--------|--------|
B|--------|--------|--------|--------|--------|--------|--------|--------|--------|
G|--------|--------|--------|--------|--------|--------|--------|--------|--------|
D|--------|--------|--------|--------|--------|--------|--------|--------|--------|
A|--------|--------|--------|--------|--------|--------|--------|--------|--------|
E|--------|--------|--------|--------|--------|--------|--------|--------|--------|


E|-------------------------------------------------|-------------------------------------------------|
B|-15-14-0--17-15-0--15-14-0--14-12-0--14-0--15-0--|-17-15-0--15-14-0--14-12-0--14-12-0--12-0--14-0--|
G|-------------------------------------------------|-------------------------------------------------|
D|-------------------------------------------------|-------------------------------------------------|
A|-------------------------------------------------|-------------------------------------------------|
E|-------------------------------------------------|-------------------------------------------------|


E|-------------------------------------------------|-------------------------------------------------|
B|-12-14-0--14-15-0--17-15-0--15-14-0--14-12-10-12-|-10-0--12-14-0--12-14-0--12-0--10-0--12-0--10-0--|
G|-------------------------------------------------|-------------------------------------------------|
D|-------------------------------------------------|-------------------------------------------------|
A|-------------------------------------------------|-------------------------------------------------|
E|-------------------------------------------------|-------------------------------------------------|


E|-------------------------------------------------|-------------------------------------------------|
B|-12-10-0--14-12-0--15-14-0--15-17-0--15-0--14-0--|-15-14-0--14-12-0--12-10-0--15-14-0--17-0--14-0--|
G|-------------------------------------------------|-------------------------------------------------|
D|-------------------------------------------------|-------------------------------------------------|
A|-------------------------------------------------|-------------------------------------------------|
E|-------------------------------------------------|-------------------------------------------------|


E|-------------------------------------------------|-------------------------------------------------|
B|-12-0--10-0--12-10-0--12-0--10-0--12-10-0--10-0--|-12-0--10-0--12-10-0--12-0--10-0--12-10-0--17-0--|
G|-------------------------------------------------|-------------------------------------------------|
D|-------------------------------------------------|-------------------------------------------------|
A|-------------------------------------------------|-------------------------------------------------|
E|-------------------------------------------------|-------------------------------------------------|


E|-----------------------------------------------|-------------------------------------------------|
B|-19-17-0--17-15-0--15-14-12-12-14-12-14--12-12-|-14-12-0--15-14-0--17-15-0--15-14-0--15-0--14-0--|
G|-----------------------------------------------|-------------------------------------------------|
D|-----------------------------------------------|-------------------------------------------------|
A|-----------------------------------------------|-------------------------------------------------|
E|-----------------------------------------------|-------------------------------------------------|


E|-------------------------------------------------|-------------------------------------------------|
B|-17-15-0--15-14-0--14-12-0--12-10-0--12-0--10-0--|-12-10-0--14-12-0--12-10-0--14-12-0--14-0--15-0--|
G|-------------------------------------------------|-------------------------------------------------|
D|-------------------------------------------------|-------------------------------------------------|
A|-------------------------------------------------|-------------------------------------------------|
E|-------------------------------------------------|-------------------------------------------------|


E|-------------------17-15----15-14-12-12-10-14-10-|-------14-12-12-----------------12-10----10-9--|
B|-17-15-0--15-14-0--------------------------------|-14-12----------14-12--12-10-------------------|
G|-------------------------------------------------|-----------------------------------------------|
D|-------------------------------------------------|-----------------------------------------------|
A|-------------------------------------------------|-----------------------------------------------|
E|-------------------------------------------------|-----------------------------------------------|


E|----9--7-----10-9-----12-10----14-12----15-14----|-17-15----19-17----19-17----19-17----19--19--|
B|-------------------------------------------------|---------------------------------------------|
G|-------------------------------------------------|---------------------------------------------|
D|-------------------------------------------------|---------------------------------------------|
A|-------------------------------------------------|---------------------------------------------|
E|-------------------------------------------------|---------------------------------------------|


E|-19-14--19-14--19-14-14-19-14--19--14--|-19-14--19-14--19-14-14-19-14--19--14--|
B|---------------------------------------|---------------------------------------|
G|---------------------------------------|---------------------------------------|
D|---------------------------------------|---------------------------------------|
A|---------------------------------------|---------------------------------------|
E|---------------------------------------|---------------------------------------|


E|-19-14--19-14--19-14-14-19-14--19--14--|-19-14--19-14--19-14-14-19-14--19--14--|
B|---------------------------------------|---------------------------------------|
G|---------------------------------------|---------------------------------------|
D|---------------------------------------|---------------------------------------|
A|---------------------------------------|---------------------------------------|
E|---------------------------------------|---------------------------------------|


E|-15-14-12-17-15-14-----------------15-14-12-14-|-12-12-------------------12-10-0--10-9--0--9--7--|
B|-------------------17-15-14-15-14--------------|-------14-12-0--12-10-0--------------------------|
G|-----------------------------------------------|-------------------------------------------------|
D|-----------------------------------------------|-------------------------------------------------|
A|-----------------------------------------------|-------------------------------------------------|
E|-----------------------------------------------|-------------------------------------------------|


E|-0--10-9--0--12-10-0--------------------9--7--0--|-----------------------------------------------|
B|----------------------12-10-0--10-8--0-----------|-8--7--0--10-8--0--8--7--0--7--5--0--5--3--0---|
G|-------------------------------------------------|-----------------------------------------------|
D|-------------------------------------------------|-----------------------------------------------|
A|-------------------------------------------------|-----------------------------------------------|
E|-------------------------------------------------|-----------------------------------------------|


E|-2--3--2--0--2--2------|
B|-0-----------0--0------|
G|-----------------------|
D|-----------------------|
A|-----------------------|
E|-----------------------|





Track 2: Untitled

E|--------|--------|--------|--------|--------|--------|--------|--------|--------|
B|--------|--------|--------|--------|--------|--------|--------|--------|--------|
G|--------|--------|--------|--------|--------|--------|--------|--------|--------|
D|--------|--------|--------|--------|--------|--------|--------|--------|--------|
A|--------|--------|--------|--------|--------|--------|--------|--------|--------|
E|--------|--------|--------|--------|--------|--------|--------|--------|--------|


E|--------|--------|--------|--------|--------|--------|--------|--------|--------|
B|--------|--------|--------|--------|--------|--------|--------|--------|--------|
G|--------|--------|--------|--------|--------|--------|--------|--------|--------|
D|--------|--------|--------|--------|--------|--------|--------|--------|--------|
A|--------|--------|--------|--------|--------|--------|--------|--------|--------|
E|--------|--------|--------|--------|--------|--------|--------|--------|--------|


E|--------|--------|--------|--------|--------|--------|--------|--------|--------|
B|--------|--------|--------|--------|--------|--------|--------|--------|--------|
G|--------|--------|--------|--------|--------|--------|--------|--------|--------|
D|--------|--------|--------|--------|--------|--------|--------|--------|--------|
A|--------|--------|--------|--------|--------|--------|--------|--------|--------|
E|--------|--------|--------|--------|--------|--------|--------|--------|--------|


E|--------|--------|--------|--------|--------|--------|--------|--------|--------|
B|--------|--------|--------|--------|--------|--------|--------|--------|--------|
G|--------|--------|--------|--------|--------|--------|--------|--------|--------|
D|--------|--------|--------|--------|--------|--------|--------|--------|--------|
A|--------|--------|--------|--------|--------|--------|--------|--------|--------|
E|--------|--------|--------|--------|--------|--------|--------|--------|--------|


E|--------|--------|--------|--------|--------|--------|--------|--------|--------|
B|--------|--------|--------|--------|--------|--------|--------|--------|--------|
G|--------|--------|--------|--------|--------|--------|--------|--------|--------|
D|--------|--------|--------|--------|--------|--------|--------|--------|--------|
A|--------|--------|--------|--------|--------|--------|--------|--------|--------|
E|--------|--------|--------|--------|--------|--------|--------|--------|--------|


E|--------|--------|--------|--------|--------|--------|-----------------------|-----------------|
B|--------|--------|--------|--------|--------|-22-----|-22----22---22-22--19--|-22----19--19----|
G|--------|--------|--------|--------|--------|--------|-----------------------|-----------------|
D|--------|--------|--------|--------|--------|--------|-----------------------|-----------------|
A|--------|--------|--------|--------|--------|--------|-----------------------|-----------------|
E|--------|--------|--------|--------|--------|--------|-----------------------|-----------------|


E|-------------|-----------------|-------------|-------------|--------|--------|--------|
B|-17----------|-14----14--14----|-12----------|-12----------|--------|--------|--------|
G|-------------|-----------------|-------14----|-------------|--------|--------|--------|
D|-------------|-----------------|-------------|-------------|--------|--------|--------|
A|-------------|-----------------|-------------|-------------|--------|--------|--------|
E|-------------|-----------------|-------------|--------14---|-7------|--------|--------|


E|--------|--------|--------|--------|--------|--------|--------|--------|--------|
B|--------|--------|--------|--------|--------|--------|--------|--------|--------|
G|--------|--------|--------|--------|--------|--------|--------|--------|--------|
D|--------|--------|--------|--------|--------|--------|--------|--------|--------|
A|--------|--------|--------|--------|--------|--------|--------|--------|--------|
E|--------|--------|--------|--------|--------|--------|--------|--------|--------|


E|--------|--------|--------|--------|--------|--------|--------|--------|--------|
B|--------|--------|--------|--------|--------|--------|--------|--------|--------|
G|--------|--------|--------|--------|--------|--------|--------|--------|--------|
D|--------|--------|--------|--------|--------|--------|--------|--------|--------|
A|--------|--------|--------|--------|--------|--------|--------|--------|--------|
E|--------|--------|--------|--------|--------|--------|--------|--------|--------|


E|--------|--------|--------|--------|--------|--------|--------|--------|--------|
B|--------|--------|--------|--------|--------|--------|--------|--------|--------|
G|--------|--------|--------|--------|--------|--------|--------|--------|--------|
D|--------|--------|--------|--------|--------|--------|--------|--------|--------|
A|--------|--------|--------|--------|--------|--------|--------|--------|--------|
E|--------|--------|--------|--------|--------|--------|--------|--------|--------|


E|--------|--------|--------|--------|--------|--------|--------|--------|--------|
B|--------|--------|--------|--------|--------|--------|--------|--------|--------|
G|--------|--------|--------|--------|--------|--------|--------|--------|--------|
D|--------|--------|--------|--------|--------|--------|--------|--------|--------|
A|--------|--------|--------|--------|--------|--------|--------|--------|--------|
E|--------|--------|--------|--------|--------|--------|--------|--------|--------|


E|--------|--------|--------|--------|--------|--------|--------|--------|--------|
B|--------|--------|--------|--------|--------|--------|--------|--------|--------|
G|--------|--------|--------|--------|--------|--------|--------|--------|--------|
D|--------|--------|--------|--------|--------|--------|--------|--------|--------|
A|--------|--------|--------|--------|--------|--------|--------|--------|--------|
E|--------|--------|--------|--------|--------|--------|--------|--------|--------|


E|--------|--------|--------|--------|--------|-----------------------|-----------------|
B|--------|--------|--------|--------|-22-----|-22----22---22-22--19--|-22----19--19----|
G|--------|--------|--------|--------|--------|-----------------------|-----------------|
D|--------|--------|--------|--------|--------|-----------------------|-----------------|
A|--------|--------|--------|--------|--------|-----------------------|-----------------|
E|--------|--------|--------|--------|--------|-----------------------|-----------------|


E|-------------|-----------------|-------------|--------|--------|-----------------|
B|-17----------|-14----14--14----|-12----------|-12-----|-12-----|-14----14--14----|
G|-------------|-----------------|-------14----|--------|--------|-----------------|
D|-------------|-----------------|-------------|--------|--------|-----------------|
A|-------------|-----------------|-------------|--------|--------|-----------------|
E|-------------|-----------------|-------------|--------|--------|-----------------|


E|-----------------|--------|--------|-------14-------14-------14-------14-------17----|
B|-12--------------|--------|--------|-0--12----0--12----0--12----0--12----0--15----15-|
G|-------14----14--|-11-----|-11-----|-------------------------------------------------|
D|-----------------|--------|--------|-------------------------------------------------|
A|-----------------|--------|--------|-------------------------------------------------|
E|-----------------|--------|--------|-------------------------------------------------|


E|-------14-------14-------14-------14-------12----|-------14-------14-------14-------14-------17----|
B|-0--12----0--12----0--12----0--12----0--10----10-|-0--12----0--12----0--12----0--12----0--15----15-|
G|-------------------------------------------------|-------------------------------------------------|
D|-------------------------------------------------|-------------------------------------------------|
A|-------------------------------------------------|-------------------------------------------------|
E|-------------------------------------------------|-------------------------------------------------|


E|-------14-------14-------14-------14-------12----|-------14-------14-------14-------14-------17----|
B|-0--12----0--12----0--12----0--12----0--10----10-|-0--12----0--12----0--12----0--12----0--15----15-|
G|-------------------------------------------------|-------------------------------------------------|
D|-------------------------------------------------|-------------------------------------------------|
A|-------------------------------------------------|-------------------------------------------------|
E|-------------------------------------------------|-------------------------------------------------|


E|-------14-------14-------14-------14-------12----|-------14-------14-------14-------14-------17----|
B|-0--12----0--12----0--12----0--12----0--10----10-|-0--12----0--12----0--12----0--12----0--15----15-|
G|-------------------------------------------------|-------------------------------------------------|
D|-------------------------------------------------|-------------------------------------------------|
A|-------------------------------------------------|-------------------------------------------------|
E|-------------------------------------------------|-------------------------------------------------|


E|-------14-------14-------14-------14-------12----|-------14-------14-------14-------14-------17----|
B|-0--12----0--12----0--12----0--12----0--10----10-|-0--12----0--12----0--12----0--12----0--15----15-|
G|-------------------------------------------------|-------------------------------------------------|
D|-------------------------------------------------|-------------------------------------------------|
A|-------------------------------------------------|-------------------------------------------------|
E|-------------------------------------------------|-------------------------------------------------|


E|-------14-------14-------14-------14-------12----|-------14-------14-------14-------14-------17----|
B|-0--12----0--12----0--12----0--12----0--10----10-|-0--12----0--12----0--12----0--12----0--15----15-|
G|-------------------------------------------------|-------------------------------------------------|
D|-------------------------------------------------|-------------------------------------------------|
A|-------------------------------------------------|-------------------------------------------------|
E|-------------------------------------------------|-------------------------------------------------|


E|-------14-------14-------14-------14-------12----|-------14-------14-------14-------14-------17----|
B|-0--12----0--12----0--12----0--12----0--10----10-|-0--12----0--12----0--12----0--12----0--15----15-|
G|-------------------------------------------------|-------------------------------------------------|
D|-------------------------------------------------|-------------------------------------------------|
A|-------------------------------------------------|-------------------------------------------------|
E|-------------------------------------------------|-------------------------------------------------|


E|-------14-------14-------14-------14-------12----|-------14-------14-------14-------14-------17----|
B|-0--12----0--12----0--12----0--12----0--10----10-|-0--12----0--12----0--12----0--12----0--15----15-|
G|-------------------------------------------------|-------------------------------------------------|
D|-------------------------------------------------|-------------------------------------------------|
A|-------------------------------------------------|-------------------------------------------------|
E|-------------------------------------------------|-------------------------------------------------|


E|-------14-------14-------14-------14-------12----|--------|--------|--------|--------|
B|-0--12----0--12----0--12----0--12----0--10----10-|--------|--------|--------|--------|
G|-------------------------------------------------|--------|--------|--------|--------|
D|-------------------------------------------------|--------|--------|--------|--------|
A|-------------------------------------------------|--------|--------|--------|--------|
E|-------------------------------------------------|--------|--------|--------|--------|


E|--------|--------|--------|--------|--------|--------|--------|--------|--------|
B|--------|--------|--------|--------|--------|--------|--------|--------|--------|
G|--------|--------|--------|--------|--------|--------|--------|--------|--------|
D|--------|--------|--------|--------|--------|--------|--------|--------|--------|
A|--------|--------|--------|--------|--------|--------|--------|--------|--------|
E|--------|--------|--------|--------|--------|--------|--------|--------|--------|


E|--------|--------|--------|--------|--------|--------|--------|--------|--------|
B|--------|--------|--------|--------|--------|--------|--------|--------|--------|
G|--------|--------|--------|--------|--------|--------|--------|--------|--------|
D|--------|--------|--------|--------|--------|--------|--------|--------|--------|
A|--------|--------|--------|--------|--------|--------|--------|--------|--------|
E|--------|--------|--------|--------|--------|--------|--------|--------|--------|


E|--------|--------|--------|
B|--------|--------|--------|
G|--------|--------|--------|
D|--------|--------|--------|
A|--------|--------|--------|
E|--------|--------|--------|





Track 3: Fingered Bass

G|--------|--------|--------|--------|--------|--------|--------|--------|--------|
D|--------|--------|--------|--------|--------|--------|--------|--------|--------|
A|--------|--------|--------|--------|--------|--------|--------|--------|-14-----|
E|--------|--------|--------|--------|--------|--------|--------|--------|--------|


G|--------|--------|--------|--------|--------|--------|-------------|---------------------------------|
D|--------|--------|--------|--------|--------|--------|-------------|---------------------------------|
A|-14-----|-14-----|-14-----|--------|--------|--------|-------------|---------------------------------|
E|--------|--------|--------|-7------|-7------|-7------|-7------14---|-7----7--7---7---7---7---7---5---|


G|---------------------------------|---------------------------------|------------------------------|
D|---------------------------------|---------------------------------|------------------------------|
A|---------------------------------|---------------------------------|-------------5---5------------|
E|-7----7--7---7---7---7---7---5---|-7----7--7---7---7---7---7---5---|-7----7--7-----------5---5----|


G|---------------------------------|---------------------------------|---------------------------------|
D|---------------------------------|---------------------------------|---------------------------------|
A|---------------------------------|---------------------------------|---------------------------------|
E|-7----7--7---7---7---7---7---5---|-7----7--7---7---7---7---7---5---|-7----7--7---7---7---7---7---5---|


G|------------------------------|--------|-----------------|---------------------------------|
D|------------------------------|--------|-----------------|---------------------------------|
A|-------------5---5------------|--------|-----------------|---------------------------------|
E|-7----7--7-----------5---5----|--------|------------15---|-7----7--7---7---7---7---7---5---|


G|---------------------------------|---------------------------------|---------------------------------|
D|---------------------------------|---------------------------------|---------------------------------|
A|---------------------------------|---------------------------------|---------------------------------|
E|-7----7--7---7---7---7---7---5---|-7----7--7---7---7---7---7---5---|-7----7--7---7---7---7---7---5---|


G|---------------------------------|---------------------------------|---------------------------------|
D|---------------------------------|---------------------------------|---------------------------------|
A|---------------------------------|---------------------------------|---------------------------------|
E|-3----3--3---3---3---3---3---3---|-0----0--0---0---0---0---0---0---|-7----7--7---7---7---7---7---5---|


G|---------------------------------|---------------------------------|---------------------------------|
D|---------------------------------|---------------------------------|---------------------------------|
A|---------------------------------|---------------------------------|---------------------------------|
E|-7----7--7---7---7---7---7---5---|-7----7--7---7---7---7---7---5---|-7----7--7---7---7---7---7---5---|


G|---------------------------------|---------------------------------|---------------------------------|
D|---------------------------------|---------------------------------|---------------------------------|
A|---------------------------------|---------------------------------|---------------------------------|
E|-7----7--7---7---7---7---7---5---|-7----7--7---7---7---7---7---5---|-3----3--3---3---3---3---3---3---|


G|---------------------------------|---------------------------------|---------------------------------|
D|---------------------------------|---------------------------------|---------------------------------|
A|---------------------------------|---------------------------------|---------------------------------|
E|-0----0--0---0---0---0---0---0---|-7----7--7---7---7---7---7---5---|-7----7--7---7---7---7---7---5---|


G|---------------------------------|---------------------------------|---------------------------------|
D|---------------------------------|---------------------------------|---------------------------------|
A|---------------------------------|---------------------------------|-7----7--7---7---7---7---7---7---|
E|-8----8--8---8---8---8---8---8---|-8----8--8---8---8---8---8---8---|---------------------------------|


G|---------------------------------|---------------------------------|---------------------------------|
D|---------------------------------|---------------------------------|---------------------------------|
A|-7----7--7---7---7---7---7---7---|---------------------------------|---------------------------------|
E|---------------------------------|-7----7--7---7---7---7---7---7---|-7----7--7---7---7---7---7---7---|


G|---------------------------------|---------------------------------|---------------------------------|
D|---------------------------------|---------------------------------|---------------------------------|
A|---------------------------------|---------------------------------|---------------------------------|
E|-2----2--2---2---2---2---2---2---|-2----2--2---2---2---2---2---2---|-7----7--7---7---7---7---7---7---|


G|---------------------------------|---------------------------------|---------------------------------|
D|---------------------------------|---------------------------------|---------------------------------|
A|---------------------------------|---------------------------------|---------------------------------|
E|-10---10-10--10--10--10--10--10--|-3----3--3---3---3---3---3---3---|-5----5--5---5---5---5---5---5---|


G|---------------------------------|---------------------------|---------------------------------|
D|---------------------------------|---------------------------|---------------------------------|
A|-7----7--7---7---7---7---7---7---|-5----5--5---5-------------|---------------------------------|
E|---------------------------------|-----------------5----5----|-7----7--7---7---7---7---7---7---|


G|------4--4-------------|--------|--------|--------|--------|--------|--------|--------|
D|-------------4---------|--------|--------|--------|--------|--------|--------|--------|
A|-----------------------|--------|--------|--------|--------|--------|--------|--------|
E|-7---------------------|-0------|-0------|-0------|-0------|--------|--------|--------|


G|--------|---------------------------------|---------------------------------|---------------------------------|
D|--------|-------------------------5---5---|---------------------------------|-------------------------5---5---|
A|--------|-7----7--7---7---7---7-----------|-7----7--7---7---7---7---5---5---|-7----7--7---7---7---7-----------|
E|--------|---------------------------------|---------------------------------|---------------------------------|


G|---------------------------------|---------------------------------|---------------------------------|
D|---------------------------------|-------------------------5---5---|---------------------------------|
A|-7----7--7---7---7---7---5---5---|-7----7--7---7---7---7-----------|-7----7--7---7---7---7---5---5---|
E|---------------------------------|---------------------------------|---------------------------------|


G|---------------------------------|---------------------------------|---------------------------------|
D|-------------------------5---5---|---------------------------------|-------------------------5---5---|
A|-7----7--7---7---7---7-----------|-7----7--7---7---7---7---5---5---|-7----7--7---7---7---7-----------|
E|---------------------------------|---------------------------------|---------------------------------|


G|---------------------------------|---------------------------------|---------------------------------|
D|---------------------------------|-------------------------5---5---|---------------------------------|
A|-7----7--7---7---7---7---5---5---|-7----7--7---7---7---7-----------|-7----7--7---7---7---7---5---5---|
E|---------------------------------|---------------------------------|---------------------------------|


G|---------------------------------|---------------------------------|---------------------------------|
D|-------------------------5---5---|---------------------------------|-------------------------5---5---|
A|-7----7--7---7---7---7-----------|-7----7--7---7---7---7---5---5---|-7----7--7---7---7---7-----------|
E|---------------------------------|---------------------------------|---------------------------------|


G|---------------------------------|---------------------------------|---------------------------------|
D|---------------------------------|---------------------------------|---------------------------------|
A|-7----7--7---7---7---7---5---5---|---------------------------------|---------------------------------|
E|---------------------------------|-7----7--7---7---7---7---8---8---|-7----7--7---7---7---7---8---8---|


G|---------------------------------|---------------------------------|---------------------------------|
D|---------------------------------|---------------------------------|-------------------------5---5---|
A|-------------------------3---3---|-------------------------3---3---|-7----7--7---7---7---7-----------|
E|-5----5--5---5---5---5-----------|-5----5--5---5---5---5-----------|---------------------------------|


G|---------------------------------|---------------------------------|---------------------------------|
D|---------------------------------|-------------------------5---5---|---------------------------------|
A|-7----7--7---7---7---7---5---5---|-7----7--7---7---7---7-----------|-7----7--7---7---7---7---5---5---|
E|---------------------------------|---------------------------------|---------------------------------|


G|--------|--------|--------|--------|--------|--------|--------|-----------14----------16--|
D|--------|--------|--------|--------|--------|--------|--------|-------12----------14------|
A|--------|--------|--------|--------|-14-----|-14-----|-14-----|-14------------12------0---|
E|-7------|-7------|-7------|-7------|--------|--------|--------|---------------------------|


G|-16-----|--------|-------------|---------------------------------|---------------------------------|
D|--------|--------|-------------|---------------------------------|---------------------------------|
A|-0------|-0------|-0-----------|---------------------------------|---------------------------------|
E|--------|--------|-------12----|-8----8--8---8---8---8---8---8---|-8----8--8---8---8---8---8---8---|


G|---------------------------------|---------------------------------|---------------------------------|
D|---------------------------------|---------------------------------|---------------------------------|
A|-7----7--7---7---7---7---7---7---|-7----7--7---7---7---7---7---7---|---------------------------------|
E|---------------------------------|---------------------------------|-7----7--7---7---7---7---7---7---|


G|---------------------------------|---------------------------------|---------------------------------|
D|---------------------------------|---------------------------------|---------------------------------|
A|---------------------------------|---------------------------------|---------------------------------|
E|-7----7--7---7---7---7---7---7---|-2----2--2---2---2---2---2---2---|-2----2--2---2---2---2---2---2---|


G|---------------------------------|---------------------------------|---------------------------------|
D|---------------------------------|---------------------------------|---------------------------------|
A|---------------------------------|---------------------------------|---------------------------------|
E|-7----7--7---7---7---7---7---7---|-10---10-10--10--10--10--10--10--|-3----3--3---3---3---3---3---3---|


G|---------------------------------|---------------------------------|---------------------------|
D|---------------------------------|---------------------------------|---------------------------|
A|---------------------------------|-7----7--7---7---7---7---7---7---|-5----5--5---5-------------|
E|-5----5--5---5---5---5---5---5---|---------------------------------|-----------------5----5----|


G|---------------------------------|---------------------------------|---------------------------------|
D|---------------------------------|---------------------------------|---------------------------------|
A|---------------------------------|---------------------------------|-7----7--7---7---7---7---7---7---|
E|-7----7--7---7---7---7---7---7---|-7----7--7---7---7---7---7---7---|---------------------------------|


G|---------------------------|---------------------------------|---------------------------------|
D|---------------------------|---------------------------------|---------------------------------|
A|-5----5--5---5-------------|---------------------------------|-------------------------14--2---|
E|-----------------5----5----|-7----7--7---7---7---7---7---7---|-7----7--7---7---7---7-----------|


G|--------|--------|--------|--------|--------------------|--------|-------------|
D|--------|--------|--------|--------|--------------------|--------|-------------|
A|-2------|-2------|-2------|-2------|-2--2--2--2--14-----|-14-----|-14----14----|
E|--------|--------|--------|--------|--------------------|--------|-------------|


G|-16--------------|---------------------------------|---------------------------------|
D|------14---9-----|---------------------------------|---------------------------------|
A|-----------------|-------------------------5---5---|---------------------------------|
E|-----------------|-7----7--7---7---7---7-----------|-7----7--7---7---7---7---5---5---|


G|---------------------------------|---------------------------------|---------------------------------|
D|---------------------------------|---------------------------------|---------------------------------|
A|-------------------------5---5---|---------------------------------|-------------------------5---5---|
E|-7----7--7---7---7---7-----------|-7----7--7---7---7---7---5---5---|-7----7--7---7---7---7-----------|


G|---------------------------------|---------------------------------|---------------------------------|
D|---------------------------------|---------------------------------|---------------------------------|
A|---------------------------------|-------------------------5---5---|---------------------------------|
E|-7----7--7---7---7---7---5---5---|-7----7--7---7---7---7-----------|-7----7--7---7---7---7---5---5---|


G|---------------------------------|---------------------------------|---------------------------------|
D|---------------------------------|---------------------------------|---------------------------------|
A|-------------------------5---5---|---------------------------------|-------------------------5---5---|
E|-7----7--7---7---7---7-----------|-7----7--7---7---7---7---5---5---|-7----7--7---7---7---7-----------|


G|---------------------------------|---------------------------------|---------------------------------|
D|---------------------------------|---------------------------------|---------------------------------|
A|---------------------------------|-------------------------5---5---|---------------------------------|
E|-7----7--7---7---7---7---5---5---|-7----7--7---7---7---7-----------|-7----7--7---7---7---7---5---5---|


G|---------------------------------|-------------------------------------------------|
D|---------------------------------|-------------------------------------------------|
A|-------------------------5---5---|-------------------------------------------------|
E|-7----7--7---7---7---7-----------|-7--7--7--7--7--7--7--7--7--7--7--7--7--7--7--7--|


G|---------------------------------|---------------------------------|---------------------------------|
D|---------------------------------|---------------------------------|---------------------------------|
A|-------------------------5---5---|---------------------------------|-------------------------5---5---|
E|-7----7--7---7---7---7-----------|-7----7--7---7---7---7---5---5---|-7----7--7---7---7---7-----------|


G|---------------------------------|---------------------------------|---------------------------------|
D|---------------------------------|---------------------------------|---------------------------------|
A|---------------------------------|-------------------------5---5---|---------------------------------|
E|-7----7--7---7---7---7---5---5---|-7----7--7---7---7---7-----------|-7----7--7---7---7---7---5---5---|


G|---------------------------------|---------------------------------|---------------------------------|
D|---------------------------------|---------------------------------|---------------------------------|
A|-------------------------5---5---|---------------------------------|-------------------------5---5---|
E|-7----7--7---7---7---7-----------|-7----7--7---7---7---7---5---5---|-7----7--7---7---7---7-----------|


G|---------------------------------|---------------------------------|---------------------------------|
D|---------------------------------|---------------------------------|---------------------------------|
A|---------------------------------|-------------------------5---5---|---------------------------------|
E|-7----7--7---7---7---7---5---5---|-7----7--7---7---7---7-----------|-7----7--7---7---7---7---5---5---|


G|---------------------------------|---------------------------------|---------------------------------|
D|---------------------------------|---------------------------------|---------------------------------|
A|-------------------------5---5---|---------------------------------|-------------------------5---5---|
E|-7----7--7---7---7---7-----------|-7----7--7---7---7---7---5---5---|-7----7--7---7---7---7-----------|


G|---------------------------------|--------|
D|---------------------------------|--------|
A|---------------------------------|--------|
E|-7----7--7---7---7---7---5---5---|-7------|





Track 4: Slap Bass

G|--------|--------|--------|--------|--------|--------|--------|--------|--------|
D|--------|--------|--------|--------|--------|--------|--------|--------|--------|
A|--------|--------|--------|--------|--------|--------|--------|--------|--------|
E|--------|--------|--------|--------|--------|--------|--------|--------|--------|


G|--------|--------|--------|--------|--------|--------|--------|--------|--------|
D|--------|--------|--------|--------|--------|--------|--------|--------|--------|
A|--------|--------|--------|--------|--------|--------|--------|--------|--------|
E|--------|--------|--------|--------|--------|--------|--------|--------|--------|


G|--------|--------|--------|--------|--------|--------|--------|--------|--------|
D|--------|--------|--------|--------|--------|--------|--------|--------|--------|
A|--------|--------|--------|--------|--------|--------|--------|--------|--------|
E|--------|--------|--------|--------|--------|--------|--------|--------|--------|


G|--------|--------|--------|--------|--------|--------|--------|--------|--------|
D|--------|--------|--------|--------|--------|--------|--------|--------|--------|
A|--------|--------|--------|--------|--------|--------|--------|--------|--------|
E|--------|--------|--------|--------|--------|--------|--------|--------|--------|


G|--------|--------|--------|--------|--------|--------|--------|--------|--------|
D|--------|--------|--------|--------|--------|--------|--------|--------|--------|
A|--------|--------|--------|--------|--------|--------|--------|--------|--------|
E|--------|--------|--------|--------|--------|--------|--------|--------|--------|


G|--------|--------|--------|--------|--------|--------|--------|--------|--------|
D|--------|--------|--------|--------|--------|--------|--------|--------|--------|
A|--------|--------|--------|--------|--------|--------|--------|--------|--------|
E|--------|--------|--------|--------|--------|--------|--------|--------|--------|


G|--------|--------|--------|-----------------4--4----|--------|--------|--------|
D|--------|--------|--------|--------------4----------|--------|--------|--------|
A|--------|--------|--------|-------2---2-------------|--------|--------|--------|
E|--------|--------|--------|-------------------------|--------|--------|--------|


G|--------|----------------------------------------|-----------9--9-------9-------9----|
D|--------|-----------------------5--7-------------|--------9--------------------------|
A|--------|-----------7--7--------------5--7-------|-7---7-----------------------------|
E|--------|-0---0--0--------0--0--------------7----|------------------0-------0--------|


G|--------|------------9------------|--------|--------|--------|--------|--------|
D|--------|---------9---------------|--------|--------|--------|--------|--------|
A|--------|------7------------------|--------|--------|--------|--------|--------|
E|--------|---------------0---15----|--------|--------|--------|--------|--------|


G|--------|--------|--------|--------|--------|--------|--------|--------|--------|
D|--------|--------|--------|--------|--------|--------|--------|--------|--------|
A|--------|--------|--------|--------|--------|--------|--------|--------|--------|
E|--------|--------|--------|--------|--------|--------|--------|--------|--------|


G|--------|--------|--------|--------|--------|--------|--------|--------|--------|
D|--------|--------|--------|--------|--------|--------|--------|--------|--------|
A|--------|--------|--------|--------|--------|--------|--------|--------|--------|
E|--------|--------|--------|--------|--------|--------|--------|--------|--------|


G|--------|--------|--------|--------|--------|--------|--------|--------|--------|
D|--------|--------|--------|--------|--------|--------|--------|--------|--------|
A|--------|--------|--------|--------|--------|--------|--------|--------|--------|
E|--------|--------|--------|--------|--------|--------|--------|--------|--------|


G|--------|--------|--------|--------|--------|--------|--------|--------|--------|
D|--------|--------|--------|--------|--------|--------|--------|--------|--------|
A|--------|--------|--------|--------|--------|--------|--------|--------|--------|
E|--------|--------|--------|--------|--------|--------|--------|--------|--------|


G|--------|--------|--------|--------|--------|--------|--------|--------|--------|
D|--------|--------|--------|--------|--------|--------|--------|--------|--------|
A|--------|--------|--------|--------|--------|--------|--------|--------|--------|
E|--------|--------|--------|--------|--------|--------|--------|--------|--------|


G|--------|--------|--------|--------|--------|--------|--------|--------|--------|
D|--------|--------|--------|--------|--------|--------|--------|--------|--------|
A|--------|--------|--------|--------|--------|--------|--------|--------|--------|
E|--------|--------|--------|--------|--------|--------|--------|--------|--------|


G|--------|--------|--------|--------|--------|--------|--------|--------|--------|
D|--------|--------|--------|--------|--------|--------|--------|--------|--------|
A|--------|--------|--------|--------|--------|--------|--------|--------|--------|
E|--------|--------|--------|--------|--------|--------|--------|--------|--------|


G|--------|--------|--------|--------|--------|--------|--------|--------|--------|
D|--------|--------|--------|--------|--------|--------|--------|--------|--------|
A|--------|--------|--------|--------|--------|--------|--------|--------|--------|
E|--------|--------|--------|--------|--------|--------|--------|--------|--------|


G|--------|--------|--------|--------|--------|--------|--------|--------|--------|
D|--------|--------|--------|--------|--------|--------|--------|--------|--------|
A|--------|--------|--------|--------|--------|--------|--------|--------|--------|
E|--------|--------|--------|--------|--------|--------|--------|--------|--------|


G|--------|--------|--------|--------|--------|--------|--------|--------|--------|
D|--------|--------|--------|--------|--------|--------|--------|--------|--------|
A|--------|--------|--------|--------|--------|--------|--------|--------|--------|
E|--------|--------|--------|--------|--------|--------|--------|--------|--------|


G|--------|
D|--------|
A|--------|
E|--------|