Menu:

 

Search:

 

joe satriani - cool 9:

 



Title: Cool #9
Artist: 
Album: Joe Satriani
Author: Joe Satriani


Track 1: Guitar 1

E|-----------------------------------------------|-----------------------------|-----------------------------------------------|
B|-----------------------------------------------|-----------------------------|-----------------------------------------------|
G|-----2-----2--2-----2--2--2--2--2--2--2--2--2--|-----2-----2--2--2--2--------|-----2-----2--2-----2--2--2--2--2--2--2--2--2--|
D|-----1-----1--1-----1--1--1--1--1--1--1--1--1--|-----1-----1--1--1--1--------|-----1-----1--1-----1--1--1--1--1--1--1--1--1--|
A|-----------------------------------------------|-----------------------------|-----------------------------------------------|
E|-----------------------------------------------|-----------------------------|-----------------------------------------------|


E|-----------------------------|-----------------------------------------------|-----------------------------|
B|-----------------------------|-----------------------------------------------|-----------------------------|
G|-----2-----2--2--2--2--------|-----2-----2--2-----2--2--2--2--2--2--2--2--2--|-----2-----2--2--2--2--------|
D|-----1-----1--1--1--1--------|-----1-----1--1-----1--1--1--1--1--1--1--1--1--|-----1-----1--1--1--1--------|
A|-----------------------------|-----------------------------------------------|-----------------------------|
E|-----------------------------|-----------------------------------------------|-----------------------------|


E|-----------------------------------------------|-----------------------------|-----------------------------------------------|
B|-----------------------------------------------|-----------------------------|-----------------------------------------------|
G|-----2-----2--2-----2--2--2--2--2--2--2--2--2--|-----2-----2--2--2--2--------|-----2-----2--2-----2--2--2--2--2--2--2--2--2--|
D|-----1-----1--1-----1--1--1--1--1--1--1--1--1--|-----1-----1--1--1--1--------|-----1-----1--1-----1--1--1--1--1--1--1--1--1--|
A|-----------------------------------------------|-----------------------------|-----------------------------------------------|
E|-----------------------------------------------|-----------------------------|-----------------------------------------------|


E|-----------------------------|-----------------------------------------------|-----------------------------|
B|-----------------------------|-----------------------------------------------|-----------------------------|
G|-----2-----2--2--2--2--------|-----2-----2--2-----2--2--2--2--2--2--2--2--2--|-----2-----2--2--2--2--------|
D|-----1-----1--1--1--1--------|-----1-----1--1-----1--1--1--1--1--1--1--1--1--|-----1-----1--1--1--1--------|
A|-----------------------------|-----------------------------------------------|-----------------------------|
E|-----------------------------|-----------------------------------------------|-----------------------------|


E|-----------------------------------------------|-----------------------------|-----------------------------------------------|
B|-----------------------------------------------|-----------------------------|-----------------------------------------------|
G|-----2-----2--2-----2--2--2--2--2--2--2--2--2--|-----2-----2--2--2--2--------|-----2-----2--2-----2--2--2--2--2--2--2--2--2--|
D|-----1-----1--1-----1--1--1--1--1--1--1--1--1--|-----1-----1--1--1--1--------|-----1-----1--1-----1--1--1--1--1--1--1--1--1--|
A|-----------------------------------------------|-----------------------------|-----------------------------------------------|
E|-----------------------------------------------|-----------------------------|-----------------------------------------------|


E|-----------------------------|-----------------------------------------------|-----------------------------|
B|-----------------------------|-----------------------------------------------|-----------------------------|
G|-----2-----2--2--2--2--------|-----2-----2--2-----2--2--2--2--2--2--2--2--2--|-----2-----2--2--2--2--------|
D|-----1-----1--1--1--1--------|-----1-----1--1-----1--1--1--1--1--1--1--1--1--|-----1-----1--1--1--1--------|
A|-----------------------------|-----------------------------------------------|-----------------------------|
E|-----------------------------|-----------------------------------------------|-----------------------------|


E|-----------------------------------------------|-----------------------------|-----------------------------------------------|
B|-----------------------------------------------|-----------------------------|-----------------------------------------------|
G|-----2-----2--2-----2--2--2--2--2--2--2--2--2--|-----2-----2--2--2--2--------|-----2-----2--2-----2--2--2--2--2--2--2--2--2--|
D|-----1-----1--1-----1--1--1--1--1--1--1--1--1--|-----1-----1--1--1--1--------|-----1-----1--1-----1--1--1--1--1--1--1--1--1--|
A|-----------------------------------------------|-----------------------------|-----------------------------------------------|
E|-----------------------------------------------|-----------------------------|-----------------------------------------------|


E|-----------------------------|-----------------------------------------------|-----------------------------|
B|-----------------------------|-----------------------------------------------|-----------------------------|
G|-----2-----2--2--2--2--------|-----2-----2--2-----2--2--2--2--2--2--2--2--2--|-----2-----2--2--2--2--------|
D|-----1-----1--1--1--1--------|-----1-----1--1-----1--1--1--1--1--1--1--1--1--|-----1-----1--1--1--1--------|
A|-----------------------------|-----------------------------------------------|-----------------------------|
E|-----------------------------|-----------------------------------------------|-----------------------------|


E|-----------------------------------------------|-----------------------------|-----------------------------------------------|
B|-----------------------------------------------|-----------------------------|-----------------------------------------------|
G|-----2-----2--2-----2--2--2--2--2--2--2--2--2--|-----2-----2--2--2--2--------|-----2-----2--2-----2--2--2--2--2--2--2--2--2--|
D|-----1-----1--1-----1--1--1--1--1--1--1--1--1--|-----1-----1--1--1--1--------|-----1-----1--1-----1--1--1--1--1--1--1--1--1--|
A|-----------------------------------------------|-----------------------------|-----------------------------------------------|
E|-----------------------------------------------|-----------------------------|-----------------------------------------------|


E|-----------------------------|-----------------------------------------------|-----------------------------|
B|-----------------------------|-----------------------------------------------|-----------------------------|
G|-----2-----2--2--2--2--------|-----2-----2--2-----2--2--2--2--2--2--2--2--2--|-----2-----2--2--2--2--------|
D|-----1-----1--1--1--1--------|-----1-----1--1-----1--1--1--1--1--1--1--1--1--|-----1-----1--1--1--1--------|
A|-----------------------------|-----------------------------------------------|-----------------------------|
E|-----------------------------|-----------------------------------------------|-----------------------------|


E|-----------------------------------------------|-----------------------------|-----------------------------------------------|
B|-----------------------------------------------|-----------------------------|-----------------------------------------------|
G|-----2-----2--2-----2--2--2--2--2--2--2--2--2--|-----2-----2--2--2--2--------|-----2-----2--2-----2--2--2--2--2--2--2--2--2--|
D|-----1-----1--1-----1--1--1--1--1--1--1--1--1--|-----1-----1--1--1--1--------|-----1-----1--1-----1--1--1--1--1--1--1--1--1--|
A|-----------------------------------------------|-----------------------------|-----------------------------------------------|
E|-----------------------------------------------|-----------------------------|-----------------------------------------------|


E|-----------------------------|-----------------------------------------------|-----------------------------|
B|-----------------------------|-----------------------------------------------|-----------------------------|
G|-----2-----2--2--2--2--------|-----2-----2--2-----2--2--2--2--2--2--2--2--2--|-----2-----2--2--2--2--------|
D|-----1-----1--1--1--1--------|-----1-----1--1-----1--1--1--1--1--1--1--1--1--|-----1-----1--1--1--1--------|
A|-----------------------------|-----------------------------------------------|-----------------------------|
E|-----------------------------|-----------------------------------------------|-----------------------------|


E|-----------------------------------------------|-----------------------------|-----------------------------------------------|
B|-----------------------------------------------|-----------------------------|-----------------------------------------------|
G|-----2-----2--2-----2--2--2--2--2--2--2--2--2--|-----2-----2--2--2--2--------|-----2-----2--2-----2--2--2--2--2--2--2--2--2--|
D|-----1-----1--1-----1--1--1--1--1--1--1--1--1--|-----1-----1--1--1--1--------|-----1-----1--1-----1--1--1--1--1--1--1--1--1--|
A|-----------------------------------------------|-----------------------------|-----------------------------------------------|
E|-----------------------------------------------|-----------------------------|-----------------------------------------------|


E|-----------------------------|--------|--------|--------|--------|-----------------------------------------------|
B|-----------------------------|--------|--------|--------|--------|-----------------------------------------------|
G|-----2-----2--2--2--2--------|--------|--------|--------|--------|-----2-----2--2-----2--2--2--2--2--2--2--2--2--|
D|-----1-----1--1--1--1--------|--------|--------|--------|--------|-----1-----1--1-----1--1--1--1--1--1--1--1--1--|
A|-----------------------------|--------|--------|--------|--------|-----------------------------------------------|
E|-----------------------------|--------|--------|--------|--------|-----------------------------------------------|


E|-----------------------------|-----------------------------------------------|-----------------------------|
B|-----------------------------|-----------------------------------------------|-----------------------------|
G|-----2-----2--2--2--2--------|-----2-----2--2-----2--2--2--2--2--2--2--2--2--|-----2-----2--2--2--2--------|
D|-----1-----1--1--1--1--------|-----1-----1--1-----1--1--1--1--1--1--1--1--1--|-----1-----1--1--1--1--------|
A|-----------------------------|-----------------------------------------------|-----------------------------|
E|-----------------------------|-----------------------------------------------|-----------------------------|


E|-----------------------------------------------|-----------------------------|-----------------------------------------------|
B|-----------------------------------------------|-----------------------------|-----------------------------------------------|
G|-----2-----2--2-----2--2--2--2--2--2--2--2--2--|-----2-----2--2--2--2--------|-----2-----2--2-----2--2--2--2--2--2--2--2--2--|
D|-----1-----1--1-----1--1--1--1--1--1--1--1--1--|-----1-----1--1--1--1--------|-----1-----1--1-----1--1--1--1--1--1--1--1--1--|
A|-----------------------------------------------|-----------------------------|-----------------------------------------------|
E|-----------------------------------------------|-----------------------------|-----------------------------------------------|


E|-----------------------------|-----------------------------------------------|-----------------------------|
B|-----------------------------|-----------------------------------------------|-----------------------------|
G|-----2-----2--2--2--2--------|-----2-----2--2-----2--2--2--2--2--2--2--2--2--|-----2-----2--2--2--2--------|
D|-----1-----1--1--1--1--------|-----1-----1--1-----1--1--1--1--1--1--1--1--1--|-----1-----1--1--1--1--------|
A|-----------------------------|-----------------------------------------------|-----------------------------|
E|-----------------------------|-----------------------------------------------|-----------------------------|


E|-----------------------------------------------|-----------------------------|-----------------------------------------------|
B|-----------------------------------------------|-----------------------------|-----------------------------------------------|
G|-----2-----2--2-----2--2--2--2--2--2--2--2--2--|-----2-----2--2--2--2--------|-----2-----2--2-----2--2--2--2--2--2--2--2--2--|
D|-----1-----1--1-----1--1--1--1--1--1--1--1--1--|-----1-----1--1--1--1--------|-----1-----1--1-----1--1--1--1--1--1--1--1--1--|
A|-----------------------------------------------|-----------------------------|-----------------------------------------------|
E|-----------------------------------------------|-----------------------------|-----------------------------------------------|


E|-----------------------------|-----------------------------------------------|-----------------------------|
B|-----------------------------|-----------------------------------------------|-----------------------------|
G|-----2-----2--2--2--2--------|-----2-----2--2-----2--2--2--2--2--2--2--2--2--|-----2-----2--2--2--2--------|
D|-----1-----1--1--1--1--------|-----1-----1--1-----1--1--1--1--1--1--1--1--1--|-----1-----1--1--1--1--------|
A|-----------------------------|-----------------------------------------------|-----------------------------|
E|-----------------------------|-----------------------------------------------|-----------------------------|


E|--------|--------|--------|--------|--------|--------|--------|-----------------|
B|--------|--------|--------|--------|-4------|-4------|--------|-4---------------|
G|--------|--------|--------|--------|-3------|-3------|-5------|-1---------4-----|
D|--------|--------|--------|--------|-5------|-5------|-6------|-3---------5-----|
A|--------|--------|--------|--------|-3------|-3------|-6------|-3---------5-----|
E|--------|--------|--------|--------|--------|--------|-4------|-1-----3---3-----|


E|--------|--------|--------|--------|--------|--------|--------|--------|-----------------------------------------------|
B|-4------|-4------|--------|--------|--------|--------|--------|--------|-----------------------------------------------|
G|-3------|-3------|--------|--------|--------|--------|--------|--------|-----2-----2--2-----2--2--2--2--2--2--2--2--2--|
D|-5------|-5------|--------|--------|--------|--------|--------|--------|-----1-----1--1-----1--1--1--1--1--1--1--1--1--|
A|-3------|-3------|--------|--------|--------|--------|--------|--------|-----------------------------------------------|
E|--------|--------|--------|--------|--------|--------|--------|--------|-----------------------------------------------|


E|-----------------------------|-----------------------------------------------|-----------------------------|
B|-----------------------------|-----------------------------------------------|-----------------------------|
G|-----2-----2--2--2--2--------|-----2-----2--2-----2--2--2--2--2--2--2--2--2--|-----2-----2--2--2--2--------|
D|-----1-----1--1--1--1--------|-----1-----1--1-----1--1--1--1--1--1--1--1--1--|-----1-----1--1--1--1--------|
A|-----------------------------|-----------------------------------------------|-----------------------------|
E|-----------------------------|-----------------------------------------------|-----------------------------|


E|-----------------------------------------------|-----------------------------|-----------------------------------------------|
B|-----------------------------------------------|-----------------------------|-----------------------------------------------|
G|-----2-----2--2-----2--2--2--2--2--2--2--2--2--|-----2-----2--2--2--2--------|-----2-----2--2-----2--2--2--2--2--2--2--2--2--|
D|-----1-----1--1-----1--1--1--1--1--1--1--1--1--|-----1-----1--1--1--1--------|-----1-----1--1-----1--1--1--1--1--1--1--1--1--|
A|-----------------------------------------------|-----------------------------|-----------------------------------------------|
E|-----------------------------------------------|-----------------------------|-----------------------------------------------|


E|-----------------------------|-----------------------------------------------|-----------------------------|
B|-----------------------------|-----------------------------------------------|-----------------------------|
G|-----2-----2--2--2--2--------|-----2-----2--2-----2--2--2--2--2--2--2--2--2--|-----2-----2--2--2--2--------|
D|-----1-----1--1--1--1--------|-----1-----1--1-----1--1--1--1--1--1--1--1--1--|-----1-----1--1--1--1--------|
A|-----------------------------|-----------------------------------------------|-----------------------------|
E|-----------------------------|-----------------------------------------------|-----------------------------|


E|-----------------------------------------------|-----------------------------|-----------------------------------------------|
B|-----------------------------------------------|-----------------------------|-----------------------------------------------|
G|-----2-----2--2-----2--2--2--2--2--2--2--2--2--|-----2-----2--2--2--2--------|-----2-----2--2-----2--2--2--2--2--2--2--2--2--|
D|-----1-----1--1-----1--1--1--1--1--1--1--1--1--|-----1-----1--1--1--1--------|-----1-----1--1-----1--1--1--1--1--1--1--1--1--|
A|-----------------------------------------------|-----------------------------|-----------------------------------------------|
E|-----------------------------------------------|-----------------------------|-----------------------------------------------|


E|-----------------------------|-----------------------------------------------|-----------------------------|
B|-----------------------------|-----------------------------------------------|-----------------------------|
G|-----2-----2--2--2--2--------|-----2-----2--2-----2--2--2--2--2--2--2--2--2--|-----2-----2--2--2--2--------|
D|-----1-----1--1--1--1--------|-----1-----1--1-----1--1--1--1--1--1--1--1--1--|-----1-----1--1--1--1--------|
A|-----------------------------|-----------------------------------------------|-----------------------------|
E|-----------------------------|-----------------------------------------------|-----------------------------|


E|-----------------------------------------------|-----------------------------|-----------------------------------------------|
B|-----------------------------------------------|-----------------------------|-----------------------------------------------|
G|-----2-----2--2-----2--2--2--2--2--2--2--2--2--|-----2-----2--2--2--2--------|-----2-----2--2-----2--2--2--2--2--2--2--2--2--|
D|-----1-----1--1-----1--1--1--1--1--1--1--1--1--|-----1-----1--1--1--1--------|-----1-----1--1-----1--1--1--1--1--1--1--1--1--|
A|-----------------------------------------------|-----------------------------|-----------------------------------------------|
E|-----------------------------------------------|-----------------------------|-----------------------------------------------|


E|-----------------------------|-----------------------------------------------|-----------------------------|
B|-----------------------------|-----------------------------------------------|-----------------------------|
G|-----2-----2--2--2--2--------|-----2-----2--2-----2--2--2--2--2--2--2--2--2--|-----2-----2--2--2--2--------|
D|-----1-----1--1--1--1--------|-----1-----1--1-----1--1--1--1--1--1--1--1--1--|-----1-----1--1--1--1--------|
A|-----------------------------|-----------------------------------------------|-----------------------------|
E|-----------------------------|-----------------------------------------------|-----------------------------|


E|-----------------------------------------------|-----------------------------|-----------------------------------------------|
B|-----------------------------------------------|-----------------------------|-----------------------------------------------|
G|-----2-----2--2-----2--2--2--2--2--2--2--2--2--|-----2-----2--2--2--2--------|-----2-----2--2-----2--2--2--2--2--2--2--2--2--|
D|-----1-----1--1-----1--1--1--1--1--1--1--1--1--|-----1-----1--1--1--1--------|-----1-----1--1-----1--1--1--1--1--1--1--1--1--|
A|-----------------------------------------------|-----------------------------|-----------------------------------------------|
E|-----------------------------------------------|-----------------------------|-----------------------------------------------|


E|-----------------------------|-----------------------------------------------|-----------------------------|
B|-----------------------------|-----------------------------------------------|-----------------------------|
G|-----2-----2--2--2--2--------|-----2-----2--2-----2--2--2--2--2--2--2--2--2--|-----2-----2--2--2--2--------|
D|-----1-----1--1--1--1--------|-----1-----1--1-----1--1--1--1--1--1--1--1--1--|-----1-----1--1--1--1--------|
A|-----------------------------|-----------------------------------------------|-----------------------------|
E|-----------------------------|-----------------------------------------------|-----------------------------|


E|-----------------------------------------------|-----------------------------|-----------------------------------------------|
B|-----------------------------------------------|-----------------------------|-----------------------------------------------|
G|-----2-----2--2-----2--2--2--2--2--2--2--2--2--|-----2-----2--2--2--2--------|-----2-----2--2-----2--2--2--2--2--2--2--2--2--|
D|-----1-----1--1-----1--1--1--1--1--1--1--1--1--|-----1-----1--1--1--1--------|-----1-----1--1-----1--1--1--1--1--1--1--1--1--|
A|-----------------------------------------------|-----------------------------|-----------------------------------------------|
E|-----------------------------------------------|-----------------------------|-----------------------------------------------|


E|-----------------------------|-----------------------------------------------|-----------------------------|
B|-----------------------------|-----------------------------------------------|-----------------------------|
G|-----2-----2--2--2--2--------|-----2-----2--2-----2--2--2--2--2--2--2--2--2--|-----2-----2--2--2--2--------|
D|-----1-----1--1--1--1--------|-----1-----1--1-----1--1--1--1--1--1--1--1--1--|-----1-----1--1--1--1--------|
A|-----------------------------|-----------------------------------------------|-----------------------------|
E|-----------------------------|-----------------------------------------------|-----------------------------|


E|-----------------------------------------------|-----------------------------|-----------------------------------------------|
B|-----------------------------------------------|-----------------------------|-----------------------------------------------|
G|-----2-----2--2-----2--2--2--2--2--2--2--2--2--|-----2-----2--2--2--2--------|-----2-----2--2-----2--2--2--2--2--2--2--2--2--|
D|-----1-----1--1-----1--1--1--1--1--1--1--1--1--|-----1-----1--1--1--1--------|-----1-----1--1-----1--1--1--1--1--1--1--1--1--|
A|-----------------------------------------------|-----------------------------|-----------------------------------------------|
E|-----------------------------------------------|-----------------------------|-----------------------------------------------|


E|-----------------------------|-----------------------------------------------|-----------------------------|
B|-----------------------------|-----------------------------------------------|-----------------------------|
G|-----2-----2--2--2--2--------|-----2-----2--2-----2--2--2--2--2--2--2--2--2--|-----2-----2--2--2--2--------|
D|-----1-----1--1--1--1--------|-----1-----1--1-----1--1--1--1--1--1--1--1--1--|-----1-----1--1--1--1--------|
A|-----------------------------|-----------------------------------------------|-----------------------------|
E|-----------------------------|-----------------------------------------------|-----------------------------|


E|-----------------------------------------------|-----------------------------|-----------------------------------------------|
B|-----------------------------------------------|-----------------------------|-----------------------------------------------|
G|-----2-----2--2-----2--2--2--2--2--2--2--2--2--|-----2-----2--2--2--2--------|-----2-----2--2-----2--2--2--2--2--2--2--2--2--|
D|-----1-----1--1-----1--1--1--1--1--1--1--1--1--|-----1-----1--1--1--1--------|-----1-----1--1-----1--1--1--1--1--1--1--1--1--|
A|-----------------------------------------------|-----------------------------|-----------------------------------------------|
E|-----------------------------------------------|-----------------------------|-----------------------------------------------|


E|-----------------------------|-----------------------------------------------|-----------------------------|
B|-----------------------------|-----------------------------------------------|-----------------------------|
G|-----2-----2--2--2--2--------|-----2-----2--2-----2--2--2--2--2--2--2--2--2--|-----2-----2--2--2--2--------|
D|-----1-----1--1--1--1--------|-----1-----1--1-----1--1--1--1--1--1--1--1--1--|-----1-----1--1--1--1--------|
A|-----------------------------|-----------------------------------------------|-----------------------------|
E|-----------------------------|-----------------------------------------------|-----------------------------|


E|-----------------------------------------------|-----------------------------|-----------------------------------------------|
B|-----------------------------------------------|-----------------------------|-----------------------------------------------|
G|-----2-----2--2-----2--2--2--2--2--2--2--2--2--|-----2-----2--2--2--2--------|-----2-----2--2-----2--2--2--2--2--2--2--2--2--|
D|-----1-----1--1-----1--1--1--1--1--1--1--1--1--|-----1-----1--1--1--1--------|-----1-----1--1-----1--1--1--1--1--1--1--1--1--|
A|-----------------------------------------------|-----------------------------|-----------------------------------------------|
E|-----------------------------------------------|-----------------------------|-----------------------------------------------|


E|-----------------------------|-----------------------------------------------|-----------------------------|
B|-----------------------------|-----------------------------------------------|-----------------------------|
G|-----2-----2--2--2--2--------|-----2-----2--2-----2--2--2--2--2--2--2--2--2--|-----2-----2--2--2--2--------|
D|-----1-----1--1--1--1--------|-----1-----1--1-----1--1--1--1--1--1--1--1--1--|-----1-----1--1--1--1--------|
A|-----------------------------|-----------------------------------------------|-----------------------------|
E|-----------------------------|-----------------------------------------------|-----------------------------|


E|-----------------------------------------------|-----------------------------|-----------------------------------------------|
B|-----------------------------------------------|-----------------------------|-----------------------------------------------|
G|-----2-----2--2-----2--2--2--2--2--2--2--2--2--|-----2-----2--2--2--2--------|-----2-----2--2-----2--2--2--2--2--2--2--2--2--|
D|-----1-----1--1-----1--1--1--1--1--1--1--1--1--|-----1-----1--1--1--1--------|-----1-----1--1-----1--1--1--1--1--1--1--1--1--|
A|-----------------------------------------------|-----------------------------|-----------------------------------------------|
E|-----------------------------------------------|-----------------------------|-----------------------------------------------|


E|-----------------------------|-----------------------------------------------|-----------------------------|
B|-----------------------------|-----------------------------------------------|-----------------------------|
G|-----2-----2--2--2--2--------|-----2-----2--2-----2--2--2--2--2--2--2--2--2--|-----2-----2--2--2--2--------|
D|-----1-----1--1--1--1--------|-----1-----1--1-----1--1--1--1--1--1--1--1--1--|-----1-----1--1--1--1--------|
A|-----------------------------|-----------------------------------------------|-----------------------------|
E|-----------------------------|-----------------------------------------------|-----------------------------|





Track 2: Guitar II

E|--------|--------|--------|--------|--------|--------|--------|--------------------|
B|--------|--------|--------|--------|--------|--------|--------|--------------------|
G|--------|--------|--------|--------|--------|--------|--------|--------------------|
D|--------|--------|--------|--------|--------|--------|--------|--------------------|
A|--------|--------|--------|--------|--------|--------|--------|--------------------|
E|--------|--------|--------|--------|--------|--------|--------|----------------8---|


E|--------------------------------|-----------------------------------|--------------------------|
B|--------------------------------|-----------------------------------|--------------------------|
G|--------------------------------|-----------------------------------|--------------------------|
D|--------------------------------|-----------------------------------|--------------------------|
A|-6------8------8---8------------|-6---8---8--10-8---8---6-----------|-------6---6---8----6--8--|
E|----------------------------8---|---------------------------8---6---|-8------------------------|


E|------------------------|--------------------------------|-----------------------------------|
B|------------------------|--------------------------------|-----------------------------------|
G|------------------------|--------------------------------|-----------------------------------|
D|------------------------|--------------------------------|-----------------------------------|
A|-8-----6----------------|-6------8------8---8------------|-6---8---8--10-8---8---6-----------|
E|--------------------8---|----------------------------8---|---------------------------8---6---|


E|---------------------------|--------------------|--------------------------------|
B|---------------------------|--------------------|--------------------------------|
G|---------------------------|--------------------|--------------------------------|
D|---------------------------|--------------------|--------------------------------|
A|---------------------------|--------------------|-6------8------8---8------------|
E|-6--8----8---6---6---------|----------------8---|----------------------------8---|


E|-----------------------------------|-------------------------------|---------------------------|
B|-----------------------------------|-------------------------------|---------------------------|
G|-----------------------------------|-------------------------------|---------------------------|
D|-----------------------------------|-------------------------------|---------------------------|
A|-6---8---8--10-8---8---6-----------|-------6---6---8---8--10-8--10-|-10--10---10---------------|
E|---------------------------8---6---|-8-----------------------------|-----------------------8---|


E|--------------------------------|-----------------------------------|---------------------|
B|--------------------------------|-----------------------------------|---------------------|
G|--------------------------------|-----------------------------------|---------------------|
D|--------------------------------|-----------------------------------|---------------------|
A|-6------8------8---8------------|-6---8---8--10-8---8---6-----------|---------------------|
E|----------------------------8---|---------------------------8---6---|-8-----8---8---------|


E|--------|-1------|-1---------------------------|--------|--------|-1------|-1---------------------------|
B|--------|-1------|------1--1-------------------|--------|--------|-1------|------1--1-------------------|
G|--------|-3------|-------------3---3-----------|--------|--------|-3------|-------------3---3-----------|
D|--------|-1------|-----------------------1--1--|--------|--------|-1------|-----------------------1--1--|
A|--------|-3------|-----------------------3--3--|--------|--------|-3------|-----------------------3--3--|
E|--------|--------|-----------------------------|--------|--------|--------|-----------------------------|


E|--------|--------|-----10--10--8-108---8----------------|--------106-8-10-8-6-106-8-6-------------------------------|
B|--------|--------|-------------------11--11108----------|----6-8----------------------106-108-6-4-8---------6-8-108-|
G|--------|--------|--------------------------------------|-----------------------------------------------------------|
D|--------|--------|--------------------------------------|-----------------------------------------------------------|
A|--------|--------|--------------------------------------|-----------------------------------------------------------|
E|--------|--------|--------------------------------------|-----------------------------------------------------------|


E|--------------------------------------------------------1014-10----|----6-106-6--------------------------------------------|
B|-6--6-8-108-6--6-8-108-6---------8-108----------------11--------11-|------------9------------------------------------------|
G|-------------------------107-8-10------107-8-108----12-------------|-0------------7-------------------------5-----5--3--0--|
D|-------------------------------------------------------------------|----------------8--------------------------3-----------|
A|-------------------------------------------------------------------|------------------6---8-6-8-6-5-6----------------------|
E|-------------------------------------------------------------------|-------------------------------------------------------|


E|---------------------------------------------------------------|--------------------------------------------------------------|
B|---------------------------------------------------------------|--------------------------------------------------------------|
G|-0--3--2--2---2--3--2-3-2---2----------------------------------|--------------------------------------------------------------|
D|--------------------------5----5-3-1-3-5-3-1---1-3-5-3-1---1-3-|-5-1------------------------------------------------7-8-108-10|
A|---------------------------------------------5-----------5-----|-----5-1-3-5-3-1--------------------5-6-8-6-5-6-8-10----------|
E|---------------------------------------------------------------|-----------------3--1------3--5--6----------------------------|


E|-----------------8-8---10------8-----11-8--10-|----8--------------------------------------15|
B|---------------8-----------11-----8-----------|-11----8--11-----------------------------16--|
G|-7----8------9--------------------------------|-------------1010-8-10-10-10---10------17----|
D|----------------------------------------------|---------------------------------------------|
A|----------------------------------------------|---------------------------------------------|
E|----------------------------------------------|----------------------------------7----------|


E|-20-15---------1520-15-----------1520-15-----------1520-15-----------15|-20-15-----------1520-15-----------1520-15-----------1520-15------|
B|-------------16----------------16----------------16----------------16--|---------------16----------------16----------------16-------------|
G|-----------17----------0--4--17----------0--4--17----------0--4--17----|-------0--4--17----------0--4--17----------0--4--17---------------|
D|-----------------------------------------------------------------------|--------------------------------------------------------------22--|
A|-----------------------------------------------------------------------|--------------------------------------------------------------22--|
E|-----------------------------------------------------------------------|------------------------------------------------------------------|


E|-20-17-21---------------2016--------16-14-----13-------------12-14----|------------------------------------------------11---|
B|----------17----------16------------------12----15--12-------------12-|-11-------9--------8---------------------------------|
G|-------------20--------------1917-----------14----14---14-13----------|----9--11----8--6-----8---0-------------0---0--------|
D|----------------19-19------------19-----------------------------------|-----------------------------------------------------|
A|----------------------------------------------------------------------|------------------------------------10---------------|
E|----------------------------------------------------------------------|------------------------------5--0-------------------|


E|-11--11--11---11--8-----11-8-----11-|-8-----11-8-----11-8--------8-------------|
B|---------------------8--------8-----|----8--------8--------11-11----8--11-11---|
G|------------------------------------|------------------------------------------|
D|------------------------------------|------------------------------------------|
A|------------------------------------|------------------------------------------|
E|------------------------------------|------------------------------------------|


E|-------------8-----8-----8--8--------118------------|--------------------------------------------|
B|-11---11--11----11----11-------118-11------8--------|--------------------------------------------|
G|-----------------------------------------10--10-108-|-------10--8-----------------------10---10--|
D|----------------------------------------------------|-10-8---------10-8--------------------------|
A|----------------------------------------------------|-------------------108----------------------|
E|----------------------------------------------------|-----------------------1110-----------------|


E|-----------------------------------------------|-----------------------------------------------------------|
B|-11-----11-----11----11----11----11------------|------------------------------------8----------------------|
G|----10-----10-----10----10----10----10-108-----|-10-108-----10-108-----10-108-108-10--108---8-10-108----10-|
D|-------------------------------------------108-|--------108--------108--------------------10---------10----|
A|-----------------------------------------------|-----------------------------------------------------------|
E|-----------------------------------------------|-----------------------------------------------------------|


E|-----------8--------8--------8--------8-------8--------8-----|-------------------------------------------|
B|--------------8--11----8--11----118-----118-----118----------|-------------------------------------------|
G|-108-10-10--------------------------10------10------10----10-|-10-8--------------------------------------|
D|-------------------------------------------------------------|-------10-10-10-7--------------------------|
A|-------------------------------------------------------------|-------------------------------------------|
E|-------------------------------------------------------------|----------------------24---13--0---0---0---|


E|-20----20-----------18-18-|-18--17-17-17--15-15-15--13-13-13--11-11-|-10---11--10--10---------------|
B|--------------------------|-----------------------------------------|---------------------------16--|
G|--------------------------|-----------------------------------------|-------------------10--8-------|
D|--------------------------|-----------------------------------------|-------------------------------|
A|--------------------------|-----------------------------------------|-------------------------------|
E|--------------------------|-----------------------------------------|-------------------------------|


E|--------------------|-15--15-15-13-15-13151310-11--13--13-11131110-11-|-10--8---6---8---6---5---5--6-5-3-5---6-5-3-5--6-5-3-5--|
B|-18-------------8---|-------------------------------------------------|--------------------------------------------------------|
G|--------------------|-------------------------------------------------|--------------------------------------------------------|
D|--------------------|-------------------------------------------------|--------------------------------------------------------|
A|--------------------|-------------------------------------------------|--------------------------------------------------------|
E|--------------------|-------------------------------------------------|--------------------------------------------------------|


E|-5--3--------------------10--8---6---5--5--5-----|-6--8-10108-111011--1510---11----|
B|-------5--10-10--11131011---------------------8--|------------------------13-------|
G|-------------------------------------------------|---------------------------------|
D|-------------------------------------------------|---------------------------------|
A|-------------------------------------------------|---------------------------------|
E|-------------------------------------------------|---------------------------------|


E|-22-----------------|--------|------------------------|------11------13--13--11--13--11--13--|
B|--------------------|--------|------------------13----|-13-----------------------------------|
G|-----17-------------|--------|---------------12----12-|--------------------------------------|
D|-----17-------------|--------|------------------------|--------------------------------------|
A|--------------------|--------|------------------------|--------------------------------------|
E|--------------------|--------|------------------------|--------------------------------------|


E|-13--13----------|-------18----------------|---------------------------------------|
B|-----------------|-----------18--18-16-----|-18-16---------------------------------|
G|-----------------|-------------------------|-------17-17-17---------------------15-|
D|-----------------|-------------------------|------------------------------15-17----|
A|-----------------|-------------------------|---------------------------------------|
E|-----------------|-------------------------|---------------------------------------|


E|---------------------------------------------|-------------------------------------------------|
B|------------16-16----16----16-18-16----------|-------------------------------------------------|
G|-17---------------17----17----------17----17-|-15-17----17-15-17----17-15-17----17-15-17----17-|
D|---------------------------------------------|-------------------------------------------------|
A|---------------------------------------------|-------------------------------------------------|
E|---------------------------------------------|-------------------------------------------------|


E|-------------------------------------------------|---------------------------------------------|
B|-------------------------------------16----18-16-|-----------16----18-16-----------16----18-16-|
G|-15-17----17-15-17----17-15-17-15-17----17-------|-17-15-17-----17-------17-15-17-----17-------|
D|-------------------------------------------------|---------------------------------------------|
A|-------------------------------------------------|---------------------------------------------|
E|-------------------------------------------------|---------------------------------------------|


E|----------------18---------------------------------|---------------------------20---20----|
B|----------16-19----20-19-18----181918--18----------|----------------20--------------------|
G|-17-15-17-------------------19-------20---20-17-20-|----------17--------------------------|
D|---------------------------------------------------|----17--------------------------------|
A|---------------------------------------------------|-15-----------------------------------|
E|---------------------------------------------------|--------------------------------------|


E|-18----------------18----------------------|----------------------------------------------|
B|----20--------19------20-19-18-------------|------------------------------18-16-16-----16-|
G|-------------------------------20-17----17-|-20--20-20-20-20--17----15-17-----------17----|
D|-------------------------------------20----|----------------------------------------------|
A|-------------------------------------------|----------------------------------------------|
E|-------------------------------------------|----------------------------------------------|


E|--------------------------------------|--------|-----------------20-|-20-20----------------|
B|-18-18-18-16-18-16------------15------|--------|--------------------|----------------------|
G|-------------------17-17-16------17---|--------|--------------------|----------------------|
D|--------------------------------------|--------|--------------------|----------------------|
A|--------------------------------------|--------|--------------------|----------------------|
E|--------------------------------------|--------|--------------------|----------------------|


E|--------------------|--------------------------------|-----------------------------------|
B|--------------------|--------------------------------|-----------------------------------|
G|--------------------|--------------------------------|-----------------------------------|
D|--------------------|--------------------------------|-----------------------------------|
A|--------------------|-6------8------8---8------------|-6---8---8--10-8---8---6-----------|
E|----------------8---|----------------------------8---|---------------------------8---6---|


E|--------------------------|------------------------|--------------------------------|
B|--------------------------|------------------------|--------------------------------|
G|--------------------------|------------------------|--------------------------------|
D|--------------------------|------------------------|--------------------------------|
A|-------6---6---8----6--8--|-8-----6----------------|-6------8------8---8------------|
E|-8------------------------|--------------------8---|----------------------------8---|


E|-----------------------------------|---------------------------|--------------------|
B|-----------------------------------|---------------------------|--------------------|
G|-----------------------------------|---------------------------|--------------------|
D|-----------------------------------|---------------------------|--------------------|
A|-6---8---8--10-8---8---6-----------|---------------------------|--------------------|
E|---------------------------8---6---|-6--8----8---6---6---------|----------------8---|


E|--------------------------------|-----------------------------------|-------------------------------|
B|--------------------------------|-----------------------------------|-------------------------------|
G|--------------------------------|-----------------------------------|-------------------------------|
D|--------------------------------|-----------------------------------|-------------------------------|
A|-6------8------8---8------------|-6---8---8--10-8---8---6-----------|-------6---6---8---8--10-8--10-|
E|----------------------------8---|---------------------------8---6---|-8-----------------------------|


E|---------------------------|--------------------------------|-----------------------------------|
B|---------------------------|--------------------------------|-----------------------------------|
G|---------------------------|--------------------------------|-----------------------------------|
D|---------------------------|--------------------------------|-----------------------------------|
A|-10--10---10---------------|-6------8------8---8------------|-6---8---8--10-8---8---6-----------|
E|-----------------------8---|----------------------------8---|---------------------------8---6---|


E|---------------------|--------|-1------|-1---------------------------|--------|--------------------|
B|---------------------|--------|-1------|------1--1-------------------|--------|--------------------|
G|---------------------|--------|-3------|-------------3---3-----------|--------|--------------------|
D|---------------------|--------|-1------|-----------------------1--1--|--------|--------------------|
A|---------------------|--------|-3------|-----------------------3--3--|--------|-----------24-------|
E|-8-----8---8---------|--------|--------|-----------------------------|--------|-----------24-------|


E|-1------|-1---------------------------|--------------------|-------------------------|
B|-1------|------1--1-------------------|--------------------|-------------------------|
G|-3------|-------------3---3-----------|-----------------0--|-2-----2--2--------------|
D|-1------|-----------------------1--1--|-----------------0--|-2-----2--2--------------|
A|-3------|-----------------------3--3--|--------------------|-----------------24------|
E|--------|-----------------------------|--------------------|-------------12--24------|


E|-1------|-1---------------------------|------------------------|------------------------|
B|-1------|------1--1-------------------|------------------------|------------------------|
G|-3------|-------------3---3-----------|------------------------|------------------------|
D|-1------|-----------------------1--1--|------------------------|------------------------|
A|-3------|-----------------------3--3--|-------24-22----24------|-------24-22----24------|
E|--------|-----------------------------|------------------------|------------------------|


E|-1------|-1---------------------------|--------|--------|-10-8--10-8--10-8--108-108-108-108-10--------101110111011108-|
B|-1------|------1--1-------------------|--------|--------|-------------------------------------------------------------|
G|-3------|-------------3---3-----------|--------|--------|-------------------------------------------------------------|
D|-1------|-----------------------1--1--|--------|--------|-------------------------------------------------------------|
A|-3------|-----------------------3--3--|--------|--------|-------------------------------------------------------------|
E|--------|-----------------------------|--------|--------|-------------------------------------------------------------|


E|-8--10-------------11108--10-8-----8-----|-------------------------------------------------------|
B|--------------------------------11----11-|-10-8--10-8--10--8--------10--8--------108-108-----108-|
G|-----------------------------------------|--------------------10-8---------10-8----------108-----|
D|-----------------------------------------|-------------------------------------------------------|
A|-----------------------------------------|-------------------------------------------------------|
E|-----------------------------------------|-------------------------------------------------------|


E|-----------------------------------------------------------------|--------------------------------|
B|-------8-108-108-108-----108-108-----108---8---------------------|--------------------------------|
G|-108-10--------------108---------108-----10----8--10-8-----------|--------------------------------|
D|---------------------------------------------10---------10-8--7--|-8----10--5---3---5---7---8--7--|
A|-----------------------------------------------------------------|--------------------------------|
E|-----------------------------------------------------------------|--------------------------------|


E|------------------------------------|------------------------------------------|
B|------------------------------------|------------------------------------------|
G|------------------------------------|------------------------------------------|
D|-3--5--3--1--1----------------------|------------------------------5---7---8---|
A|------------------------------5--5--|-5--5--5--5--5----3---5---6---------------|
E|------------------------------------|------------------------------------------|


E|-----------------------------8---10-----8--10-11-|-13--13--13-13-13--13--13-13-13--13--|
B|-------------11----8--10-11----------11----------|-------------------------------------|
G|-----7---8------10-------------------------------|-------------------------------------|
D|-10----------------------------------------------|-------------------------------------|
A|-------------------------------------------------|-------------------------------------|
E|-------------------------------------------------|-------------------------------------|


E|-13-13---13---15-15--15--15-13-------|----13----16----13---16-----------|-18-18---18--18--------------18-|
B|-------------------------------16-13-|-15----15----15-------------------|--------------------------------|
G|-------------------------------------|----------------------------------|--------------------------------|
D|-------------------------------------|----------------------------------|--------------------------------|
A|-------------------------------------|----------------------------------|--------------------------------|
E|-------------------------------------|----------------------------------|--------------------------------|


E|-18---18----20--20----------18-18-|-18---18-16--------------------------|-------------------------------------------------------------|
B|----------------------------------|------------18-18--18--16-------18---|-18-18-16----18-18-18-16----18-18-18-16----18-18-18-16----18-|
G|----------------------------------|-------------------------------------|----------17-------------17-------------17-------------17----|
D|----------------------------------|-------------------------------------|-------------------------------------------------------------|
A|----------------------------------|-------------------------------------|-------------------------------------------------------------|
E|----------------------------------|-------------------------------------|-------------------------------------------------------------|


E|-------------------------------------------------------------15-|-15--15-----------------15-18----18----18----|
B|-18-18-16----18-18-18-16----18-18-18-16----18-18-18-16----------|---------16-13----13-16----------------------|
G|----------17-------------17-------------17-------------17-15----|---------------15----------------------------|
D|----------------------------------------------------------------|---------------------------------------------|
A|----------------------------------------------------------------|---------------------------------------------|
E|----------------------------------------------------------------|---------------------------------------------|


E|-17-18-17-15---------------------15-17-15----------15----|---------------------------------------|
B|-------------18------------16-------------18-16-18----18-|-16-18-16-------15---------------------|
G|------------------------17----17-------------------------|----------17-15----17---17-15----------|
D|---------------------------------------------------------|---------------------------------------|
A|---------------------------------------------------------|---------------------------------------|
E|---------------------------------------------------------|---------------------------------------|


E|-----------------------18-----------------------------------------|--------------------------------------------|
B|-2018161516181615151516-------------------------------------------|--------------------------------------------|
G|-----------------------------15-1214150-108-7-8-108-7---7-8-108-7-|---7-8-108-7---7-8-108-7-8-8---7-------5----|
D|------------------------------------------------------10----------|-10----------10-----------------------------|
A|------------------------------------------------------------------|--------------------------------------------|
E|------------------------------------------------------------------|--------------------------------------------|


E|--------------------|
B|--------------------|
G|-5-----5---7--------|
D|--------------------|
A|---------------12---|
E|--------------------|





Track 3: Untitled

G|-----------------------------------|------------------------------|---------------------------------|
D|-----------------------------------|------------------------------|---------------------------------|
A|---------5---6---6--6--6---6---6---|---------5---6---6---9----8---|---------5---6---6---6---6---6---|
E|-8---8-----------------------------|-8---8------------------------|-8---8---------------------------|


G|------------------------------|---------------------------------|------------------------------|
D|------------------------------|---------------------------------|------------------------------|
A|---------5---6---6---9----10--|---------5---6---6---6---6---6---|---------5---6---6---9----8---|
E|-8---8------------------------|-8---8---------------------------|-8---8------------------------|


G|------------------------------|-----------------|---------------------------------|
D|------------------------------|-----------------|---------------------------------|
A|---------5---6---6---6---13---|-3---------------|---------5---6---6---6---6---6---|
E|-8---8------------------------|-----------------|-8---8---------------------------|


G|------------------------------|---------------------------------|------------------------------|
D|------------------------------|---------------------------------|------------------------------|
A|---------5---6---6---9----8---|---------5---6---6---6---6---6---|---------5---6---6---9----8---|
E|-8---8------------------------|-8---8---------------------------|-8---8------------------------|


G|---------------------------------|------------------------------|---------------------8---7---6---|
D|---------------------------------|------------------------------|---------------------------------|
A|---------5---6---6---6---6---6---|---------5---6---6---9----10--|---------5---6---6---------------|
E|-8---8---------------------------|-8---8------------------------|-8---8---------------------------|


G|---------------------------------|---------------------------------|------------------------------|
D|-10--9---8---7-------------------|---------------------------------|------------------------------|
A|-----------------11--10--9---8---|---------5---6---6---6---6---6---|---------5---6---6---9----10--|
E|---------------------------------|-8---8---------------------------|-8---8------------------------|


G|-------------------------------------|--------------------------------|-----------------------------------|
D|-------------------------------10-8--|-10-8---------------------------|-------------------------8-----8---|
A|---------5---6---6---6---6--10-------|-----------5---6---6---9----10--|---------5---6---6---10-----10-----|
E|-8---8-------------------------------|-------8------------------------|-8---8-----------------------------|


G|-----------------|-----------------------------------|-----------------|---------------------------------|
D|-10--------------|-------------------------8-----8---|-10--------------|---------------------------------|
A|-----------------|---------5---6---6---10-----10-----|-----------------|---------5---6---6---6---6---6---|
E|-----------------|-8---8-----------------------------|-----------------|-8---8---------------------------|


G|------------------------------|---------------------------------|------------------------------|
D|------------------------------|---------------------------------|------------------------------|
A|---------5---6---6---9----8---|---------5---6---6---6---6---6---|---------5---6---6---9----10--|
E|-8---8------------------------|-8---8---------------------------|-8---8------------------------|


G|---------------------------------|------------------------------|---------------------------------|
D|---------------------------------|------------------------------|---------------------------------|
A|---------5---6---6---6---6---6---|---------5---6---6---9----8---|---------5---6---6---6---6---6---|
E|-8---8---------------------------|-8---8------------------------|-8---8---------------------------|


G|------------------------------|---------------------------------|------------------------------|
D|------------------------------|---------------------------------|------------------------------|
A|---------5---6---6---9----10--|---------5---6---6---6---6---6---|---------5---6---6---9----8---|
E|-8---8------------------------|-8---8---------------------------|-8---8------------------------|


G|---------------------------------|------------------------------|---------------------------------|
D|---------------------------------|------------------------------|---------------------------------|
A|---------5---6---6---6---6---6---|---------5---6---6---9----10--|---------5---6---6---6---6---6---|
E|-8---8---------------------------|-8---8------------------------|-8---8---------------------------|


G|------------------------------|---------------------------------|------------------------------|
D|------------------------------|---------------------------------|------------------------------|
A|---------5---6---6---9----8---|---------5---6---6---6---6---6---|---------5---6---6---9----10--|
E|-8---8------------------------|-8---8---------------------------|-8---8------------------------|


G|-----------------|--------|--------|-----------------|---------------------------------|
D|-10--------------|--------|--------|-----------------|---------------------------------|
A|-----------------|--------|--------|------------20---|---------5---6---6---6---6---6---|
E|-----------------|--------|--------|-----------------|-8---8---------------------------|


G|------------------------------|---------------------------------|------------------------------------8--|
D|------------------------------|---------------------------------|------------------------------8--10----|
A|---------5---6---6---9----8---|---------5---6---6---6---6---6---|---------5---6---6---8--9--10----------|
E|-8---8------------------------|-8---8---------------------------|-8---8---------------------------------|


G|---------------------------------|------------------------------|---------------------------------|
D|---------------------------------|------------------------------|---------------------------------|
A|---------5---6---6---6---6---6---|---------5---6---6---9----8---|---------5---6---6---6---6---6---|
E|-8---8---------------------------|-8---8------------------------|-8---8---------------------------|


G|---------------10-9--8---------------|---------------------------------|------------------------------|
D|-10-10-9---8-------------10----------|---------------------------------|------------------------------|
A|-----------------------------8---13--|---------5---6---6---6---6---6---|---------5---6---6---9----8---|
E|-------------------------------------|-8---8---------------------------|-8---8------------------------|


G|---------------------------------|------------------------------|---------------------------------|
D|---------------------------------|------------------------------|---------------------------------|
A|---------5---6---6---6---6---6---|---------5---6---6---9----10--|---------5---6---6---6---6---6---|
E|-8---8---------------------------|-8---8------------------------|-8---8---------------------------|


G|------------------------------|---------------------------------|---------------------------------------|
D|------------------------------|---------------------------------|--------------------------------8--10--|
A|---------5---6---6---9----8---|---------5---6---6---6---6---6---|-----------5---6---6---8--9--10--------|
E|-8---8------------------------|-8---8---------------------------|-8---8--8------------------------------|


G|-----------------|-------------|--------|-----------------|-------7-----|-8-----10----|
D|-10----9-----9---|-8-----7-----|-6------|-----------------|-10----9-----|-8-----7-----|
A|-----------------|-------------|--------|-8----9----10----|-------------|-------------|
E|-----------------|-------------|--------|-----------------|-------------|-------------|


G|-8------|-----------------------------|---------------5---3--5-----5--3--5-----5--|
D|-6------|-----------------------------|-------------------------------------------|
A|--------|-8----8--8---9--10---10------|-------------------------------------------|
E|--------|--------------------------7--|-8--7--8-----------------------------------|


G|-----------5--3--5-----5--3--5--------|-------5---5---------|---------------------|
D|--------------------------------5-----|---------------------|------6----5---------|
A|-3----3----------------------------3--|-----------------6---|-8-------------------|
E|--------------------------------------|-4-------------------|----------------3----|


G|-----8------------10-------|------12---12-----------|--------|---------------------13--12--------|
D|-----10--------------------|------------------------|--------|-------------12--15----------------|
A|---------------------------|-------------------10---|-11-----|-11--11--14------------------------|
E|-8--------8---10-------10--|-11------------11-------|--------|------------------------------15---|


G|-------------|-----------15-15-15-17---|-------------|-----24-----22-----24--24--21---|
D|-10----------|-------------------------|-10----------|--------------------------------|
A|-------------|-------------------------|-------------|--------------------------------|
E|-------------|-------------------------|-------------|--------------------------------|


G|---------------------------------|------------------------------|---------------------------------|
D|---------------------------------|------------------------------|---------------------------------|
A|---------5---6---6---6---6---6---|---------5---6---6---9----8---|---------5---6---6---6---6---6---|
E|-8---8---------------------------|-8---8------------------------|-8---8---------------------------|


G|------------------------------|---------------------8---7---6---|---------------------------------|
D|------------------------------|---------------------------------|-10--9---8---7-------------------|
A|---------5---6---6---9----10--|---------5---6---6---------------|-----------------11--10--9---8---|
E|-8---8------------------------|-8---8---------------------------|---------------------------------|


G|---------------------------------|------------------------------|-------------------------------------|
D|---------------------------------|------------------------------|-------------------------------10-8--|
A|---------5---6---6---6---6---6---|---------5---6---6---9----10--|---------5---6---6---6---6--10-------|
E|-8---8---------------------------|-8---8------------------------|-8---8-------------------------------|


G|--------------------------------|-----------------------------------|-----------------|
D|-10-8---------------------------|-------------------------8-----8---|-10--------------|
A|-----------5---6---6---9----10--|---------5---6---6---10-----10-----|-----------------|
E|-------8------------------------|-8---8-----------------------------|-----------------|


G|-----------------------------------|-----------------|---------------------------------|
D|-------------------------8-----8---|-10--------------|---------------------------------|
A|---------5---6---6---10-----10-----|-----------------|-----5---6---6---6---6---6-------|
E|-8---8-----------------------------|-----------------|-8---------------------------8---|


G|------------------------------|---------------------------------------|---------------------------------|
D|------------------------------|---------------------------------------|---------------------------------|
A|-----5---6---6---9----8-------|-----5---6---6---6---6-----------------|---------7---6---5---4-----------|
E|-8------------------------8---|-8----------------------6--8--6--8--8--|-7---6-------------------5---8---|


G|---------------------------------|---------------------------------|---------------------------------|
D|---------------------------------|---------------------------------|---------------------------------|
A|-----5---6---6---6---6---6-------|-----5---6---6---9---9---10------|-----5---6---6---6---6---6-------|
E|-8---------------------------8---|-8---------------------------8---|-8---------------------------8---|


G|---------------------------------|-----------------------------3---|---------------------------------|
D|---------------------------------|-------------------------3-------|-----6-------5---3---------------|
A|-----5---6---6---9---9---10------|-----5---6---6-------3-----------|-6-------5-----------4-----------|
E|-8---------------------------8---|-8---------------3---------------|-------------------------7---8---|


G|---------------------------------|------------------------------|---------------------------------|
D|---------------------------------|------------------------------|---------------------------------|
A|-----5---6---6---6---6---6-------|-----5---6---6---9----8-------|-----5---6---6---6---6---6-------|
E|-8---------------------------8---|-8------------------------8---|-8---------------------------8---|


G|------------------------------|---------------------------------|---------------------------------|
D|------------------------------|-----------------------------10--|-9---8---7-----------------------|
A|-----5---6---6---9----10------|-----5---6---6---6---6---6-------|-------------11--10--9---8-------|
E|-8------------------------8---|-8-------------------------------|-----------------------------8---|


G|---------------------------------|------------------------------|---------------------------------|
D|---------------------------------|------------------------------|---------------------------------|
A|-----5---6---6---6---6---6-------|-----5---6---6---9----8-------|-----5---6---6---6---6---6-------|
E|-8---------------------------8---|-8------------------------8---|-8---------------------------8---|


G|---------------------------------|------------------------------|---------------------------------|
D|---------------------------------|------------------------------|-----------------------------10--|
A|-----5---6---6---6---6---6-------|-----5---6---6---9----10------|-----5---6---6---6---6---6-------|
E|-8---------------------------8---|-8------------------------8---|-8-------------------------------|


G|---------------------------------|---------------------------------|-----------------------------------|
D|-9---8---7-----------------------|---------------------------------|-----------------------------------|
A|-------------11--10--9---8-------|-----5---6---6---6---6---6-------|-----5---6---6---8---9---9--10-10--|
E|-----------------------------8---|-8---------------------------8---|-8---------------------------------|


G|--------------------------------|---------------------------------|------------------------------|
D|--------------------------------|---------------------------------|------------------------------|
A|-11--12--13-14-14-15---20-------|-----5---6---6---6---6---6-------|-----5---6---6---9----8-------|
E|----------------------------8---|-8---------------------------8---|-8------------------------8---|


G|---------------------------------|------------------------------|---------------------------------|
D|---------------------------------|------------------------------|-----------------------------10--|
A|-----5---6---6---6---6---6-------|-----5---6---6---9----10------|-----5---6---6---6---6---6-------|
E|-8---------------------------8---|-8------------------------8---|-8-------------------------------|


G|---------------------------------|---------------------------------|---------------------------------|
D|-9---8---7-----------------------|---------------------------------|---------------------------------|
A|-------------11--10--9---8-------|-----5---6---6---6---6---6-------|-----5---6---6---6---6---6-------|
E|-----------------------------8---|-8---------------------------8---|-8---------------------------8---|


G|------------------------------|---------------------------------|------------------------------|
D|------------------------------|---------------------------------|------------------------------|
A|-----5---6---6---9----8-------|-----5---6---6---6---6---6-------|-----5---6---6---9----10------|
E|-8------------------------8---|-8---------------------------8---|-8------------------------8---|


G|---------------------------------|--------|--------|
D|---------------------------------|--------|--------|
A|-----5---6---6---6---6---6-------|--------|--------|
E|-8-------------------------------|--------|--------|