Menu:

 

Search:

 

joe satriani - clouds race across the sky:

 



Title: Clouds Race Across The Sky  
Artist: 
Album: Engines Of Creations
Author: Joe Satriani


Track 1: Clean 1

E|-------------------------------7---------------|-------------------7---------------------------|
B|-------------------7--------7------------------|-------7--------7------------------------7-----|
G|-------9--------9--------9---------------9-----|----9--------9---------------9--------9--------|
D|----7--------7--------7---------------7--------|-7--------7---------------7--------7--------7--|
A|----------10--------------------------------10-|--------------------------------9--------------|
E|-8---------------------------------8-----------|-----------------------7-----------------------|


E|-------7---------------------------------7---|-------------------------------7---------------|
B|----7------------------------7--------7------|-------------------7--------7------------------|
G|-9---------------9--------9--------9---------|-------9--------9--------9---------------9-----|
D|--------------7--------7--------7------------|----7--------7--------7---------------7--------|
A|--------------------9------------------------|----------10--------------------------------10-|
E|-----------7---------------------------------|-8---------------------------------8-----------|


E|-------------------7---------------------------|-------7---------------------------------7---|
B|-------7--------7------------------------7-----|----7------------------------7--------7------|
G|----9--------9---------------9--------9--------|-9---------------9--------9--------9---------|
D|-7--------7---------------7--------7--------7--|--------------7--------7--------7------------|
A|--------------------------------9--------------|--------------------9------------------------|
E|-----------------------7-----------------------|-----------7---------------------------------|


E|-------------------------------7---------------|-------------------7---------------------------|
B|-------------------7--------7------------------|-------7--------7------------------------7-----|
G|-------9--------9--------9---------------9-----|----9--------9---------------9--------9--------|
D|----7--------7--------7---------------7--------|-7--------7---------------7--------7--------7--|
A|----------10--------------------------------10-|--------------------------------9--------------|
E|-8---------------------------------8-----------|-----------------------7-----------------------|


E|-------7---7------|-------------------------------7---------------|-------------------7---------------------------|
B|----7-------------|-------------------7--------7------------------|-------7--------7------------------------7-----|
G|-9----------------|-------9--------9--------9---------------9-----|----9--------9---------------9--------9--------|
D|------------------|----7--------7--------7---------------7--------|-7--------7---------------7--------7--------7--|
A|------------------|----------10--------------------------------10-|--------------------------------9--------------|
E|-----------7------|-8---------------------------------8-----------|-----------------------7-----------------------|


E|-------7---------------------------------7---|-------------------------------7---------------|
B|----7------------------------7--------7------|-------------------7--------7------------------|
G|-9---------------9--------9--------9---------|-------9--------9--------9---------------9-----|
D|--------------7--------7--------7------------|----7--------7--------7---------------7--------|
A|--------------------9------------------------|----------10--------------------------------10-|
E|-----------7---------------------------------|-8---------------------------------8-----------|


E|-------------------7---------------------------|-------7---------------------------------7---|
B|-------7--------7------------------------7-----|----7------------------------7--------7------|
G|----9--------9---------------9--------9--------|-9---------------9--------9--------9---------|
D|-7--------7---------------7--------7--------7--|--------------7--------7--------7------------|
A|--------------------------------9--------------|--------------------9------------------------|
E|-----------------------7-----------------------|-----------7---------------------------------|


E|-------------------------------7---------------|-------------------7---------------------------|
B|-------------------7--------7------------------|-------7--------7------------------------7-----|
G|-------9--------9--------9---------------9-----|----9--------9---------------9--------9--------|
D|----7--------7--------7---------------7--------|-7--------7---------------7--------7--------7--|
A|----------10--------------------------------10-|--------------------------------9--------------|
E|-8---------------------------------8-----------|-----------------------7-----------------------|


E|-------7---------------------------------7---|-------------------------------7---------------|
B|----7------------------------7--------7------|-------------------7--------7------------------|
G|-9---------------9--------9--------9---------|-------9--------9--------9---------------9-----|
D|--------------7--------7--------7------------|----7--------7--------7---------------7--------|
A|--------------------9------------------------|----------10--------------------------------10-|
E|-----------7---------------------------------|-8---------------------------------8-----------|


E|-------------------7---------------------------|-------7---------------------------------7---|
B|-------7--------7------------------------7-----|----7------------------------7--------7------|
G|----9--------9---------------9--------9--------|-9---------------9--------9--------9---------|
D|-7--------7---------------7--------7--------7--|--------------7--------7--------7------------|
A|--------------------------------9--------------|--------------------9------------------------|
E|-----------------------7-----------------------|-----------7---------------------------------|


E|-------------------------------5---------------|-------------------5---------------------------|
B|-------------------5--------5------------------|-------5--------5------------------------7-----|
G|-------8--------8--------8---------------8-----|----8--------8---------------9--------9--------|
D|----7--------7--------7---------------7--------|-7--------7---------------7--------7--------7--|
A|----------7---------------------------------7--|--------------------------------10-------------|
E|-5---------------------------------5-----------|-----------------------8-----------------------|


E|-------7---------------------------------7---|-------------------------------0---------------|
B|----7------------------------7--------7------|-------------------0--------0------------------|
G|-9---------------9--------9--------9---------|-------3--------3--------3---------------3-----|
D|--------------7--------7--------7------------|----4--------4--------4---------------4--------|
A|--------------------10-----------------------|----------2---------------------------------2--|
E|-----------8---------------------------------|-0---------------------------------0-----------|


E|-------------------0---------------------------|-------7---------------------------------7---|
B|-------0--------0------------------------7-----|----7------------------------7--------7------|
G|----3--------3---------------9--------9--------|-9---------------9--------9--------9---------|
D|-4--------4---------------7--------7--------7--|--------------7--------7--------7------------|
A|--------------------------------10-------------|--------------------10-----------------------|
E|-----------------------8-----------------------|-----------8---------------------------------|


E|-------------------------------5---------------|-------------------5---------------------------|
B|-------------------5--------5------------------|-------5--------5------------------------7-----|
G|-------5--------5--------5---------------5-----|----5--------5---------------9--------9--------|
D|----9--------9--------9---------------9--------|-9--------9---------------7--------7--------7--|
A|----------7---------------------------------7--|--------------------------------10-------------|
E|-5---------------------------------5-----------|-----------------------8-----------------------|


E|-------7---------------------------------7---|----------7-----------7------------------------|
B|----7------------------------7--------7------|----------------8--------8---------------------|
G|-9---------------9--------9--------9---------|----11-------------11-------11-----------11----|
D|--------------7--------7--------7------------|-------9-----------------------9------14-------|
A|--------------------10-----------------------|-7-----------7------------------------------12-|
E|-----------8---------------------------------|-----------------------------------10----------|


E|---------------------19----|-------------|-------------------------------7---------------|
B|----------------0----17----|------0------|-------------------7--------7------------------|
G|-------11----11------------|-------------|-------9--------9--------9---------------9-----|
D|----14----14---------------|-------------|----7--------7--------7---------------7--------|
A|---------------------------|-------------|----------10--------------------------------10-|
E|-10------------------------|-------------|-8---------------------------------8-----------|


E|-------------------7---------------------------|-------7---------------------------------7---|
B|-------7--------7------------------------7-----|----7------------------------7--------7------|
G|----9--------9---------------9--------9--------|-9---------------9--------9--------9---------|
D|-7--------7---------------7--------7--------7--|--------------7--------7--------7------------|
A|--------------------------------9--------------|--------------------9------------------------|
E|-----------------------7-----------------------|-----------7---------------------------------|


E|-------------------------------7---------------|-------------------7---------------------------|
B|-------------------7--------7------------------|-------7--------7------------------------7-----|
G|-------9--------9--------9---------------9-----|----9--------9---------------9--------9--------|
D|----7--------7--------7---------------7--------|-7--------7---------------7--------7--------7--|
A|----------10--------------------------------10-|--------------------------------9--------------|
E|-8---------------------------------8-----------|-----------------------7-----------------------|


E|-------7---------------------------------7---|-------------------------------7---------------|
B|----7------------------------7--------7------|-------------------7--------7------------------|
G|-9---------------9--------9--------9---------|-------9--------9--------9---------------9-----|
D|--------------7--------7--------7------------|----7--------7--------7---------------7--------|
A|--------------------9------------------------|----------10--------------------------------10-|
E|-----------7---------------------------------|-8---------------------------------8-----------|


E|-------------------7---------------------------|-------7---------------------------------7---|
B|-------7--------7------------------------7-----|----7------------------------7--------7------|
G|----9--------9---------------9--------9--------|-9---------------9--------9--------9---------|
D|-7--------7---------------7--------7--------7--|--------------7--------7--------7------------|
A|--------------------------------9--------------|--------------------9------------------------|
E|-----------------------7-----------------------|-----------7---------------------------------|


E|-------------------------------7---------------|-------------------7---------------------------|
B|-------------------7--------7------------------|-------7--------7------------------------7-----|
G|-------9--------9--------9---------------9-----|----9--------9---------------9--------9--------|
D|----7--------7--------7---------------7--------|-7--------7---------------7--------7--------7--|
A|----------10--------------------------------10-|--------------------------------9--------------|
E|-8---------------------------------8-----------|-----------------------7-----------------------|


E|-------7---------------------------------7---|-------------------------------5---------------|
B|----7------------------------7--------7------|-------------------5--------5------------------|
G|-9---------------9--------9--------9---------|-------8--------8--------8---------------8-----|
D|--------------7--------7--------7------------|----7--------7--------7---------------7--------|
A|--------------------9------------------------|----------7---------------------------------7--|
E|-----------7---------------------------------|-5---------------------------------5-----------|


E|-------------------5---------------------------|-------7---------------------------------7---|
B|-------5--------5------------------------7-----|----7------------------------7--------7------|
G|----8--------8---------------9--------9--------|-9---------------9--------9--------9---------|
D|-7--------7---------------7--------7--------7--|--------------7--------7--------7------------|
A|--------------------------------10-------------|--------------------10-----------------------|
E|-----------------------8-----------------------|-----------8---------------------------------|


E|-------------------------------0---------------|-------------------0---------------------------|
B|-------------------0--------0------------------|-------0--------0------------------------7-----|
G|-------3--------3--------3---------------3-----|----3--------3---------------9--------9--------|
D|----4--------4--------4---------------4--------|-4--------4---------------7--------7--------7--|
A|----------2---------------------------------2--|--------------------------------10-------------|
E|-0---------------------------------0-----------|-----------------------8-----------------------|


E|-------7---------------------------------7---|-------------------------------5---------------|
B|----7------------------------7--------7------|-------------------5--------5------------------|
G|-9---------------9--------9--------9---------|-------5--------5--------5---------------5-----|
D|--------------7--------7--------7------------|----9--------9--------9---------------9--------|
A|--------------------10-----------------------|----------7---------------------------------7--|
E|-----------8---------------------------------|-5---------------------------------5-----------|


E|-------------------5---------------------------|-------7---------------------------------7---|
B|-------5--------5------------------------7-----|----7------------------------7--------7------|
G|----5--------5---------------9--------9--------|-9---------------9--------9--------9---------|
D|-9--------9---------------7--------7--------7--|--------------7--------7--------7------------|
A|--------------------------------10-------------|--------------------10-----------------------|
E|-----------------------8-----------------------|-----------8---------------------------------|


E|----------7-----------7------------------------|---------------------------|--------|
B|----------------8--------8---------------------|----------------0----------|--------|
G|----11-------------11-------11-----------11----|-------11----11------------|--------|
D|-------9-----------------------9------14-------|----14----14---------------|--------|
A|-7-----------7------------------------------12-|---------------------------|--------|
E|-----------------------------------10----------|-10------------------------|--------|


E|--------|--------|--------|--------|--------|--------|--------|--------|--------|
B|--------|--------|--------|--------|--------|--------|--------|--------|--------|
G|--------|--------|--------|--------|--------|--------|--------|--------|--------|
D|--------|--------|--------|--------|--------|--------|--------|--------|--------|
A|--------|--------|--------|--------|--------|--------|--------|--------|--------|
E|--------|--------|--------|--------|--------|--------|--------|--------|--------|


E|--------|--------|--------|--------|--------|--------|--------|--------|--------|
B|--------|--------|--------|--------|--------|--------|--------|--------|--------|
G|--------|--------|--------|--------|--------|--------|--------|--------|--------|
D|--------|--------|--------|--------|--------|--------|--------|--------|--------|
A|--------|--------|--------|--------|--------|--------|--------|--------|--------|
E|--------|--------|--------|--------|--------|--------|--------|--------|--------|


E|--------|--------|--------|--------|--------|--------|--------|--------|--------|
B|--------|--------|--------|--------|--------|--------|--------|--------|--------|
G|--------|--------|--------|--------|--------|--------|--------|--------|--------|
D|--------|--------|--------|--------|--------|--------|--------|--------|--------|
A|--------|--------|--------|--------|--------|--------|--------|--------|--------|
E|--------|--------|--------|--------|--------|--------|--------|--------|--------|


E|--------|--------|--------|--------|--------|--------|--------|--------|--------|
B|--------|--------|--------|--------|--------|--------|--------|--------|--------|
G|--------|--------|--------|--------|--------|--------|--------|--------|--------|
D|--------|--------|--------|--------|--------|--------|--------|--------|--------|
A|--------|--------|--------|--------|--------|--------|--------|--------|--------|
E|--------|--------|--------|--------|--------|--------|--------|--------|--------|


E|--------|--------|--------|--------|--------|--------|--------|--------|--------|
B|--------|--------|--------|--------|--------|--------|--------|--------|--------|
G|--------|--------|--------|--------|--------|--------|--------|--------|--------|
D|--------|--------|--------|--------|--------|--------|--------|--------|--------|
A|--------|--------|--------|--------|--------|--------|--------|--------|--------|
E|--------|--------|--------|--------|--------|--------|--------|--------|--------|


E|--------|--------|--------|--------|--------|--------|--------|--------|------------------------------------7---|
B|--------|--------|--------|--------|--------|--------|--------|--------|------------------------7--------7------|
G|--------|--------|--------|--------|--------|--------|--------|--------|------------9--------9--------9---------|
D|--------|--------|--------|--------|--------|--------|--------|--------|---------7--------7--------7------------|
A|--------|--------|--------|--------|--------|--------|--------|--------|---------------10-----------------------|
E|--------|--------|--------|--------|--------|--------|--------|--------|------8---------------------------------|


E|-------------------------------7---------------|-------------------7---------------------------|
B|-------------------7--------7------------------|-------7--------7------------------------7-----|
G|-------9--------9--------9---------------9-----|----9--------9---------------9--------9--------|
D|----7--------7--------7---------------7--------|-7--------7---------------7--------7--------7--|
A|----------10--------------------------------9--|--------------------------------9--------------|
E|-8---------------------------------7-----------|-----------------------7-----------------------|


E|-------7---------------------------------7---|-------------------------------7---------------|
B|----7------------------------7--------7------|-------------------7--------7------------------|
G|-9---------------9--------9--------9---------|-------9--------9--------9---------------9-----|
D|--------------7--------7--------7------------|----7--------7--------7---------------7--------|
A|--------------------10-----------------------|----------10--------------------------------9--|
E|-----------8---------------------------------|-8---------------------------------7-----------|


E|-------------------7---------------------------|-------7---------------------------------7---|
B|-------7--------7------------------------7-----|----7------------------------7--------7------|
G|----9--------9---------------9--------9--------|-9---------------9--------9--------9---------|
D|-7--------7---------------7--------7--------7--|--------------7--------7--------7------------|
A|--------------------------------9--------------|--------------------10-----------------------|
E|-----------------------7-----------------------|-----------8---------------------------------|


E|-------------------------------7---------------|-------------------7---------------------------|
B|-------------------7--------7------------------|-------7--------7------------------------7-----|
G|-------9--------9--------9---------------9-----|----9--------9---------------9--------9--------|
D|----7--------7--------7---------------7--------|-7--------7---------------7--------7--------7--|
A|----------10--------------------------------9--|--------------------------------9--------------|
E|-8---------------------------------7-----------|-----------------------7-----------------------|


E|-------7---------------------------------7---|-------------------------------7---------------|
B|----7------------------------7--------7------|-------------------7--------7------------------|
G|-9---------------9--------9--------9---------|-------9--------9--------9---------------9-----|
D|--------------7--------7--------7------------|----7--------7--------7---------------7--------|
A|--------------------10-----------------------|----------10--------------------------------9--|
E|-----------8---------------------------------|-8---------------------------------7-----------|


E|-------------------7---------------------------|-------7---------------------------------7---|
B|-------7--------7------------------------7-----|----7------------------------7--------7------|
G|----9--------9---------------9--------9--------|-9---------------9--------9--------9---------|
D|-7--------7---------------7--------7--------7--|--------------7--------7--------7------------|
A|--------------------------------9--------------|--------------------10-----------------------|
E|-----------------------7-----------------------|-----------8---------------------------------|


E|-------------------------------7---------------|-------------------7---------------------------|
B|-------------------7--------7------------------|-------7--------7------------------------7-----|
G|-------9--------9--------9---------------9-----|----9--------9---------------9--------9--------|
D|----7--------7--------7---------------7--------|-7--------7---------------7--------7--------7--|
A|----------10--------------------------------9--|--------------------------------9--------------|
E|-8---------------------------------7-----------|-----------------------7-----------------------|


E|-------7---------------------------------7---|-------------------------------7---------------|
B|----7------------------------7--------7------|-------------------7--------7------------------|
G|-9---------------9--------9--------9---------|-------9--------9--------9---------------9-----|
D|--------------7--------7--------7------------|----7--------7--------7---------------7--------|
A|--------------------10-----------------------|----------10--------------------------------9--|
E|-----------8---------------------------------|-8---------------------------------7-----------|


E|-------------------7---------------------------|-------7---------------------------------7---|
B|-------7--------7------------------------7-----|----7------------------------7--------7------|
G|----9--------9---------------9--------9--------|-9---------------9--------9--------9---------|
D|-7--------7---------------7--------7--------7--|--------------7--------7--------7------------|
A|--------------------------------10-------------|--------------------10-----------------------|
E|-----------------------8-----------------------|-----------8---------------------------------|


E|-------------------------------7--------|-------------|-------------|-------------|
B|-------------------7--------7-----------|-------------|-------------|-------------|
G|-------9--------9--------9--------------|-------------|-------------|-------------|
D|----7--------7--------7-----------------|-------------|-------------|-------------|
A|----------9-----------------------------|-------------|-------------|-------------|
E|-7--------------------------------------|-------------|-------------|-------------|


E|-------------|-------------|-------------|-------------|--------|
B|-------------|-------------|-------------|-------------|--------|
G|-------------|-------------|-------------|-------------|--------|
D|-------------|-------------|-------------|-------------|--------|
A|-------------|-------------|-------------|-------------|--------|
E|-------------|-------------|-------------|-------------|--------|





Track 2: Clean 

E|--------|--------|--------|-----------------------------------------------|-----------------------------------------------|
B|--------|--------|--------|-----------------------------------------------|-----------------------------------------------|
G|--------|--------|--------|-----------------------------------------------|-----------------------------------------------|
D|--------|--------|--------|-7--7--7--7--7--7--7--7--7---7--7--7--7--7--7--|-7--7--7--7--7---7--7--7--7--7--7--7--7--7--7--|
A|--------|--------|--------|-----------------------------------------------|-----------------------------------------------|
E|--------|--------|--------|-----------------------------------------------|-----------------------------------------------|


E|---------------------------------------------|-----------------------------------------------|
B|---------------------------------------------|-----------------------------------------------|
G|---------------------------------------------|-----------------------------------------------|
D|-7---7--7--7--7--7--7--7--7--7--7--7---7--7--|-7--7--7--7--7--7--7--7--7---7--7--7--7--7--7--|
A|---------------------------------------------|-----------------------------------------------|
E|---------------------------------------------|-----------------------------------------------|


E|-----------------------------|--------|--------|--------|--------|--------|--------|
B|-----------------------------|--------|--------|--------|--------|--------|--------|
G|-----------------------------|--------|--------|--------|--------|--------|--------|
D|-7--7--7--7--7---7--7--------|--------|--------|--------|--------|--------|--------|
A|-----------------------------|--------|--------|--------|--------|--------|--------|
E|-----------------------------|--------|--------|--------|--------|--------|--------|


E|--------|--------|--------|--------|--------|--------|--------|--------|--------|
B|--------|--------|--------|--------|--------|--------|--------|--------|--------|
G|--------|--------|--------|--------|--------|--------|--------|--------|--------|
D|--------|--------|--------|--------|--------|--------|--------|--------|--------|
A|--------|--------|--------|--------|--------|--------|--------|--------|--------|
E|--------|--------|--------|--------|--------|--------|--------|--------|--------|


E|--------|--------|--------|--------|--------|--------|--------|--------|--------|
B|--------|--------|--------|--------|--------|--------|--------|--------|--------|
G|--------|--------|--------|--------|--------|--------|--------|--------|--------|
D|--------|--------|--------|--------|--------|--------|--------|--------|--------|
A|--------|--------|--------|--------|--------|--------|--------|--------|--------|
E|--------|--------|--------|--------|--------|--------|--------|--------|--------|


E|--------|--------|--------|--------|--------|--------|--------|--------|--------|
B|--------|--------|--------|--------|--------|--------|--------|--------|--------|
G|--------|--------|--------|--------|--------|--------|--------|--------|--------|
D|--------|--------|--------|--------|--------|--------|--------|--------|--------|
A|--------|--------|--------|--------|--------|--------|--------|--------|--------|
E|--------|--------|--------|--------|--------|--------|--------|--------|--------|


E|--------|--------|--------|--------|--------|--------|--------|--------|--------|
B|--------|--------|--------|--------|--------|--------|--------|--------|--------|
G|--------|--------|--------|--------|--------|--------|--------|--------|--------|
D|--------|--------|--------|--------|--------|--------|--------|--------|--------|
A|--------|--------|--------|--------|--------|--------|--------|--------|--------|
E|--------|--------|--------|--------|--------|--------|--------|--------|--------|


E|--------|--------|--------|--------|--------|--------|--------|--------|--------|
B|--------|--------|--------|--------|--------|--------|--------|--------|--------|
G|--------|--------|--------|--------|--------|--------|--------|--------|--------|
D|--------|--------|--------|--------|--------|--------|--------|--------|--------|
A|--------|--------|--------|--------|--------|--------|--------|--------|--------|
E|--------|--------|--------|--------|--------|--------|--------|--------|--------|


E|--------|--------|--------|--------|--------|--------|--------|--------|--------|
B|--------|--------|--------|--------|--------|--------|--------|--------|--------|
G|--------|--------|--------|--------|--------|--------|--------|--------|--------|
D|--------|--------|--------|--------|--------|--------|--------|--------|--------|
A|--------|--------|--------|--------|--------|--------|--------|--------|--------|
E|--------|--------|--------|--------|--------|--------|--------|--------|--------|


E|--------|--------|--------|--------|--------|--------|--------|--------|--------|
B|--------|--------|--------|--------|--------|--------|--------|--------|--------|
G|--------|--------|--------|--------|--------|--------|--------|--------|--------|
D|--------|--------|--------|--------|--------|--------|--------|--------|--------|
A|--------|--------|--------|--------|--------|--------|--------|--------|--------|
E|--------|--------|--------|--------|--------|--------|--------|--------|--------|


E|--------|--------|--------|--------|--------|--------|--------|--------|--------|
B|--------|--------|--------|--------|--------|--------|--------|--------|--------|
G|--------|--------|--------|--------|--------|--------|--------|--------|--------|
D|--------|--------|--------|--------|--------|--------|--------|--------|--------|
A|--------|--------|--------|--------|--------|--------|--------|--------|--------|
E|--------|--------|--------|--------|--------|--------|--------|--------|--------|


E|--------|--------|--------|--------|--------|--------|--------|--------|--------|
B|--------|--------|--------|--------|--------|--------|--------|--------|--------|
G|--------|--------|--------|--------|--------|--------|--------|--------|--------|
D|--------|--------|--------|--------|--------|--------|--------|--------|--------|
A|--------|--------|--------|--------|--------|--------|--------|--------|--------|
E|--------|--------|--------|--------|--------|--------|--------|--------|--------|


E|--------|--------|--------|--------|--------|--------|--------|--------|--------|
B|--------|--------|--------|--------|--------|--------|--------|--------|--------|
G|--------|--------|--------|--------|--------|--------|--------|--------|--------|
D|--------|--------|--------|--------|--------|--------|--------|--------|--------|
A|--------|--------|--------|--------|--------|--------|--------|--------|--------|
E|--------|--------|--------|--------|--------|--------|--------|--------|--------|


E|--------|--------|--------|--------|--------|--------|--------|--------|--------|
B|--------|--------|--------|--------|--------|--------|--------|--------|--------|
G|--------|--------|--------|--------|--------|--------|--------|--------|--------|
D|--------|--------|--------|--------|--------|--------|--------|--------|--------|
A|--------|--------|--------|--------|--------|--------|--------|--------|--------|
E|--------|--------|--------|--------|--------|--------|--------|--------|--------|


E|--------|--------|--------|--------|--------|--------|--------|--------|--------|
B|--------|--------|--------|--------|--------|--------|--------|--------|--------|
G|--------|--------|--------|--------|--------|--------|--------|--------|--------|
D|--------|--------|--------|--------|--------|--------|--------|--------|--------|
A|--------|--------|--------|--------|--------|--------|--------|--------|--------|
E|--------|--------|--------|--------|--------|--------|--------|--------|--------|


E|--------|--------|--------|--------|--------|--------|--------|--------|--------|
B|--------|--------|--------|--------|--------|--------|--------|--------|--------|
G|--------|--------|--------|--------|--------|--------|--------|--------|--------|
D|--------|--------|--------|--------|--------|--------|--------|--------|--------|
A|--------|--------|--------|--------|--------|--------|--------|--------|--------|
E|--------|--------|--------|--------|--------|--------|--------|--------|--------|


E|--------|--------|--------|--------|--------|--------|--------|
B|--------|--------|--------|--------|--------|--------|--------|
G|--------|--------|--------|--------|--------|--------|--------|
D|--------|--------|--------|--------|--------|--------|--------|
A|--------|--------|--------|--------|--------|--------|--------|
E|--------|--------|--------|--------|--------|--------|--------|





Track 3: Dist

E|--------|--------|--------|--------|--------|--------|--------|--------|--------|
B|--------|--------|--------|--------|--------|--------|--------|--------|--------|
G|--------|--------|--------|--------|--------|--------|--------|--------|--------|
D|--------|--------|--------|--------|--------|--------|--------|--------|--------|
A|--------|--------|--------|--------|--------|--------|--------|--------|--------|
E|--------|--------|--------|--------|--------|--------|--------|--------|--------|


E|----------------------------------|-----------------------------|--------------------|
B|----------------------------------|-----------------------------|--------------------|
G|----------9--7--9---7---9--11--12-|---------------11-9--11--9---|-11---11------------|
D|----------------------------------|-----------------------------|-----------9--9-----|
A|----------------------------------|-----------------------------|--------------------|
E|----------------------------------|-----------------------------|--------------------|


E|-------------------------------------|----------------------|-------------|----------------------------------|
B|-------------------------------------|----------------12----|-------------|----------------------------------|
G|-------------9--7--9---7---9--11--12-|----------11-9--------|------11-----|----------9--7--9---7---9--11--12-|
D|-9-----------------------------------|----------------------|-------------|----------------------------------|
A|-------------------------------------|----------------------|-------------|----------------------------------|
E|-------------------------------------|----------------------|-------------|----------------------------------|


E|-----------------------------|--------------------|-------------------------------------|
B|-----------------------------|--------------------|-------------------------------------|
G|---------------11-9--11--9---|-11---11------------|-------------9--7--9---7---9--11--12-|
D|-----------------------------|-----------9--9-----|-9-----------------------------------|
A|-----------------------------|--------------------|-------------------------------------|
E|-----------------------------|--------------------|-------------------------------------|


E|-----------------------------|---------------------|-------------|--------------------|
B|----------------12---12-12---|------12----12-------|-------------|--------------------|
G|----------11-9---------------|---------------------|-8------8----|------8---9---9-----|
D|-----------------------------|---------------------|-------------|--------------------|
A|-----------------------------|---------------------|-------------|--------------------|
E|-----------------------------|---------------------|-------------|--------------------|


E|--------------------|-------------|-----------------------|--------------------|
B|--------------------|-11-----11---|---------11--12--12----|------12----12--12--|
G|------9-----9-------|-------------|-----------------------|--------------------|
D|--------------------|-------------|-----------------------|--------------------|
A|--------------------|-------------|-----------------------|--------------------|
E|--------------------|-------------|-----------------------|--------------------|


E|-------12------10-------|--------------------10--|-----------------------|-15---15--------14---|
B|-13--------12------10---|----------10--12--------|-10--12--8-----5-------|---------------------|
G|------------------------|------12----------------|-----------------------|---------------------|
D|------------------------|------------------------|-----------------------|---------------------|
A|------------------------|------------------------|-----------------------|---------------------|
E|------------------------|------------------------|-----------------------|---------------------|


E|-14--------------|--------|--------|--------|--------|--------|--------|--------|
B|-----------------|--------|--------|--------|--------|--------|--------|--------|
G|-----------------|--------|--------|--------|--------|--------|--------|--------|
D|-----------------|--------|--------|--------|--------|--------|--------|--------|
A|-----------------|--------|--------|--------|--------|--------|--------|--------|
E|-----------------|--------|--------|--------|--------|--------|--------|--------|


E|--------|--------|--------|--------|--------|--------|-------------|--------------------|
B|--------|--------|--------|--------|--------|--------|-------------|--------------------|
G|--------|--------|--------|--------|--------|--------|-8------8----|------8---9---9-----|
D|--------|--------|--------|--------|--------|--------|-------------|--------------------|
A|--------|--------|--------|--------|--------|--------|-------------|--------------------|
E|--------|--------|--------|--------|--------|--------|-------------|--------------------|


E|--------------------|-------------|-----------------------|--------------------|
B|--------------------|-11-----11---|---------11--12--12----|------12----12--12--|
G|------9-----9-------|-------------|-----------------------|--------------------|
D|--------------------|-------------|-----------------------|--------------------|
A|--------------------|-------------|-----------------------|--------------------|
E|--------------------|-------------|-----------------------|--------------------|


E|-------12------10-------|--------------------10--|-----------------------|-15---15--------14---|
B|-13--------12------10---|----------10--12--------|-10--12--8-----5-------|---------------------|
G|------------------------|------12----------------|-----------------------|---------------------|
D|------------------------|------------------------|-----------------------|---------------------|
A|------------------------|------------------------|-----------------------|---------------------|
E|------------------------|------------------------|-----------------------|---------------------|


E|-14--------19----|------19-----|---------------------|--------------------|--------------------|
B|-----------17----|------17-----|---------------------|--------------------|--------------------|
G|-----------------|-------------|-9----9----11---7----|-7------------------|--------------------|
D|-----------------|-------------|---------------------|----------------9---|-9----9---9---7-----|
A|-----------------|-------------|---------------------|--------------------|--------------------|
E|-----------------|-------------|---------------------|--------------------|--------------------|


E|-----------------------------|--------------------------|-----------------------------|
B|-----------------------------|--------------------------|-----------------------------|
G|-----------------------------|--------------------------|-----------------------------|
D|-----------------7---9--9----|------9---7---------------|-----------------------------|
A|-----------9--9--------------|-------------10-9---------|----7--7---7--------------0--|
E|-----------------------------|--------------------------|-----------------------------|


E|---------------------------------------|-----------------------------|-----------------------------|
B|---------------------------------------|-----------------------------|-----------------------------|
G|-------------------------4--5--7---9---|-9---9--7--------------------|------------------------7----|
D|---------2--4---5--5--4----------------|--------------------12--14---|-12-11---------12------------|
A|-2---3---------------------------------|-----------------------------|-----------------------------|
E|---------------------------------------|-----------------------------|-----------------------------|


E|----------------------------------|---------------------------|-------------|----------14----------------12--------14-------|
B|-7---5----------------------------|---------------------------|-------------|-0--12----------0-----10-10-----0--12----0--15-|
G|----------7---7--5--4---4---------|---------------------------|-------------|-----------------------------------------------|
D|----------------------------7--5--|-5---4---------------------|-------------|-----------------------------------------------|
A|----------------------------------|---------7---5---3---2-----|-------------|-----------------------------------------------|
E|----------------------------------|---------------------------|-------------|-----------------------------------------------|


E|-17-------14-14-----------12-------14-------17-|-17-------14-14-------12-12-------14-------17----|
B|----0--12-------0---10-10----0--12----0--15----|----0--12-------0--10-------0--12----0--15----0--|
G|-----------------------------------------------|-------------------------------------------------|
D|-----------------------------------------------|-------------------------------------------------|
A|-----------------------------------------------|-------------------------------------------------|
E|-----------------------------------------------|-------------------------------------------------|


E|----14-------12-------14-14-------17-17-------14-|-------12--------------17-------19-19--------|
B|-12----0--12----0--12-------0--15-------0--12----|-0--10----0--12-----15----0--17-------0--15--|
G|-------------------------------------------------|-----------------11--------------------------|
D|-------------------------------------------------|---------------------------------------------|
A|-------------------------------------------------|---------------------------------------------|
E|-------------------------------------------------|---------------------------------------------|


E|-17--------14-------12-------14-------17--------|----------14-----------------------------------|
B|----0-1212----0--12----0--12----0--15----0--10--|-0--12-15----0-----10-12-12-0-----10-12--0-----|
G|------------------------------------------------|----------------9--------------9------------9--|
D|------------------------------------------------|-----------------------------------------------|
A|------------------------------------------------|-----------------------------------------------|
E|------------------------------------------------|-----------------------------------------------|


E|------------------------------10-10----------|-12-----------14-----------17-------19-------|
B|-10-12--0--0------12-0-----12-------0-----15-|----0------17-----0--0--15----0--17----0--15-|
G|--------------9---------11-------------14----|--------16-----------------------------------|
D|---------------------------------------------|---------------------------------------------|
A|---------------------------------------------|---------------------------------------------|
E|---------------------------------------------|---------------------------------------------|


E|----17-------19-------17-------14-------12-------|-10-------7--5-----7--------5--------7--------5--|
B|-19----15-------17-0-----15-0-----12-0-----10-0--|----7--0--------5-----5--0-----3--0-----5--0-----|
G|-------------------------------------------------|-------------------------------------------------|
D|-------------------------------------------------|-------------------------------------------------|
A|-------------------------------------------------|-------------------------------------------------|
E|-------------------------------------------------|-------------------------------------------------|


E|-------7--------10-------7--------10-------12----|----14-----17-------14-----12-------12-------|
B|-3--0-----5--0-----7--0-----5--0-----7--0-----10-|-0-----12-----15-------12-----10-------10----|
G|-------------------------------------------------|---------------------------------------------|
D|-------------------------------------------------|---------------------------------------------|
A|-------------------------------------------------|---------------------------------------------|
E|-------------------------------------------------|---------------------------------------------|


E|---------------------------------------------|------------------------------------------|
B|-12-------12-------10------------------------|-------------10----12----10---------------|
G|----11-------11-------9-----11------------9--|-------11-------9-----11----9--11---------|
D|-------------------------------9-------------|-7--------9-----------------------9-------|
A|---------------------------------------------|------------------------------------------|
E|---------------------------------------------|------------------------------------------|


E|-------------------------------------------|------------------------------------12----14-|
B|----10----12----10-------------------------|----------10-10------12-------10-------------|
G|-------9-----11----9--11-------9--------11-|-11---------------------11-------------------|
D|-------------------------9--7--------------|----9------------9---------------------------|
A|-------------------------------------------|---------------------------------------------|
E|-------------------------------------------|---------------------------------------------|


E|-------------------------------------------------|----------------------------------|
B|-12-10-12----------10----------------------------|----------------------------------|
G|----------11-9--------9-----11-------9-----------|----------------------------------|
D|-------------------------------9--7--------9-----|-------7--9--9---7--------9--9----|
A|----------------------------------------7-----7--|-5--5-----------------------------|
E|-------------------------------------------------|----------------------------------|


E|-------------|--------12107-------------------------------------|-----------------------------------1210|
B|-------------|---------------108-5---5--------------------------|---------------------------------------|
G|-------------|--------------------------7-5-4-------------------|-2-4-5-7-5-4-5-7-9---------------------|
D|-------9-----|-9-------------------------------5-4-2---2--4--5--|---------------------------------------|
A|-------------|--------------------------------------------------|---------------------------------------|
E|-------------|--------------------------------------------------|---------------------------------------|


E|-7-----------------------------------------------------|------------------------------------|
B|------108-5--8--7-5------------------------------------|------------------------------------|
G|--------------------7-5-4-5-7-5-4----------------------|-----------------------------2---4--|
D|----------------------------------7-5-4-7-5-4-2--------|-------------2--2--4---5--5---------|
A|------------------------------------------------5-3-2--|---------3--------------------------|
E|-------------------------------------------------------|------------------------------------|


E|-------------|-------------|------------------------------------|---------------------------------------------|
B|-------------|-------------|------------------------------------|---------------------------------------------|
G|-4------4----|-------4-----|------14-14-14-14-14-14-11----------|----141414-14-14-11----------141414-16-16-16-|
D|-------------|-------------|------------------------------------|---------------------------------------------|
A|-------------|-------------|------------------------------------|---------------------------------------------|
E|-------------|-------------|------------------------------------|---------------------------------------------|


E|-----------------------------------|-------------------------------------------|
B|-----------------------------------|-------------------------------------------|
G|-16-16-16-16-16-16-16-11-11--------|------14-14-14-14-14-14-12-12-11-11-9--9---|
D|-----------------------------------|-------------------------------------------|
A|-----------------------------------|-------------------------------------------|
E|-----------------------------------|-------------------------------------------|


E|----------------------------------|----------------------------------------|---------------------------------------|
B|----------------------------------|----------------------------------------|---------------------------------------|
G|-9-----------------12-12-11-11-9--|-9--7--7--7--7--7--7--7--7--9---11-11---|------14-14-12-12-11-11-9--9---9---11--|
D|----------------------------------|----------------------------------------|---------------------------------------|
A|----------------------------------|----------------------------------------|---------------------------------------|
E|----------------------------------|----------------------------------------|---------------------------------------|


E|-----------------------------------|---------------------------------------------|
B|-----------------------------------|---------------------------------------------|
G|--------------12-12-12-12-11-11-9--|-9--7--7-----9--7--9--11-9--11-9--11-11------|
D|-----------------------------------|---------------------------------------------|
A|-----------------------------------|---------------------------------------------|
E|-----------------------------------|---------------------------------------------|


E|----------------------------------------------|---------------------------------------|
B|----------------------------------------------|---------------------------------------|
G|------141414-16-16-12-12-14-14-14-14-12-12-11-|-11-9---9--9------------12-12-11-11-9--|
D|----------------------------------------------|---------------------------------------|
A|----------------------------------------------|---------------------------------------|
E|----------------------------------------------|---------------------------------------|


E|----------------------------------------|---------------------------------------------|
B|----------------------------------------|------15-15----------------------------------|
G|-9--7--7--7--7--7--7--7--7--9---11-11---|------------16-16-14-14-12-12-11-11-9--9--7--|
D|----------------------------------------|---------------------------------------------|
A|----------------------------------------|---------------------------------------------|
E|----------------------------------------|---------------------------------------------|


E|-------------------------------|----------------------------------------|----------------------------------|
B|----------------17-17-17-17----|----------15-15-------------------------|------0----------10--------12--0--|
G|-9--------------------------16-|-16-14-14-------------------16-16--16---|----------------------------------|
D|-------------------------------|----------------16-16-14-14-------------|----------------------------------|
A|-------------------------------|----------------------------------------|----------------------------------|
E|-------------------------------|----------------------------------------|----------------------------------|


E|-------------------------------------------|---------------------------------------------|
B|-0--17-17-0--0--10---0---12-12-------0--10-|----0--0--12--0--0--17-0--0--0--10--0--0--12-|
G|-------------------------------11-9--------|---------------------------------------------|
D|-------------------------------------------|---------------------------------------------|
A|-------------------------------------------|---------------------------------------------|
E|-------------------------------------------|---------------------------------------------|


E|---------------------------------------------|---------------------------------------------|
B|----0--0--17-0--0--0--10--0--0--12--0--0--17-|-0--0--0--10--0--0--12--0--0--17-0--0--0--10-|
G|---------------------------------------------|---------------------------------------------|
D|---------------------------------------------|---------------------------------------------|
A|---------------------------------------------|---------------------------------------------|
E|---------------------------------------------|---------------------------------------------|


E|-----------------------------------------------|--------------------|--------|--------|
B|----0--0--12--0--0--17-0--10-0--15-17-0--10-0--|-12-10-0--8---------|--------|--------|
G|-----------------------------------------------|--------------------|--------|--------|
D|-----------------------------------------------|--------------------|--------|--------|
A|-----------------------------------------------|--------------------|--------|--------|
E|-----------------------------------------------|--------------------|--------|--------|


E|--------|--------|--------|--------|--------|--------|--------|--------|--------|
B|--------|--------|--------|--------|--------|--------|--------|--------|--------|
G|--------|--------|--------|--------|--------|--------|--------|--------|--------|
D|--------|--------|--------|--------|--------|--------|--------|--------|--------|
A|--------|--------|--------|--------|--------|--------|--------|--------|--------|
E|--------|--------|--------|--------|--------|--------|--------|--------|--------|


E|--------|--------|--------|--------|--------|--------|--------|--------|--------|
B|--------|--------|--------|--------|--------|--------|--------|--------|--------|
G|--------|--------|--------|--------|--------|--------|--------|--------|--------|
D|--------|--------|--------|--------|--------|--------|--------|--------|--------|
A|--------|--------|--------|--------|--------|--------|--------|--------|--------|
E|--------|--------|--------|--------|--------|--------|--------|--------|--------|


E|--------|
B|--------|
G|--------|
D|--------|
A|--------|
E|--------|





Track 4: Dist 2

E|--------|--------|--------|--------|--------|--------|--------|--------|--------|
B|--------|--------|--------|--------|--------|--------|--------|--------|--------|
G|--------|--------|--------|--------|--------|--------|--------|--------|--------|
D|--------|--------|--------|--------|--------|--------|--------|--------|--------|
A|--------|--------|--------|--------|--------|--------|--------|--------|--------|
E|--------|--------|--------|--------|--------|--------|--------|--------|--------|


E|--------|--------|--------|--------|--------|--------|--------|--------|--------|
B|--------|--------|--------|--------|--------|--------|--------|--------|--------|
G|--------|--------|--------|--------|--------|--------|--------|--------|--------|
D|--------|--------|--------|--------|--------|--------|--------|--------|--------|
A|--------|--------|--------|--------|--------|--------|--------|--------|--------|
E|--------|--------|--------|--------|--------|--------|--------|--------|--------|


E|--------|--------|--------|--------|--------|--------|--------|--------|--------|
B|--------|--------|--------|--------|--------|--------|--------|--------|--------|
G|--------|--------|--------|--------|--------|--------|--------|--------|--------|
D|--------|--------|--------|--------|--------|--------|--------|--------|--------|
A|--------|--------|--------|--------|--------|--------|--------|--------|--------|
E|--------|--------|--------|--------|--------|--------|--------|--------|--------|


E|--------|--------|--------|-15---15--------17---|-17--------------|--------|--------|
B|--------|--------|--------|---------------------|-----------------|--------|--------|
G|--------|--------|--------|---------------------|-----------------|--------|--------|
D|--------|--------|--------|---------------------|-----------------|--------|--------|
A|--------|--------|--------|---------------------|-----------------|--------|--------|
E|--------|--------|--------|---------------------|-----------------|--------|--------|


E|--------|--------|--------|--------|--------|--------|--------|--------|--------|
B|--------|--------|--------|--------|--------|--------|--------|--------|--------|
G|--------|--------|--------|--------|--------|--------|--------|--------|--------|
D|--------|--------|--------|--------|--------|--------|--------|--------|--------|
A|--------|--------|--------|--------|--------|--------|--------|--------|--------|
E|--------|--------|--------|--------|--------|--------|--------|--------|--------|


E|--------|--------|--------|--------|--------|--------|--------|--------|--------|
B|--------|--------|--------|--------|--------|--------|--------|--------|--------|
G|--------|--------|--------|--------|--------|--------|--------|--------|--------|
D|--------|--------|--------|--------|--------|--------|--------|--------|--------|
A|--------|--------|--------|--------|--------|--------|--------|--------|--------|
E|--------|--------|--------|--------|--------|--------|--------|--------|--------|


E|--------|--------|-15---15--------17---|-17--------------------------------|---------------------------------------------|
B|--------|--------|---------------------|-----------------------------------|---------------------------------------------|
G|--------|--------|---------------------|-----------------------------------|---------------------------------------------|
D|--------|--------|---------------------|-----------7--7--7--7--7--7--7--7--|-7---7--7--7--7--7--7--7--7--7--7--7---7--7--|
A|--------|--------|---------------------|-----------------------------------|---------------------------------------------|
E|--------|--------|---------------------|-----------------------------------|---------------------------------------------|


E|--------|--------|--------|--------|--------|--------|--------|--------|--------|
B|--------|--------|--------|--------|--------|--------|--------|--------|--------|
G|--------|--------|--------|--------|--------|--------|--------|--------|--------|
D|--------|--------|--------|--------|--------|--------|--------|--------|--------|
A|--------|--------|--------|--------|--------|--------|--------|--------|--------|
E|--------|--------|--------|--------|--------|--------|--------|--------|--------|


E|--------|---------------------------|-----------------------------------------|-------------------------------------------|
B|--------|---------------------------|-----------------------------------------|-------------------------------------------|
G|--------|---------------------------|-----------------------------------------|-------------------------------------------|
D|--------|-------2--4--4--4-------4--|-4--4------2--4--4--4-------4--4--4------|-4--5--5--4-------4--4--4------4--5--5--4--|
A|--------|-------2-----2--2-------2--|-2--2------2-----2--2-------2--2--2------|-3-----3--3-------3--3--3------3-----3--3--|
E|--------|---------------------------|-----------------------------------------|-------------------------------------------|


E|---------------------------------------|-----------------------------------------|
B|---------------------------------------|-----------------------------------------|
G|---------------------------------------|-----------------------------------------|
D|------4--4--4------2--4--4--4-------4--|-4--4------2--4--4--4-------4--4--4------|
A|------3--3--3------2-----2--2-------2--|-2--2------2-----2--2-------2--2--2------|
E|---------------------------------------|-----------------------------------------|


E|-------------------------------------------|---------------------------------------|
B|-------------------------------------------|---------------------------------------|
G|-------------------------------------------|---------------------------------------|
D|-4--5--5--4-------4--4--4------4--5--5--4--|------4--4--4------2--4--4--4-------4--|
A|-3-----3--3-------3--3--3------3-----3--3--|------3--3--3------2-----2--2-------2--|
E|-------------------------------------------|---------------------------------------|


E|-----------------------------------------|-------------------------------------------|
B|-----------------------------------------|-------------------------------------------|
G|-----------------------------------------|-------------------------------------------|
D|-4--4------2--4--4--4-------4--4--4------|-4--5--5--4-------4--4--4------4--5--5--4--|
A|-2--2------2-----2--2-------2--2--2------|-3-----3--3-------3--3--3------3-----3--3--|
E|-----------------------------------------|-------------------------------------------|


E|---------------------------------------|-----------------------------------------|
B|---------------------------------------|-----------------------------------------|
G|---------------------------------------|-----------------------------------------|
D|------4--4--4------2--4--4--4-------4--|-4--4------2--4--4--4-------4--4--4------|
A|------3--3--3------2-----2--2-------2--|-2--2------2-----2--2-------2--2--2------|
E|---------------------------------------|-----------------------------------------|


E|-------------------------------------------|---------------------------------------|
B|-------------------------------------------|---------------------------------------|
G|-------------------------------------------|---------------------------------------|
D|-4--5--5--4-------4--4--4------4--5--5--4--|------4--4--4------2--4--4--4-------4--|
A|-3-----3--3-------3--3--3------3-----3--3--|------3--3--3------2-----2--2-------2--|
E|-------------------------------------------|---------------------------------------|


E|-----------------------------------------|-------------------------------------------|
B|-----------------------------------------|-------------------------------------------|
G|-----------------------------------------|-------------------------------------------|
D|-4--4------2--4--4--4-------4--4--4------|-4--5--5--4-------4--4--4------4--5--5--4--|
A|-2--2------2-----2--2-------2--2--2------|-3-----3--3-------3--3--3------3-----3--3--|
E|-----------------------------------------|-------------------------------------------|


E|---------------------------------------|-----------------------------------------|
B|---------------------------------------|-----------------------------------------|
G|---------------------------------------|-----------------------------------------|
D|------4--4--4------2--4--4--4-------4--|-4--4------2--4--4--4-------4--4--4------|
A|------3--3--3------2-----2--2-------2--|-2--2------2-----2--2-------2--2--2------|
E|---------------------------------------|-----------------------------------------|


E|-------------------------------------------|---------------------------------------|
B|-------------------------------------------|---------------------------------------|
G|-------------------------------------------|---------------------------------------|
D|-4--5--5--4-------4--4--4------4--5--5--4--|------4--4--4------2--4--4--4-------4--|
A|-3-----3--3-------3--3--3------3-----3--3--|------3--3--3------2-----2--2-------2--|
E|-------------------------------------------|---------------------------------------|


E|-----------------------------------------|-------------------------------------------|
B|-----------------------------------------|-------------------------------------------|
G|-----------------------------------------|-------------------------------------------|
D|-4--4------2--4--4--4-------4--4--4------|-4--5--5--4-------4--4--4------4--5--5--4--|
A|-2--2------2-----2--2-------2--2--2------|-3-----3--3-------3--3--3------3-----3--3--|
E|-----------------------------------------|-------------------------------------------|


E|---------------------------------------|-----------------------------------------|
B|---------------------------------------|-----------------------------------------|
G|---------------------------------------|-----------------------------------------|
D|------4--4--4------2--4--4--4-------4--|-4--4------2--4--4--4-------4--4--4------|
A|------3--3--3------2-----2--2-------2--|-2--2------2-----2--2-------2--2--2------|
E|---------------------------------------|-----------------------------------------|


E|-------------------------------------------|---------------------------------------|
B|-------------------------------------------|---------------------------------------|
G|-------------------------------------------|---------------------------------------|
D|-4--5--5--4-------4--4--4------4--5--5--4--|------4--4--4------2--4--4--4-------4--|
A|-3-----3--3-------3--3--3------3-----3--3--|------3--3--3------2-----2--2-------2--|
E|-------------------------------------------|---------------------------------------|


E|-----------------------------------------|-------------------------------------------|
B|-----------------------------------------|-------------------------------------------|
G|-----------------------------------------|-------------------------------------------|
D|-4--4------2--4--4--4-------4--4--4------|-4--5--5--4-------4--4--4------4--5--5--4--|
A|-2--2------2-----2--2-------2--2--2------|-3-----3--3-------3--3--3------3-----3--3--|
E|-----------------------------------------|-------------------------------------------|


E|---------------------------------------|-----------------------------------------|
B|---------------------------------------|-----------------------------------------|
G|---------------------------------------|-----------------------------------------|
D|------4--4--4------2--4--4--4-------4--|-4--4------2--4--4--4-------4--4--4------|
A|------3--3--3------2-----2--2-------2--|-2--2------2-----2--2-------2--2--2------|
E|---------------------------------------|-----------------------------------------|


E|-------------------------------------------|---------------------------------------|
B|-------------------------------------------|---------------------------------------|
G|-------------------------------------------|---------------------------------------|
D|-4--5--5--4-------4--4--4------4--5--5--4--|------4--4--4------2--4--4--4-------4--|
A|-3-----3--3-------3--3--3------3-----3--3--|------3--3--3------2-----2--2-------2--|
E|-------------------------------------------|---------------------------------------|


E|-----------------------------------------|-------------------------------------------|
B|-----------------------------------------|-------------------------------------------|
G|-----------------------------------------|-------------------------------------------|
D|-4--4------2--4--4--4-------4--4--4------|-4--5--5--4-------4--4--4------4--5--5--4--|
A|-2--2------2-----2--2-------2--2--2------|-3-----3--3-------3--3--3------3-----3--3--|
E|-----------------------------------------|-------------------------------------------|


E|---------------------------------------|-----------------------------------------|
B|---------------------------------------|-----------------------------------------|
G|---------------------------------------|-----------------------------------------|
D|------4--4--4------2--4--4--4-------4--|-4--4------2--4--4--4-------4--4--4------|
A|------3--3--3------2-----2--2-------2--|-2--2------2-----2--2-------2--2--2------|
E|---------------------------------------|-----------------------------------------|


E|-------------------------------------------|---------------------------------------|
B|-------------------------------------------|---------------------------------------|
G|-------------------------------------------|---------------------------------------|
D|-4--5--5--4-------4--4--4------4--5--5--4--|------4--4--4------2--4--4--4-------4--|
A|-3-----3--3-------3--3--3------3-----3--3--|------3--3--3------2-----2--2-------2--|
E|-------------------------------------------|---------------------------------------|


E|-----------------------------------------|-------------------------------------------|
B|-----------------------------------------|-------------------------------------------|
G|-----------------------------------------|-------------------------------------------|
D|-4--4------2--4--4--4-------4--4--4------|-4--5--5--4-------4--4--4------4--5--5--4--|
A|-2--2------2-----2--2-------2--2--2------|-3-----3--3-------3--3--3------3-----3--3--|
E|-----------------------------------------|-------------------------------------------|


E|---------------------------------------|-----------------------------------------|
B|---------------------------------------|-----------------------------------------|
G|---------------------------------------|-----------------------------------------|
D|------4--4--4------2--4--4--4-------4--|-4--4------2--4--4--4-------4--4--4------|
A|------3--3--3------2-----2--2-------2--|-2--2------2-----2--2-------2--2--2------|
E|---------------------------------------|-----------------------------------------|


E|-------------------------------------------|---------------------------------------|
B|-------------------------------------------|---------------------------------------|
G|-------------------------------------------|---------------------------------------|
D|-4--5--5--4-------4--4--4------4--5--5--4--|------4--4--4------2--4--4--4-------4--|
A|-3-----3--3-------3--3--3------3-----3--3--|------3--3--3------2-----2--2-------2--|
E|-------------------------------------------|---------------------------------------|


E|------------------|--------|--------|--------|--------|--------|--------|--------|
B|------------------|--------|--------|--------|--------|--------|--------|--------|
G|------------------|--------|--------|--------|--------|--------|--------|--------|
D|-4--4-------------|--------|--------|--------|--------|--------|--------|--------|
A|-2--2-------------|--------|--------|--------|--------|--------|--------|--------|
E|------------------|--------|--------|--------|--------|--------|--------|--------|


E|--------|--------|--------|--------|--------|--------|--------|--------|--------|
B|--------|--------|--------|--------|--------|--------|--------|--------|--------|
G|--------|--------|--------|--------|--------|--------|--------|--------|--------|
D|--------|--------|--------|--------|--------|--------|--------|--------|--------|
A|--------|--------|--------|--------|--------|--------|--------|--------|--------|
E|--------|--------|--------|--------|--------|--------|--------|--------|--------|


E|--------|--------|--------|--------|--------|--------|--------|--------|--------|
B|--------|--------|--------|--------|--------|--------|--------|--------|--------|
G|--------|--------|--------|--------|--------|--------|--------|--------|--------|
D|--------|--------|--------|--------|--------|--------|--------|--------|--------|
A|--------|--------|--------|--------|--------|--------|--------|--------|--------|
E|--------|--------|--------|--------|--------|--------|--------|--------|--------|


E|--------|--------|
B|--------|--------|
G|--------|--------|
D|--------|--------|
A|--------|--------|
E|--------|--------|





Track 5: Solo Guit

E|--------|--------|--------|--------|--------|--------|--------|--------|--------|
B|--------|--------|--------|--------|--------|--------|--------|--------|--------|
G|--------|--------|--------|--------|--------|--------|--------|--------|--------|
D|--------|--------|--------|--------|--------|--------|--------|--------|--------|
A|--------|--------|--------|--------|--------|--------|--------|--------|--------|
E|--------|--------|--------|--------|--------|--------|--------|--------|--------|


E|--------|--------|--------|--------|--------|--------|--------|--------|--------|
B|--------|--------|--------|--------|--------|--------|--------|--------|--------|
G|--------|--------|--------|--------|--------|--------|--------|--------|--------|
D|--------|--------|--------|--------|--------|--------|--------|--------|--------|
A|--------|--------|--------|--------|--------|--------|--------|--------|--------|
E|--------|--------|--------|--------|--------|--------|--------|--------|--------|


E|--------|--------|--------|--------|--------|--------|--------|--------|--------|
B|--------|--------|--------|--------|--------|--------|--------|--------|--------|
G|--------|--------|--------|--------|--------|--------|--------|--------|--------|
D|--------|--------|--------|--------|--------|--------|--------|--------|--------|
A|--------|--------|--------|--------|--------|--------|--------|--------|--------|
E|--------|--------|--------|--------|--------|--------|--------|--------|--------|


E|--------|--------|--------|--------|---------------------------------------|-----------------------------------------------------------------|
B|--------|--------|--------|--------|---------------------------------------|-----------------------------------------------------------------|
G|--------|--------|--------|--------|---------------------------------------|-----------------------------------------------------------------|
D|--------|--------|--------|--------|-------4-5-4-2---2-4-5-4-2---2-4-5-4-2-|---2-4-5-4-2---4-4-5-4-2---2-4-5-4-2---2-4-5-4-2---2-4-5-4-2---4-|
A|--------|--------|--------|--------|---------------5-----------5-----------|-5-----------5-----------5-----------5-----------5-----------5---|
E|--------|--------|--------|--------|---------------------------------------|-----------------------------------------------------------------|


E|-----------------------------------------------------------------|-----------------------------------------------------------------|
B|-----------------------------------------------------------------|-----------------------------------------------------------------|
G|-----------------------------------------------------------------|-----------------------------------------------------------------|
D|-4-5-4-2---2-4-5-4-2---2-4-5-4-2---2-4-5-4-2---4-4-5-4-2---2-4-5-|-4-2---2-4-5-4-2---2-4-5-4-2---4-4-5-4-2---2-----------2---------|
A|---------5-----------5-----------5-----------5-----------5-------|-----5-----------5-----------5-----------5---5-3-2-3-5---5-3-2-3-|
E|-----------------------------------------------------------------|-----------------------------------------------------------------|


E|-----------------------------------------------------------------------|--------------------------------------------------|
B|-----------------------------------------------------------------------|--------------------------------------------------|
G|---------------------------------------5-7-9-7-5-----------------------|-----------------------------4--5--4-----4--5--7--|
D|-----------------------4-5-7-5-4-5-7-9-----------9-7-5-4-5-7-5-4-------|--------------------4--5--7-----------7-----------|
A|---------5-2-3-5-3-5-7-------------------------------------------7-5-7-|-7----5--5----------------------------------------|
E|-5-3-2-3---------------------------------------------------------------|--------------------------------------------------|


E|-------------------------------------------------------------------|------------------------------------------------------------|
B|-5--8--5--7--5-----5-----------------------------------------------|------------------------------------------------------------|
G|----------------7-----7--5--4--7--5--4--------5--4-----4-----------|---------------------------------------5--7--5-----5--7--9--|
D|----------------------------------------7-----------7----7-5-4-5---|------5-7-5-----5-------------5--7--9-----------9-----------|
A|-------------------------------------------------------------------|-------------9-----9-7-5-7-9--------------------------------|
E|-------------------------------------------------------------------|------------------------------------------------------------|


E|-----------------7--10-7--8--7-----7-------12--12---8---|-------------------1214---12-14-15-14-12-14---12--|
B|-7------7--8--10----------------10---108-7------------12|-8-------10-12-1315----15-----------------------15|
G|-----9--------------------------------------------------|--------------------------------------------------|
D|--------------------------------------------------------|--------------------------------------------------|
A|--------------------------------------------------------|--------------------------------------------------|
E|--------------------------------------------------------|--------------------------------------------------|


E|-12----------------------------------14-17----14-15-12-|-14----------------------------7--|
B|---151312151312--121312--12----------------------------|----15--15-15---15---------10-----|
G|---------------14------14--141211----------------------|----------------------------------|
D|-------------------------------------------------------|----------------------------------|
A|-------------------------------------------------------|----------------------------------|
E|-------------------------------------------------------|----------------------------------|


E|-----------------------------------------|--------------------------------|--------|
B|-7--10-----------------------------------|--------------------------------|--------|
G|-------7--9--7---------------------------|--------------------------------|--------|
D|----------------9--7--9--9----9--9---9---|-9--17----------9--9---9---9----|--------|
A|-----------------------------------------|----------------9--9---9---9----|--------|
E|-----------------------------------------|-------0---7----7--7---7---7----|--------|


E|--------|--------|--------|--------|--------|--------|--------|--------|--------|
B|--------|--------|--------|--------|--------|--------|--------|--------|--------|
G|--------|--------|--------|--------|--------|--------|--------|--------|--------|
D|--------|--------|--------|--------|--------|--------|--------|--------|--------|
A|--------|--------|--------|--------|--------|--------|--------|--------|--------|
E|--------|--------|--------|--------|--------|--------|--------|--------|--------|


E|--------|--------|--------|--------|--------|--------|--------|--------|--------|
B|--------|--------|--------|--------|--------|--------|--------|--------|--------|
G|--------|--------|--------|--------|--------|--------|--------|--------|--------|
D|--------|--------|--------|--------|--------|--------|--------|--------|--------|
A|--------|--------|--------|--------|--------|--------|--------|--------|--------|
E|--------|--------|--------|--------|--------|--------|--------|--------|--------|


E|--------|--------|--------|---------------------------|-------------------------------------------|
B|--------|--------|--------|---------------------------|-------------------------------------------|
G|--------|--------|--------|---------------------------|-------------------------------------------|
D|--------|--------|--------|-----------2--4--4--4------|----4--4--4------2--4--4--4-------4--4--4--|
A|--------|--------|--------|-----------2-----2--2------|----2--2--2------2-----2--2-------2--2--2--|
E|--------|--------|--------|---------------------------|-------------------------------------------|


E|-----------------------------------------|-----------------------------------------|
B|-----------------------------------------|-----------------------------------------|
G|-----------------------------------------|-----------------------------------------|
D|-----4--5--5--4-------4--4--4------4--5--|-5--4-------4--4--4--2--4--4--4-------4--|
A|-----3-----3--3-------3--3--3------3-----|-3--3-------3--3--3--2-----2--2-------2--|
E|-----------------------------------------|-----------------------------------------|


E|-----------------------------------------|-----------------------------------------|
B|-----------------------------------------|-----------------------------------------|
G|-----------------------------------------|-----------------------------------------|
D|-4--4----------2--4--4--4-------4--4--4--|-----4--5--5--4-------4--4--4------4--5--|
A|-2--2----------2-----2--2-------2--2--2--|-----3-----3--3-------3--3--3------3-----|
E|-----------------------------------------|-----------------------------------------|


E|-----------------------------------------|-------------------------------------------|
B|-----------------------------------------|-------------------------------------------|
G|-----------------------------------------|-------------------------------------------|
D|-5--4-------4--4--4------2--4--4--4------|----4--4--4------2--4--4--4-------4--4--4--|
A|-3--3-------3--3--3------2-----2--2------|----2--2--2------2-----2--2-------2--2--2--|
E|-----------------------------------------|-------------------------------------------|


E|-----------------------------------------|-----------------------------------------|
B|-----------------------------------------|-----------------------------------------|
G|-----------------------------------------|-----------------------------------------|
D|-----4--5--5--4-------4--4--4------4--5--|-5--4-------4--4--4------2--4--4--4------|
A|-----3-----3--3-------3--3--3------3-----|-3--3-------3--3--3------2-----2--2------|
E|-----------------------------------------|-----------------------------------------|


E|-------------------------------------------|-----------------------------------------|
B|-------------------------------------------|-----------------------------------------|
G|-------------------------------------------|-----------------------------------------|
D|----4--4--4------2--4--4--4-------4--4--4--|-----4--5--5--4-------4--4--4------4--5--|
A|----2--2--2------2-----2--2-------2--2--2--|-----3-----3--3-------3--3--3------3-----|
E|-------------------------------------------|-----------------------------------------|


E|-----------------------------------------|-------------------------------------------|
B|-----------------------------------------|-------------------------------------------|
G|-----------------------------------------|-------------------------------------------|
D|-5--4-------4--4--4------2--4--4--4------|----4--4--4------2--4--4--4-------4--4--4--|
A|-3--3-------3--3--3------2-----2--2------|----2--2--2------2-----2--2-------2--2--2--|
E|-----------------------------------------|-------------------------------------------|


E|-----------------------------------------|-----------------------------------------|
B|-----------------------------------------|-----------------------------------------|
G|-----------------------------------------|-----------------------------------------|
D|-----4--5--5--4-------4--4--4------4--5--|-5--4-------4--4--4------2--4--4--4------|
A|-----3-----3--3-------3--3--3------3-----|-3--3-------3--3--3------2-----2--2------|
E|-----------------------------------------|-----------------------------------------|


E|-------------------------------------------|-----------------------------------------|
B|-------------------------------------------|-----------------------------------------|
G|-------------------------------------------|-----------------------------------------|
D|----4--4--4------2--4--4--4-------4--4--4--|-----4--5--5--4-------4--4--4------4--5--|
A|----2--2--2------2-----2--2-------2--2--2--|-----3-----3--3-------3--3--3------3-----|
E|-------------------------------------------|-----------------------------------------|


E|-----------------------------------------|-------------------------------------------|
B|-----------------------------------------|-------------------------------------------|
G|-----------------------------------------|-------------------------------------------|
D|-5--4-------4--4--4------2--4--4--4------|----4--4--4------2--4--4--4-------4--4--4--|
A|-3--3-------3--3--3------2-----2--2------|----2--2--2------2-----2--2-------2--2--2--|
E|-----------------------------------------|-------------------------------------------|


E|-----------------------------------------|-----------------------------------------|
B|-----------------------------------------|-----------------------------------------|
G|-----------------------------------------|-----------------------------------------|
D|-----4--5--5--4-------4--4--4------4--5--|-5--4-------4--4--4------2--4--4--4------|
A|-----3-----3--3-------3--3--3------3-----|-3--3-------3--3--3------2-----2--2------|
E|-----------------------------------------|-----------------------------------------|


E|-------------------------------------------|-----------------------------------------|
B|-------------------------------------------|-----------------------------------------|
G|-------------------------------------------|-----------------------------------------|
D|----4--4--4------2--4--4--4-------4--4--4--|-----4--5--5--4-------4--4--4------4--5--|
A|----2--2--2------2-----2--2-------2--2--2--|-----3-----3--3-------3--3--3------3-----|
E|-------------------------------------------|-----------------------------------------|


E|-----------------------------------------|-------------------------------------------|
B|-----------------------------------------|-------------------------------------------|
G|-----------------------------------------|-------------------------------------------|
D|-5--4-------4--4--4------2--4--4--4------|----4--4--4------2--4--4--4-------4--4--4--|
A|-3--3-------3--3--3------2-----2--2------|----2--2--2------2-----2--2-------2--2--2--|
E|-----------------------------------------|-------------------------------------------|


E|-----------------------------------------|-----------------------------------------|
B|-----------------------------------------|-----------------------------------------|
G|-----------------------------------------|-----------------------------------------|
D|-----4--5--5--4-------4--4--4------4--5--|-5--4-------4--4--4------2--4--4--4------|
A|-----3-----3--3-------3--3--3------3-----|-3--3-------3--3--3------2-----2--2------|
E|-----------------------------------------|-----------------------------------------|


E|-------------------------------------------|-----------------------------------------|
B|-------------------------------------------|-----------------------------------------|
G|-------------------------------------------|-----------------------------------------|
D|----4--4--4------2--4--4--4-------4--4--4--|-----4--5--5--4-------4--4--4------4--5--|
A|----2--2--2------2-----2--2-------2--2--2--|-----3-----3--3-------3--3--3------3-----|
E|-------------------------------------------|-----------------------------------------|


E|-----------------------------------------|-------------------------------------------|
B|-----------------------------------------|-------------------------------------------|
G|-----------------------------------------|-------------------------------------------|
D|-5--4-------4--4--4------2--4--4--4------|----4--4--4------2--4--4--4-------4--4--4--|
A|-3--3-------3--3--3------2-----2--2------|----2--2--2------2-----2--2-------2--2--2--|
E|-----------------------------------------|-------------------------------------------|


E|-----------------------------------------|-----------------------------------------|
B|-----------------------------------------|-----------------------------------------|
G|-----------------------------------------|-----------------------------------------|
D|-----4--5--5--4-------4--4--4------4--5--|-5--4-------4--4--4------2--4--4--4------|
A|-----3-----3--3-------3--3--3------3-----|-3--3-------3--3--3------2-----2--2------|
E|-----------------------------------------|-----------------------------------------|


E|-------------------------------------------|-----------------------------------------|
B|-------------------------------------------|-----------------------------------------|
G|-------------------------------------------|-----------------------------------------|
D|----4--4--4------2--4--4--4-------4--4--4--|-----4--5--5--4-------4--4--4------4--5--|
A|----2--2--2------2-----2--2-------2--2--2--|-----3-----3--3-------3--3--3------3-----|
E|-------------------------------------------|-----------------------------------------|


E|-----------------------------------------|-------------------------------------------|
B|-----------------------------------------|-------------------------------------------|
G|-----------------------------------------|-------------------------------------------|
D|-5--4-------4--4--4------2--4--4--4------|----4--4--4------2--4--4--4-------4--4--4--|
A|-3--3-------3--3--3------2-----2--2------|----2--2--2------2-----2--2-------2--2--2--|
E|-----------------------------------------|-------------------------------------------|


E|-----------------------------------------|-----------------------------------------|
B|-----------------------------------------|-----------------------------------------|
G|-----------------------------------------|-----------------------------------------|
D|-----4--5--5--4-------4--4--4------4--5--|-5--4-------4--4--4------2--4--4--4------|
A|-----3-----3--3-------3--3--3------3-----|-3--3-------3--3--3------2-----2--2------|
E|-----------------------------------------|-----------------------------------------|


E|-------------------------------------------|-----------------------------------------|
B|-------------------------------------------|-----------------------------------------|
G|-------------------------------------------|-----------------------------------------|
D|----4--4--4------2--4--4--4-------4--4--4--|-----4--5--5--4-------4--4--4------4--5--|
A|----2--2--2------2-----2--2-------2--2--2--|-----3-----3--3-------3--3--3------3-----|
E|-------------------------------------------|-----------------------------------------|


E|-----------------------------------------|--------------------|--------|--------|
B|-----------------------------------------|--------------------|--------|--------|
G|-----------------------------------------|--------------------|--------|--------|
D|-5--4-------4--4--4------2--4--4--4------|----4--4--4---------|--------|--------|
A|-3--3-------3--3--3------2-----2--2------|----2--2--2---------|--------|--------|
E|-----------------------------------------|--------------------|--------|--------|


E|--------|--------|--------|-------------------------------|-------------|--------------------------------------|
B|--------|--------|--------|------0--7--0--5--5----5-------|-------------|-----------17-0--19-0--15-17-0--10-0--|
G|--------|--------|--------|-------------------------------|-------------|--------------------------------------|
D|--------|--------|--------|-------------------------------|-------------|--------------------------------------|
A|--------|--------|--------|-------------------------------|-------------|--------------------------------------|
E|--------|--------|--------|-------------------------------|-------------|--------------------------------------|


E|----------------------------------------|-------------------------------|--------------------------------------|
B|-12-10-0--8--0--7--0--5--5----5------17-|-0--19-0--15-17----------------|-----------17-0--19-0--15-17-0--10-0--|
G|----------------------------------------|-------------------------------|--------------------------------------|
D|----------------------------------------|-------------------------------|--------------------------------------|
A|----------------------------------------|-------------------------------|--------------------------------------|
E|----------------------------------------|-------------------------------|--------------------------------------|


E|--------------------------------------|-------------|--------------------------------------|
B|-12-10-0--8--0--7--0--5--5----5-------|-------------|-----------17-0--19-0--15-17-0--10-0--|
G|--------------------------------------|-------------|--------------------------------------|
D|--------------------------------------|-------------|--------------------------------------|
A|--------------------------------------|-------------|--------------------------------------|
E|--------------------------------------|-------------|--------------------------------------|


E|----------------------------------------|-------------------------------|--------------------------------------|
B|-12-10-0--8--0--7--0--5--5----5------17-|-0--19-0--15-17----------------|-----------17-0--19-0--15-17-0--10-0--|
G|----------------------------------------|-------------------------------|--------------------------------------|
D|----------------------------------------|-------------------------------|--------------------------------------|
A|----------------------------------------|-------------------------------|--------------------------------------|
E|----------------------------------------|-------------------------------|--------------------------------------|


E|----------------------------------------|--------------------------------------|
B|-12-10-0--8--0--7--0--5--5----5------17-|-0--19-0--15-17-----------0--19-0--15-|
G|----------------------------------------|--------------------------------------|
D|----------------------------------------|--------------------------------------|
A|----------------------------------------|--------------------------------------|
E|----------------------------------------|--------------------------------------|


E|------------------------------------------|-----------------------------------------------|
B|-17-0--10-0--12-10-0--8--0--7--0--5--5----|-5------17-0--19-0--15-17-0--10-0--12-10-0--8--|
G|------------------------------------------|-----------------------------------------------|
D|------------------------------------------|-----------------------------------------------|
A|------------------------------------------|-----------------------------------------------|
E|------------------------------------------|-----------------------------------------------|


E|----------------------------------------|------------------------------------------|
B|-0--7--0--5--5----5------17-0--19-0--15-|-17-0--10-0--12-10-0--8--0--7--0--5--5----|
G|----------------------------------------|------------------------------------------|
D|----------------------------------------|------------------------------------------|
A|----------------------------------------|------------------------------------------|
E|----------------------------------------|------------------------------------------|


E|-----------------------------------------------|----------------------------------------|
B|-5------17-0--19-0--15-17-0--10-0--12-10-0--8--|-0--7--0--5--5----5------17-0--19-0--15-|
G|-----------------------------------------------|----------------------------------------|
D|-----------------------------------------------|----------------------------------------|
A|-----------------------------------------------|----------------------------------------|
E|-----------------------------------------------|----------------------------------------|


E|------------------------------------------|------------------|
B|-17-0--10-0--12-10-0--8--0--7--0--5--5----|-5------17--------|
G|------------------------------------------|------------------|
D|------------------------------------------|------------------|
A|------------------------------------------|------------------|
E|------------------------------------------|------------------|





Track 6: Clean 1

E|--------|--------|--------|--------|--------|--------|--------|--------|--------|
B|--------|--------|--------|--------|--------|--------|--------|--------|--------|
G|--------|--------|--------|--------|--------|--------|--------|--------|--------|
D|--------|--------|--------|--------|--------|--------|--------|--------|--------|
A|--------|--------|--------|--------|--------|--------|--------|--------|--------|
E|--------|--------|--------|--------|--------|--------|--------|--------|--------|


E|--------|--------|--------|--------|--------|--------|--------|--------|--------|
B|--------|--------|--------|--------|--------|--------|--------|--------|--------|
G|--------|--------|--------|--------|--------|--------|--------|--------|--------|
D|--------|--------|--------|--------|--------|--------|--------|--------|--------|
A|--------|--------|--------|--------|--------|--------|--------|--------|--------|
E|--------|--------|--------|--------|--------|--------|--------|--------|--------|


E|--------|--------|--------|--------|--------|--------|--------|--------|--------|
B|--------|--------|--------|--------|--------|--------|--------|--------|--------|
G|--------|--------|--------|--------|--------|--------|--------|--------|--------|
D|--------|--------|--------|--------|--------|--------|--------|--------|--------|
A|--------|--------|--------|--------|--------|--------|--------|--------|--------|
E|--------|--------|--------|--------|--------|--------|--------|--------|--------|


E|--------|--------|--------|--------|-------------------------------|----------------|
B|--------|--------|--------|--------|-------------------------------|----0-----------|
G|--------|--------|--------|--------|-------------9-----------9-----|-9--------------|
D|--------|--------|--------|--------|----------12----------12----12-|----------------|
A|--------|--------|--------|--------|----------------10-------------|----------------|
E|--------|--------|--------|--------|-------8-----------8-----------|----------------|


E|--------|--------|--------|--------|--------|--------|--------|--------|--------|
B|--------|--------|--------|--------|--------|--------|--------|--------|--------|
G|--------|--------|--------|--------|--------|--------|--------|--------|--------|
D|--------|--------|--------|--------|--------|--------|--------|--------|--------|
A|--------|--------|--------|--------|--------|--------|--------|--------|--------|
E|--------|--------|--------|--------|--------|--------|--------|--------|--------|


E|--------|--------|--------|--------|--------|--------|--------|--------|--------|
B|--------|--------|--------|--------|--------|--------|--------|--------|--------|
G|--------|--------|--------|--------|--------|--------|--------|--------|--------|
D|--------|--------|--------|--------|--------|--------|--------|--------|--------|
A|--------|--------|--------|--------|--------|--------|--------|--------|--------|
E|--------|--------|--------|--------|--------|--------|--------|--------|--------|


E|--------|--------|--------|--------|--------|--------|--------|--------|--------|
B|--------|--------|--------|--------|--------|--------|--------|--------|--------|
G|--------|--------|--------|--------|--------|--------|--------|--------|--------|
D|--------|--------|--------|--------|--------|--------|--------|--------|--------|
A|--------|--------|--------|--------|--------|--------|--------|--------|--------|
E|--------|--------|--------|--------|--------|--------|--------|--------|--------|


E|--------|--------|--------|--------|--------|--------|--------|--------|--------|
B|--------|--------|--------|--------|--------|--------|--------|--------|--------|
G|--------|--------|--------|--------|--------|--------|--------|--------|--------|
D|--------|--------|--------|--------|--------|--------|--------|--------|--------|
A|--------|--------|--------|--------|--------|--------|--------|--------|--------|
E|--------|--------|--------|--------|--------|--------|--------|--------|--------|


E|--------|--------|--------|--------|--------|--------|--------|--------|--------|
B|--------|--------|--------|--------|--------|--------|--------|--------|--------|
G|--------|--------|--------|--------|--------|--------|--------|--------|--------|
D|--------|--------|--------|--------|--------|--------|--------|--------|--------|
A|--------|--------|--------|--------|--------|--------|--------|--------|--------|
E|--------|--------|--------|--------|--------|--------|--------|--------|--------|


E|--------|--------|--------|--------|--------|--------|--------|--------|--------|
B|--------|--------|--------|--------|--------|--------|--------|--------|--------|
G|--------|--------|--------|--------|--------|--------|--------|--------|--------|
D|--------|--------|--------|--------|--------|--------|--------|--------|--------|
A|--------|--------|--------|--------|--------|--------|--------|--------|--------|
E|--------|--------|--------|--------|--------|--------|--------|--------|--------|


E|--------|--------|--------|--------|--------|--------|--------|--------|--------|
B|--------|--------|--------|--------|--------|--------|--------|--------|--------|
G|--------|--------|--------|--------|--------|--------|--------|--------|--------|
D|--------|--------|--------|--------|--------|--------|--------|--------|--------|
A|--------|--------|--------|--------|--------|--------|--------|--------|--------|
E|--------|--------|--------|--------|--------|--------|--------|--------|--------|


E|--------|--------|--------|--------|--------|--------|--------|--------|--------|
B|--------|--------|--------|--------|--------|--------|--------|--------|--------|
G|--------|--------|--------|--------|--------|--------|--------|--------|--------|
D|--------|--------|--------|--------|--------|--------|--------|--------|--------|
A|--------|--------|--------|--------|--------|--------|--------|--------|--------|
E|--------|--------|--------|--------|--------|--------|--------|--------|--------|


E|--------|--------|--------|--------|--------|--------|--------|--------|--------|
B|--------|--------|--------|--------|--------|--------|--------|--------|--------|
G|--------|--------|--------|--------|--------|--------|--------|--------|--------|
D|--------|--------|--------|--------|--------|--------|--------|--------|--------|
A|--------|--------|--------|--------|--------|--------|--------|--------|--------|
E|--------|--------|--------|--------|--------|--------|--------|--------|--------|


E|--------|--------|--------|--------|--------|--------|--------|--------|--------|
B|--------|--------|--------|--------|--------|--------|--------|--------|--------|
G|--------|--------|--------|--------|--------|--------|--------|--------|--------|
D|--------|--------|--------|--------|--------|--------|--------|--------|--------|
A|--------|--------|--------|--------|--------|--------|--------|--------|--------|
E|--------|--------|--------|--------|--------|--------|--------|--------|--------|


E|--------|--------|--------|--------|--------|--------|--------|--------|--------|
B|--------|--------|--------|--------|--------|--------|--------|--------|--------|
G|--------|--------|--------|--------|--------|--------|--------|--------|--------|
D|--------|--------|--------|--------|--------|--------|--------|--------|--------|
A|--------|--------|--------|--------|--------|--------|--------|--------|--------|
E|--------|--------|--------|--------|--------|--------|--------|--------|--------|


E|--------|--------|--------|--------|--------|--------|
B|--------|--------|--------|--------|--------|--------|
G|--------|--------|--------|--------|--------|--------|
D|--------|--------|--------|--------|--------|--------|
A|--------|--------|--------|--------|--------|--------|
E|--------|--------|--------|--------|--------|--------|





Track 7: Clean 1

E|--------|--------|--------|--------|--------|--------|--------|--------|--------|
B|--------|--------|--------|--------|--------|--------|--------|--------|--------|
G|--------|--------|--------|--------|--------|--------|--------|--------|--------|
D|--------|--------|--------|--------|--------|--------|--------|--------|--------|
A|--------|--------|--------|--------|--------|--------|--------|--------|--------|
E|--------|--------|--------|--------|--------|--------|--------|--------|--------|


E|--------|--------|--------|--------|--------|--------|--------|--------|--------|
B|--------|--------|--------|--------|--------|--------|--------|--------|--------|
G|--------|--------|--------|--------|--------|--------|--------|--------|--------|
D|--------|--------|--------|--------|--------|--------|--------|--------|--------|
A|--------|--------|--------|--------|--------|--------|--------|--------|--------|
E|--------|--------|--------|--------|--------|--------|--------|--------|--------|


E|--------|--------|--------|--------|--------|--------|--------|--------|--------|
B|--------|--------|--------|--------|--------|--------|--------|--------|--------|
G|--------|--------|--------|--------|--------|--------|--------|--------|--------|
D|--------|--------|--------|--------|--------|--------|--------|--------|--------|
A|--------|--------|--------|--------|--------|--------|--------|--------|--------|
E|--------|--------|--------|--------|--------|--------|--------|--------|--------|


E|--------|--------|--------|--------|--------|--------|--------|--------|--------|
B|--------|--------|--------|--------|--------|--------|--------|--------|--------|
G|--------|--------|--------|--------|--------|--------|--------|--------|--------|
D|--------|--------|--------|--------|--------|--------|--------|--------|--------|
A|--------|--------|--------|--------|--------|--------|--------|--------|--------|
E|--------|--------|--------|--------|--------|--------|--------|--------|--------|


E|--------|--------|--------|--------|--------|--------|--------|--------|--------|
B|--------|--------|--------|--------|--------|--------|--------|--------|--------|
G|--------|--------|--------|--------|--------|--------|--------|--------|--------|
D|--------|--------|--------|--------|--------|--------|--------|--------|--------|
A|--------|--------|--------|--------|--------|--------|--------|--------|--------|
E|--------|--------|--------|--------|--------|--------|--------|--------|--------|


E|--------|--------|--------|--------|--------|--------|--------|--------|--------|
B|--------|--------|--------|--------|--------|--------|--------|--------|--------|
G|--------|--------|--------|--------|--------|--------|--------|--------|--------|
D|--------|--------|--------|--------|--------|--------|--------|--------|--------|
A|--------|--------|--------|--------|--------|--------|--------|--------|--------|
E|--------|--------|--------|--------|--------|--------|--------|--------|--------|


E|--------|--------|--------|-------------------------------7---------------|-------------------7---------------------------|
B|--------|--------|--------|-------------------7--------7------------------|-------7--------7------------------------7-----|
G|--------|--------|--------|-------9--------9--------9---------------9-----|----9--------9---------------9--------9--------|
D|--------|--------|--------|----7--------7--------7---------------7--------|-7--------7---------------7--------7--------7--|
A|--------|--------|--------|----------10--------------------------------10-|--------------------------------9--------------|
E|--------|--------|--------|-8---------------------------------8-----------|-----------------------7-----------------------|


E|-------7---------------------------------7---|-------------------------------7---------------|
B|----7------------------------7--------7------|-------------------7--------7------------------|
G|-9---------------9--------9--------9---------|-------9--------9--------9---------------9-----|
D|--------------7--------7--------7------------|----7--------7--------7---------------7--------|
A|--------------------9------------------------|----------10--------------------------------10-|
E|-----------7---------------------------------|-8---------------------------------8-----------|


E|-------------------7---------------------------|-------7---------------------------------7---|
B|-------7--------7------------------------7-----|----7------------------------7--------7------|
G|----9--------9---------------9--------9--------|-9---------------9--------9--------9---------|
D|-7--------7---------------7--------7--------7--|--------------7--------7--------7------------|
A|--------------------------------9--------------|--------------------9------------------------|
E|-----------------------7-----------------------|-----------7---------------------------------|


E|-------------------------------7---------------|-------------------7---------------------------|
B|-------------------7--------7------------------|-------7--------7------------------------7-----|
G|-------9--------9--------9---------------9-----|----9--------9---------------9--------9--------|
D|----7--------7--------7---------------7--------|-7--------7---------------7--------7--------7--|
A|----------10--------------------------------10-|--------------------------------9--------------|
E|-8---------------------------------8-----------|-----------------------7-----------------------|


E|-------7---------------------------------7---|-------------------------------7---------------|
B|----7------------------------7--------7------|-------------------7--------7------------------|
G|-9---------------9--------9--------9---------|-------9--------9--------9---------------9-----|
D|--------------7--------7--------7------------|----7--------7--------7---------------7--------|
A|--------------------9------------------------|----------10--------------------------------10-|
E|-----------7---------------------------------|-8---------------------------------8-----------|


E|-------------------7---------|--------|--------|--------|--------|--------|--------|
B|-------7--------7------------|--------|--------|--------|--------|--------|--------|
G|----9--------9---------------|--------|--------|--------|--------|--------|--------|
D|-7--------7------------------|--------|--------|--------|--------|--------|--------|
A|-----------------------------|--------|--------|--------|--------|--------|--------|
E|-----------------------------|--------|--------|--------|--------|--------|--------|


E|--------|--------|--------|--------|--------|--------|--------|--------|--------|
B|--------|--------|--------|--------|--------|--------|--------|--------|--------|
G|--------|--------|--------|--------|--------|--------|--------|--------|--------|
D|--------|--------|--------|--------|--------|--------|--------|--------|--------|
A|--------|--------|--------|--------|--------|--------|--------|--------|--------|
E|--------|--------|--------|--------|--------|--------|--------|--------|--------|


E|--------|--------|--------|--------|--------|--------|--------|--------|--------|
B|--------|--------|--------|--------|--------|--------|--------|--------|--------|
G|--------|--------|--------|--------|--------|--------|--------|--------|--------|
D|--------|--------|--------|--------|--------|--------|--------|--------|--------|
A|--------|--------|--------|--------|--------|--------|--------|--------|--------|
E|--------|--------|--------|--------|--------|--------|--------|--------|--------|


E|--------|--------|--------|--------|--------|--------|--------|--------|--------|
B|--------|--------|--------|--------|--------|--------|--------|--------|--------|
G|--------|--------|--------|--------|--------|--------|--------|--------|--------|
D|--------|--------|--------|--------|--------|--------|--------|--------|--------|
A|--------|--------|--------|--------|--------|--------|--------|--------|--------|
E|--------|--------|--------|--------|--------|--------|--------|--------|--------|


E|--------|--------|--------|--------|--------|--------|--------|--------|--------|
B|--------|--------|--------|--------|--------|--------|--------|--------|--------|
G|--------|--------|--------|--------|--------|--------|--------|--------|--------|
D|--------|--------|--------|--------|--------|--------|--------|--------|--------|
A|--------|--------|--------|--------|--------|--------|--------|--------|--------|
E|--------|--------|--------|--------|--------|--------|--------|--------|--------|


E|--------|--------|--------|--------|--------|--------|--------|--------|--------|
B|--------|--------|--------|--------|--------|--------|--------|--------|--------|
G|--------|--------|--------|--------|--------|--------|--------|--------|--------|
D|--------|--------|--------|--------|--------|--------|--------|--------|--------|
A|--------|--------|--------|--------|--------|--------|--------|--------|--------|
E|--------|--------|--------|--------|--------|--------|--------|--------|--------|


E|--------|--------|--------|--------|--------|--------|--------|--------|--------|
B|--------|--------|--------|--------|--------|--------|--------|--------|--------|
G|--------|--------|--------|--------|--------|--------|--------|--------|--------|
D|--------|--------|--------|--------|--------|--------|--------|--------|--------|
A|--------|--------|--------|--------|--------|--------|--------|--------|--------|
E|--------|--------|--------|--------|--------|--------|--------|--------|--------|


E|--------|--------|--------|--------|--------|--------|--------|--------|--------|
B|--------|--------|--------|--------|--------|--------|--------|--------|--------|
G|--------|--------|--------|--------|--------|--------|--------|--------|--------|
D|--------|--------|--------|--------|--------|--------|--------|--------|--------|
A|--------|--------|--------|--------|--------|--------|--------|--------|--------|
E|--------|--------|--------|--------|--------|--------|--------|--------|--------|


E|--------|
B|--------|
G|--------|
D|--------|
A|--------|
E|--------|





Track 8: Untitled

G|--------|--------|--------|--------|--------|--------|--------|--------|--------|
D|--------|--------|--------|--------|--------|--------|--------|--------|--------|
A|--------|--------|--------|--------|--------|--------|--------|--------|--------|
E|--------|--------|--------|--------|--------|--------|--------|--------|--------|


G|--------|--------|--------|--------|--------|--------|--------|--------|--------|
D|--------|--------|--------|--------|--------|--------|--------|--------|--------|
A|--------|--------|--------|--------|--------|--------|--------|--------|--------|
E|--------|--------|--------|--------|--------|--------|--------|--------|--------|


G|--------|--------|--------|--------|--------|--------|--------|--------|--------|
D|--------|--------|--------|--------|--------|--------|--------|--------|--------|
A|--------|--------|--------|--------|--------|--------|--------|--------|--------|
E|--------|--------|--------|--------|--------|--------|--------|--------|--------|


G|--------|--------|--------|--------|--------|--------|--------|--------|--------|
D|--------|--------|--------|--------|--------|--------|--------|--------|--------|
A|--------|--------|--------|--------|--------|--------|--------|--------|--------|
E|--------|--------|--------|--------|--------|--------|--------|--------|--------|


G|--------|--------|--------|--------|--------|--------|--------|--------|--------|
D|--------|--------|--------|--------|--------|--------|--------|--------|--------|
A|--------|--------|--------|--------|--------|--------|--------|--------|--------|
E|--------|--------|--------|--------|--------|--------|--------|--------|--------|


G|--------|--------|--------|--------|--------|--------|--------|--------|--------|
D|--------|--------|--------|--------|--------|--------|--------|--------|--------|
A|--------|--------|--------|--------|--------|--------|--------|--------|--------|
E|--------|--------|--------|--------|--------|--------|--------|--------|--------|


G|--------|--------|--------|--------|--------|--------|--------|--------|--------|
D|--------|--------|--------|--------|--------|--------|--------|--------|--------|
A|--------|--------|--------|--------|--------|--------|--------|--------|--------|
E|--------|--------|--------|--------|--------|--------|--------|--------|--------|


G|--------|--------|--------|--------|--------|--------|--------|--------|--------|
D|--------|--------|--------|--------|--------|--------|--------|--------|--------|
A|--------|--------|--------|--------|--------|--------|--------|--------|--------|
E|--------|--------|--------|--------|--------|--------|--------|--------|--------|


G|--------|--------|--------|--------|--------|--------|--------|--------|--------|
D|--------|--------|--------|--------|--------|--------|--------|--------|--------|
A|--------|--------|--------|--------|--------|--------|--------|--------|--------|
E|--------|--------|--------|--------|--------|--------|--------|--------|--------|


G|--------|--------|--------|--------|--------|--------|--------|--------|--------|
D|--------|--------|--------|--------|--------|--------|--------|--------|--------|
A|--------|--------|--------|--------|--------|--------|--------|--------|--------|
E|--------|--------|--------|--------|--------|--------|--------|--------|--------|


G|--------|--------|--------|--------|--------|--------|--------|--------|--------|
D|--------|--------|--------|--------|--------|--------|--------|--------|--------|
A|--------|--------|--------|--------|--------|--------|--------|--------|--------|
E|--------|--------|--------|--------|--------|--------|--------|--------|--------|


G|--------|--------|--------|--------|--------|--------|--------|--------|--------|
D|--------|--------|--------|--------|--------|--------|--------|--------|--------|
A|--------|--------|--------|--------|--------|--------|--------|--------|--------|
E|--------|--------|--------|--------|--------|--------|--------|--------|--------|


G|--------|--------|--------|--------|--------|--------|--------|--------|--------|
D|--------|--------|--------|--------|--------|--------|--------|--------|--------|
A|--------|--------|--------|--------|--------|--------|--------|--------|--------|
E|--------|--------|--------|--------|--------|--------|--------|--------|--------|


G|--------|--------|--------|--------|--------|--------|--------|--------|--------|
D|--------|--------|--------|--------|--------|--------|--------|--------|--------|
A|--------|--------|--------|--------|--------|--------|--------|--------|--------|
E|--------|--------|--------|--------|--------|--------|--------|--------|--------|


G|--------|--------|--------|--------|--------|--------|--------|--------|--------|
D|--------|--------|--------|--------|--------|--------|--------|--------|--------|
A|--------|--------|--------|--------|--------|--------|--------|--------|--------|
E|--------|--------|--------|--------|--------|--------|--------|--------|--------|


G|--------|--------|--------|
D|--------|--------|--------|
A|--------|--------|--------|
E|--------|--------|--------|